  0
SECTION
  2
HEADER
  9
$ACADVER
  1
AC1009
  9
$INSBASE
 10
4272.5816324297247775
 20
95.2038208900558658
 30
0.0
  9
$EXTMIN
 10
4271.597373794052146
 20
95.1988246667190339
 30
0.0
  9
$EXTMAX
 10
4273.5658910653928615
 20
101.3625268634086041
 30
0.0
  9
$LIMMIN
 10
0.0
 20
0.0
  9
$LIMMAX
 10
11.6929133858000007
 20
8.2677165353999982
  9
$ORTHOMODE
 70
     0
  9
$REGENMODE
 70
     1
  9
$FILLMODE
 70
     1
  9
$QTEXTMODE
 70
     0
  9
$MIRRTEXT
 70
     0
  9
$DRAGMODE
 70
     2
  9
$LTSCALE
 40
0.6431102362
  9
$OSMODE
 70
  4095
  9
$ATTMODE
 70
     1
  9
$TEXTSIZE
 40
0.2
  9
$TRACEWID
 40
0.05
  9
$TEXTSTYLE
  7
STANDARD
  9
$CLAYER
  8
0
  9
$CELTYPE
  6
BYLAYER
  9
$CECOLOR
 62
   256
  9
$DIMSCALE
 40
1.0
  9
$DIMASZ
 40
0.1875
  9
$DIMEXO
 40
0.0625
  9
$DIMDLI
 40
0.4443307087
  9
$DIMRND
 40
0.0
  9
$DIMDLE
 40
0.0
  9
$DIMEXE
 40
0.125
  9
$DIMTP
 40
0.01
  9
$DIMTM
 40
0.01
  9
$DIMTXT
 40
2.0
  9
$DIMCEN
 40
0.1052362205
  9
$DIMTSZ
 40
0.0
  9
$DIMTOL
 70
     1
  9
$DIMLIM
 70
     0
  9
$DIMTIH
 70
     1
  9
$DIMTOH
 70
     1
  9
$DIMSE1
 70
     0
  9
$DIMSE2
 70
     0
  9
$DIMTAD
 70
     0
  9
$DIMZIN
 70
     0
  9
$DIMBLK
  1

  9
$DIMASO
 70
     1
  9
$DIMSHO
 70
     1
  9
$DIMPOST
  1
\X
  9
$DIMAPOST
  1

  9
$DIMALT
 70
     1
  9
$DIMALTD
 70
     2
  9
$DIMALTF
 40
25.3999999999999986
  9
$DIMLFAC
 40
1.0
  9
$DIMTOFL
 70
     0
  9
$DIMTVP
 40
0.0
  9
$DIMTIX
 70
     0
  9
$DIMSOXD
 70
     0
  9
$DIMSAH
 70
     0
  9
$DIMBLK1
  1

  9
$DIMBLK2
  1

  9
$DIMSTYLE
  2
STANDARD
  9
$DIMCLRD
 70
     0
  9
$DIMCLRE
 70
     0
  9
$DIMCLRT
 70
     0
  9
$DIMTFAC
 40
1.0
  9
$DIMGAP
 40
0.09
  9
$LUNITS
 70
     2
  9
$LUPREC
 70
     4
  9
$SKETCHINC
 40
0.1
  9
$FILLETRAD
 40
0.0
  9
$AUNITS
 70
     0
  9
$AUPREC
 70
     0
  9
$MENU
  1
.
  9
$ELEVATION
 40
0.0
  9
$PELEVATION
 40
0.0
  9
$THICKNESS
 40
0.0
  9
$LIMCHECK
 70
     0
  9
$BLIPMODE
 70
     0
  9
$CHAMFERA
 40
0.0
  9
$CHAMFERB
 40
0.0
  9
$SKPOLY
 70
     0
  9
$TDCREATE
 40
2458060.468368056230247
  9
$TDUPDATE
 40
2459564.7054745368659496
  9
$TDINDWG
 40
0.3454931713
  9
$TDUSRTIMER
 40
0.3454931713
  9
$USRTIMER
 70
     1
  9
$ANGBASE
 50
0.0
  9
$ANGDIR
 70
     0
  9
$PDMODE
 70
     0
  9
$PDSIZE
 40
0.3125
  9
$PLINEWID
 40
0.0
  9
$COORDS
 70
     1
  9
$SPLFRAME
 70
     0
  9
$SPLINETYPE
 70
     6
  9
$SPLINESEGS
 70
     8
  9
$ATTDIA
 70
     1
  9
$ATTREQ
 70
     1
  9
$HANDLING
 70
     1
  9
$HANDSEED
  5
C1E9
  9
$SURFTAB1
 70
     6
  9
$SURFTAB2
 70
     6
  9
$SURFTYPE
 70
     6
  9
$SURFU
 70
     6
  9
$SURFV
 70
     6
  9
$UCSNAME
  2

  9
$UCSORG
 10
0.0
 20
0.0
 30
0.0
  9
$UCSXDIR
 10
1.0
 20
0.0
 30
0.0
  9
$UCSYDIR
 10
0.0
 20
1.0
 30
0.0
  9
$PUCSNAME
  2

  9
$PUCSORG
 10
0.0
 20
0.0
 30
0.0
  9
$PUCSXDIR
 10
1.0
 20
0.0
 30
0.0
  9
$PUCSYDIR
 10
0.0
 20
1.0
 30
0.0
  9
$USERI1
 70
     0
  9
$USERI2
 70
     0
  9
$USERI3
 70
     0
  9
$USERI4
 70
     0
  9
$USERI5
 70
     0
  9
$USERR1
 40
0.0
  9
$USERR2
 40
0.0
  9
$USERR3
 40
0.0
  9
$USERR4
 40
0.0
  9
$USERR5
 40
0.0
  9
$WORLDVIEW
 70
     1
  9
$SHADEDGE
 70
     3
  9
$SHADEDIF
 70
    70
  9
$TILEMODE
 70
     1
  9
$MAXACTVP
 70
    64
  9
$PLIMCHECK
 70
     0
  9
$PEXTMIN
 10
1.0000000000000000E+20
 20
1.0000000000000000E+20
 30
1.0000000000000000E+20
  9
$PEXTMAX
 10
-1.0000000000000000E+20
 20
-1.0000000000000000E+20
 30
-1.0000000000000000E+20
  9
$PLIMMIN
 10
0.0
 20
0.0
  9
$PLIMMAX
 10
12.0
 20
9.0
  9
$UNITMODE
 70
     0
  9
$VISRETAIN
 70
     1
  9
$PLINEGEN
 70
     0
  9
$PSLTSCALE
 70
     1
  0
ENDSEC
  0
SECTION
  2
TABLES
  0
TABLE
  2
VPORT
 70
     1
  0
VPORT
  2
*ACTIVE
 70
     0
 10
0.0
 20
0.0
 11
1.0
 21
1.0
 12
7.5752847734725028
 22
-5.3346921799488127
 13
0.0
 23
0.0
 14
1.0
 24
1.0
 15
0.0
 25
0.0
 16
0.0
 26
0.0
 36
122.0237731519760018
 17
4265.00634765625
 27
104.3040122985839986
 37
0.0
 40
7.5898445540041877
 41
1.67063492063492
 42
50.0
 43
0.0
 44
0.0
 50
0.0
 51
0.0
 71
     0
 72
   100
 73
     1
 74
     1
 75
     0
 76
     0
 77
     0
 78
     0
  0
ENDTAB
  0
TABLE
  2
LTYPE
 70
     2
  0
LTYPE
  2
CONTINUOUS
 70
     0
  3
Solid line
 72
    65
 73
     0
 40
0.0
  0
LTYPE
  2
PHANTOM2
 70
     0
  3
___ _ _ ___ _ _ ___ _ _ ___ _ _
 72
    65
 73
     6
 40
1.25
 49
0.625
 49
-0.125
 49
0.125
 49
-0.125
 49
0.125
 49
-0.125
  0
ENDTAB
  0
TABLE
  2
LAYER
 70
     2
  0
LAYER
  2
0
 70
     0
 62
   255
  6
CONTINUOUS
  0
LAYER
  2
DEFPOINTS
 70
     0
 62
     7
  6
CONTINUOUS
  0
ENDTAB
  0
TABLE
  2
STYLE
 70
     1
  0
STYLE
  2
STANDARD
 70
     0
 40
0.0
 41
0.8
 50
0.0
 71
     0
 42
0.2
  3
txt
  4

  0
ENDTAB
  0
TABLE
  2
VIEW
 70
     0
  0
ENDTAB
  0
TABLE
  2
UCS
 70
     0
  0
ENDTAB
  0
TABLE
  2
APPID
 70
    10
  0
APPID
  2
ACAD
 70
     0
  0
APPID
  2
ACAD_MLEADERVER
 70
     0
  0
APPID
  2
ACAD_EXEMPT_FROM_CAD_STANDARDS
 70
     0
  0
APPID
  2
ACAD_NAV_VCDISPLAY
 70
     0
  0
APPID
  2
ACAECLAYERSTANDARD
 70
     0
  0
APPID
  2
ACCMTRANSPARENCY
 70
     0
  0
APPID
  2
ACAD_DSTYLE_DIMJAG
 70
     0
  0
APPID
  2
ACAD_DSTYLE_DIMTALN
 70
     0
  0
APPID
  2
ACDBATTR
 70
     0
  0
APPID
  2
DCO15
 70
     0
  0
ENDTAB
  0
TABLE
  2
DIMSTYLE
 70
     1
  0
DIMSTYLE
  2
STANDARD
 70
     0
  3

  4

  5

  6

  7

 40
1.0
 41
0.1875
 42
0.0625
 43
0.38
 44
0.125
 45
0.0
 46
0.0
 47
0.01
 48
0.01
140
0.15625
141
0.09
142
0.0
143
25.3999999999999986
144
1.0
145
0.0
146
1.0
147
0.09
 71
     1
 72
     0
 73
     1
 74
     1
 75
     0
 76
     0
 77
     0
 78
     4
170
     0
171
     2
172
     0
173
     0
174
     0
175
     0
176
     0
177
     0
178
     0
  0
ENDTAB
  0
ENDSEC
  0
SECTION
  2
BLOCKS
  0
BLOCK
  8
0
  2
$MODEL_SPACE
 70
     0
 10
0.0
 20
0.0
 30
0.0
  3
$MODEL_SPACE
  1

  0
ENDBLK
  5
21
  8
0
  0
BLOCK
 67
     1
  8
0
  2
$PAPER_SPACE
 70
     0
 10
0.0
 20
0.0
 30
0.0
  3
$PAPER_SPACE
  1

  0
ENDBLK
  5
1D
 67
     1
  8
0
  0
ENDSEC
  0
SECTION
  2
ENTITIES
  0
ATTDEF
  5
9852
  8
DEFPOINTS
 10
4272.5751840834273025
 20
95.2021580000523926
 30
0.0
 40
0.001
  1
K-33059T-4
  3

  2
MODELNUMBER
 70
     0
1001
ACDBATTR
1070
     0
1070
     1
  0
ATTDEF
  5
9853
  8
DEFPOINTS
 10
4272.5751840834273025
 20
95.2004913333857132
 30
0.0
 40
0.001
  1

  3

  2
TRADENAME
 70
     0
1001
ACDBATTR
1070
     0
1070
     1
  0
ATTDEF
  5
9854
  8
DEFPOINTS
 10
4272.5751840834273025
 20
95.1988246667190765
 30
0.0
 40
0.001
  1
BATHROOM SINK FAUCET
  3

  2
PRODUCT
 70
     0
1001
ACDBATTR
1070
     0
1070
     1
  0
LINE
  5
BD0B
  8
0
 10
4273.5658910653928615
 20
95.2038208900558658
 30
0.0
 11
4271.597373794052146
 21
95.2038208900558658
 31
0.0
  0
LINE
  5
BD0C
  8
0
 10
4271.597373794052146
 20
95.2038208900558658
 30
0.0
 11
4271.6969525341237386
 21
99.3858042744558787
 31
0.0
  0
ARC
  5
BD0D
  8
0
 10
4271.7479882310881294
 20
99.384589152016602
 30
0.0
 40
0.0510501605001863
 50
129.258204698854513
 51
178.6360872821821033
  0
ARC
  5
BD0E
  8
0
 10
4271.7826531424580025
 20
99.3421738175924105
 30
0.0
 40
0.1058289581739483
 50
117.5421644570101023
 51
129.258204698854513
  0
ARC
  5
BD0F
  8
0
 10
4272.050595640434949
 20
98.7234674543717716
 30
0.0
 40
0.7798252743676396
 50
108.5749386647289043
 51
113.9754263191426986
  0
ARC
  5
BD10
  8
0
 10
4271.7137798757476048
 20
99.7924188465879638
 30
0.0
 40
0.3413942843008857
 50
285.0082005268220087
 51
309.6320365820769211
  0
ARC
  5
BD11
  8
0
 10
4272.6107768129913893
 20
93.6465942657178232
 30
0.0
 40
6.1859597806991031
 50
90.2699429667275695
 51
92.880887501848008
  0
ARC
  5
BD12
  8
0
 10
4272.4364289045042824
 20
97.2159523244735624
 30
0.0
 40
2.6123553763192078
 50
92.9964201873192451
 51
97.3557172035519898
  0
ARC
  5
BD13
  8
0
 10
4272.1656095302232643
 20
99.3138395298062449
 30
0.0
 40
0.4970601582031661
 50
97.3557172035519898
 51
107.1408846693942962
  0
ARC
  5
BD14
  8
0
 10
4272.0359310439862384
 20
99.7247905910752053
 30
0.0
 40
0.0662025193747198
 50
104.7150326815331027
 51
154.1928736012959007
  0
ARC
  5
BD15
  8
0
 10
4272.5155975026873421
 20
99.5933318853972338
 30
0.0
 40
0.5625811995137359
 50
163.4471149431323056
 51
164.3238229509827022
  0
LINE
  5
BD16
  8
0
 10
4271.9739419745246778
 20
99.7453414076558573
 30
0.0
 11
4271.9342828141689097
 21
99.5358702515239742
 31
0.0
  0
ARC
  5
BD17
  8
0
 10
4271.9200463730512638
 20
99.5382133852738349
 30
0.0
 40
0.0144279773868543
 50
322.8075011169856907
 51
350.6536500202669231
  0
ARC
  5
BD18
  8
0
 10
4272.1446052611781852
 20
97.6819525956092178
 30
0.0
 40
1.9069412629004101
 50
96.0903896647886455
 51
100.251025203545197
  0
ARC
  5
BD19
  8
0
 10
4271.8635419155452837
 20
99.2360944463539454
 30
0.0
 40
0.3275890233746533
 50
100.251025203545197
 51
114.1453865525228935
  0
ARC
  5
BD1A
  8
0
 10
4271.7099313023281866
 20
99.5444813883920716
 30
0.0
 40
0.021771189726629
 50
271.6487896870751797
 51
334.2495616850638953
  0
ARC
  5
BD1B
  8
0
 10
4271.7039299832540564
 20
164.7542464644963047
 30
0.0
 40
65.2315275887404908
 50
269.9941785601203037
 51
270.0058214398276277
  0
ARC
  5
BD1C
  8
0
 10
4271.6998278411001593
 20
99.5437442588239918
 30
0.0
 40
0.0211761943950713
 50
179.7717587866115991
 51
263.1502681175737735
  0
LINE
  5
BD1D
  8
0
 10
4271.678651814726436
 20
99.543828615255876
 30
0.0
 11
4271.678651814726436
 21
100.4921009952557966
 31
0.0
  0
ARC
  5
BD1E
  8
0
 10
4271.7810906403910849
 20
100.4893560196329929
 30
0.0
 40
0.1024755965826388
 50
147.1264486927335042
 51
178.4650557057711069
  0
ARC
  5
BD1F
  8
0
 10
4272.6442357893656663
 20
99.6420897422451048
 30
0.0
 40
1.3100420654342511
 50
128.2250741664562099
 51
136.4327206886127897
  0
ARC
  5
BD20
  8
0
 10
4271.6502371632450377
 20
100.9210347788019959
 30
0.0
 40
0.3098955786831177
 50
306.2873574448793192
 51
349.3353046854062995
  0
LINE
  5
BD21
  8
0
 10
4271.9547799201236558
 20
100.8636851587558994
 30
0.0
 11
4272.0015954138443703
 21
101.1886837504950023
 31
0.0
  0
ARC
  5
BD22
  8
0
 10
4272.0941110148178268
 20
101.1722564314085986
 30
0.0
 40
0.0939627225877153
 50
126.5000093257441023
 51
169.9313484553753995
  0
ARC
  5
BD23
  8
0
 10
4272.2815066396933616
 20
100.9190058653874047
 30
0.0
 40
0.4090071153520364
 50
102.9512653872756971
 51
126.5000093257441023
  0
ARC
  5
BD24
  8
0
 10
4272.5388488382168362
 20
99.9379030361375129
 30
0.0
 40
1.42316350121627
 50
92.3203190375259055
 51
104.1957331028142022
  0
ARC
  5
BD25
  8
0
 10
4272.5833727692388493
 20
99.3761883438258593
 30
0.0
 40
1.986339281985797
 50
90.0501999445653922
 51
92.9475862805330593
  0
ARC
  5
BD26
  8
0
 10
4270.2367624999005784
 20
101.0520500212935957
 30
0.0
 40
1.7691108172816929
 50
2.4331563948006201
 51
4.2812655770128689
  0
ARC
  5
BD27
  8
0
 10
4272.0639701949303344
 20
101.1296919809555988
 30
0.0
 40
0.059745720194967
 50
182.4331563948005908
 51
239.0598348450049002
  0
ARC
  5
BD28
  8
0
 10
4272.0954531805191436
 20
101.1822126286892001
 30
0.0
 40
0.1209796717251347
 50
239.0598348450049002
 51
264.7188041222988772
  0
ARC
  5
BD29
  8
0
 10
4272.177377402037564
 20
102.0684913050008049
 30
0.0
 40
1.011036675605268
 50
264.7188041222988772
 51
270.5647729460038136
  0
LINE
  5
BD2A
  8
0
 10
4272.1873431782241823
 20
101.0575037468558008
 30
0.0
 11
4272.9759216812253726
 21
101.0575037468558008
 31
0.0
  0
ARC
  5
BD2B
  8
0
 10
4272.5816324297247775
 20
99.8755484539998548
 30
0.0
 40
0.1271932453002886
 50
339.3913451370308962
 51
200.6086548629675974
  0
LINE
  5
BD2C
  8
0
 10
4271.8052437952155742
 20
99.558454334369813
 30
0.0
 11
4271.8021864150250622
 21
99.4626699403482206
 31
0.0
  0
ARC
  5
BD2D
  8
0
 10
4273.5975471225237925
 20
99.4065794386795858
 30
0.0
 40
1.6119225279196789
 50
179.0573662615798867
 51
193.9271131833795891
  0
ARC
  5
BD2E
  8
0
 10
4302.5270836453792072
 20
100.8463439032363027
 30
0.0
 40
30.5739212552644304
 50
182.077478926991688
 51
182.6493790428822876
  0
ARC
  5
BD2F
  8
0
 10
4272.0647717061347066
 20
99.7344318379897317
 30
0.0
 40
0.0915836796484365
 50
173.993917184200086
 51
177.7598589456605964
  0
ARC
  5
BD30
  8
0
 10
4272.4083087807030097
 20
98.8789365317820597
 30
0.0
 40
0.2513296687198882
 50
101.0200122465561066
 51
125.4208772309778936
  0
ARC
  5
BD31
  8
0
 10
4272.3172933908072082
 20
99.0014203263462065
 30
0.0
 40
0.0988162662904574
 50
123.5761310271456068
 51
145.9653038805545009
  0
ARC
  5
BD32
  8
0
 10
4272.2744540024950766
 20
99.0303536184976991
 30
0.0
 40
0.0471215026704835
 50
145.9653038805545009
 51
179.1980863992345974
  0
LINE
  5
BD33
  8
0
 10
4272.2273371150386083
 20
99.0310131110558842
 30
0.0
 11
4272.2273371150386083
 21
98.9760452940554103
 31
0.0
  0
ARC
  5
BD34
  8
0
 10
4272.5516018031930798
 20
99.5198144323166787
 30
0.0
 40
0.6903826697652951
 50
253.4853703126493087
 51
264.4232024256421028
  0
ARC
  5
BD35
  8
0
 10
4272.581934393139818
 20
99.7856805822956261
 30
0.0
 40
0.9579480350705278
 50
264.1628932793660738
 51
269.4989503626898113
  0
ARC
  5
BD36
  8
0
 10
4272.5843393953409759
 20
99.8039958245785215
 30
0.0
 40
0.9695551882838294
 50
266.6013102195880151
 51
269.3628185221843978
  0
ARC
  5
BD37
  8
0
 10
4272.5720813596153675
 20
99.6191001475739313
 30
0.0
 40
0.7842590456949388
 50
259.4876169242446053
 51
266.694473160402481
  0
ARC
  5
BD38
  8
0
 10
4272.5239662340782161
 20
99.3621867968154078
 30
0.0
 40
0.5228795278924335
 50
251.9970474311641055
 51
259.5351957699911054
  0
ARC
  5
BD39
  8
0
 10
4272.4346760510607055
 20
99.1000045958572855
 30
0.0
 40
0.2459677671177694
 50
235.6896582611225028
 51
252.9025197602113906
  0
ARC
  5
BD3A
  8
0
 10
4272.3484397818356229
 20
98.9708314818045949
 30
0.0
 40
0.0906757573658883
 50
216.2199042580596995
 51
234.6907314721059947
  0
ARC
  5
BD3B
  8
0
 10
4272.3104035378073604
 20
98.9432770981509861
 30
0.0
 40
0.0437090144262706
 50
181.3796177807066101
 51
216.5416445683208906
  0
ARC
  5
BD3C
  8
0
 10
4272.2944672259145591
 20
98.9417466258803984
 30
0.0
 40
0.0472064351650453
 50
134.2033632646015064
 51
189.7302290633672897
  0
LINE
  5
BD3D
  8
0
 10
4273.5658910653928615
 20
95.2038208900558658
 30
0.0
 11
4273.4663123253239974
 21
99.3858042744558787
 31
0.0
  0
ARC
  5
BD3E
  8
0
 10
4273.4152766283614255
 20
99.384589152016602
 30
0.0
 40
0.0510501605001863
 50
1.3639127178178969
 51
50.7417953011454514
  0
ARC
  5
BD3F
  8
0
 10
4273.3806117169915524
 20
99.3421738175924105
 30
0.0
 40
0.1058289581739483
 50
50.7417953011454514
 51
62.4578355429899119
  0
ARC
  5
BD40
  8
0
 10
4273.1126692190127869
 20
98.7234674543717716
 30
0.0
 40
0.7798252743676396
 50
66.0245736808573014
 51
71.4250613352710815
  0
ARC
  5
BD41
  8
0
 10
4273.4494849837010406
 20
99.7924188465879638
 30
0.0
 40
0.3413942843008857
 50
230.3679634179231925
 51
254.991799473127486
  0
ARC
  5
BD42
  8
0
 10
4272.5524880464572561
 20
93.6465942657195711
 30
0.0
 40
6.1859597806973792
 50
87.1191124981520062
 51
89.7300570332724448
  0
ARC
  5
BD43
  8
0
 10
4272.7268359549434535
 20
97.2159523244735624
 30
0.0
 40
2.6123553763192078
 50
82.644282796447996
 51
87.0035798126807549
  0
ARC
  5
BD44
  8
0
 10
4272.9976553292253811
 20
99.3138395298062449
 30
0.0
 40
0.4970601582031661
 50
72.859115330605718
 51
82.644282796447996
  0
ARC
  5
BD45
  8
0
 10
4273.1273338154633166
 20
99.7247905910752053
 30
0.0
 40
0.0662025193747198
 50
25.8071263987040602
 51
75.2849673184164772
  0
ARC
  5
BD46
  8
0
 10
4272.6476673567622129
 20
99.5933318853972338
 30
0.0
 40
0.5625811995137359
 50
15.6761770490172605
 51
16.5528850568677015
  0
LINE
  5
BD47
  8
0
 10
4273.1893228849248771
 20
99.7453414076558573
 30
0.0
 11
4273.2289820452797358
 21
99.5358702515239742
 31
0.0
  0
ARC
  5
BD48
  8
0
 10
4273.2432184863982911
 20
99.5382133852738349
 30
0.0
 40
0.0144279773868543
 50
189.3463499797323095
 51
217.1924988830141956
  0
ARC
  5
BD49
  8
0
 10
4273.0186595982695508
 20
97.6819525956092178
 30
0.0
 40
1.9069412629004101
 50
79.7489747964547036
 51
83.9096103352113545
  0
ARC
  5
BD4A
  8
0
 10
4273.2997229439042712
 20
99.2360944463539454
 30
0.0
 40
0.3275890233746533
 50
65.8546134474771065
 51
79.7489747964547036
  0
ARC
  5
BD4B
  8
0
 10
4273.4533335571213684
 20
99.5444813883920716
 30
0.0
 40
0.021771189726629
 50
205.7504383149361047
 51
268.3512103129248203
  0
ARC
  5
BD4C
  8
0
 10
4273.459334876196408
 20
164.7542464644963047
 30
0.0
 40
65.2315275887404908
 50
269.9941785601203037
 51
270.0058214398276277
  0
ARC
  5
BD4D
  8
0
 10
4273.462998976394374
 20
99.5441312745598452
 30
0.0
 40
0.0216161872780938
 50
277.880226850127201
 51
359.1977462456716239
  0
LINE
  5
BD4E
  8
0
 10
4273.4846130447240284
 20
99.543828615255876
 30
0.0
 11
4273.4846130447240284
 21
100.4921009952557966
 31
0.0
  0
ARC
  5
BD4F
  8
0
 10
4273.3104410546784493
 20
100.4671450680780964
 30
0.0
 40
0.1759507897620657
 50
8.1540262630414873
 51
26.25446933844621
  0
ARC
  5
BD50
  8
0
 10
4272.5190290700838887
 20
99.6420897422451048
 30
0.0
 40
1.3100420654342511
 50
43.5672793113871677
 51
51.7749258335437474
  0
ARC
  5
BD51
  8
0
 10
4273.5130276962036078
 20
100.9210347788019959
 30
0.0
 40
0.3098955786831177
 50
190.6646953145937005
 51
233.7126425551207092
  0
LINE
  5
BD52
  8
0
 10
4273.2084849393249897
 20
100.8636851587558994
 30
0.0
 11
4273.1616694456051846
 21
101.1886837504950023
 31
0.0
  0
ARC
  5
BD53
  8
0
 10
4273.0691538446289997
 20
101.1722564314085986
 30
0.0
 40
0.0939627225877153
 50
10.0686515446245792
 51
53.499990674255848
  0
ARC
  5
BD54
  8
0
 10
4272.8817582197561933
 20
100.9190058653874047
 30
0.0
 40
0.4090071153520364
 50
53.499990674255848
 51
77.0487346126734991
  0
ARC
  5
BD55
  8
0
 10
4272.6244160212318093
 20
99.9379030361375129
 30
0.0
 40
1.42316350121627
 50
75.8042668971857978
 51
87.6796809625261346
  0
ARC
  5
BD56
  8
0
 10
4272.5798920902097962
 20
99.3761883438258593
 30
0.0
 40
1.986339281985797
 50
87.0524137195189667
 51
89.9498000554345936
  0
ARC
  5
BD57
  8
0
 10
4274.9265023595471575
 20
101.0520500212935957
 30
0.0
 40
1.7691108172816929
 50
175.7187344229870973
 51
177.5668436051994092
  0
ARC
  5
BD58
  8
0
 10
4273.0992946645192205
 20
101.1296919809555988
 30
0.0
 40
0.059745720194967
 50
300.9401651549950998
 51
357.5668436051993808
  0
ARC
  5
BD59
  8
0
 10
4273.0678116789304113
 20
101.1822126286892001
 30
0.0
 40
0.1209796717251347
 50
275.2811958777011228
 51
300.9401651549950998
  0
ARC
  5
BD5A
  8
0
 10
4272.9858874574110814
 20
102.0684913050008049
 30
0.0
 40
1.011036675605268
 50
269.4352270539440042
 51
275.2811958777011228
  0
LINE
  5
BD5B
  8
0
 10
4273.3580210642330712
 20
99.558454334369813
 30
0.0
 11
4273.3610784444226738
 21
99.4626699403482206
 31
0.0
  0
ARC
  5
BD5C
  8
0
 10
4272.5775948533755582
 20
97.2769931847226985
 30
0.0
 40
1.5507812476098699
 50
89.8508259330978092
 51
90.1491740670063848
  0
ARC
  5
BD5D
  8
0
 10
4272.5778241129528396
 20
97.7708265121767539
 30
0.0
 40
1.0636826362309391
 50
89.7948627374249781
 51
90.2298357968167153
  0
ARC
  5
BD5E
  8
0
 10
4272.5751442586761186
 20
98.2708494941467734
 30
0.0
 40
0.881376865742181
 50
89.5782188189431849
 51
104.1107896846866936
  0
ARC
  5
BD5F
  8
0
 10
4272.5412349735852331
 20
98.4625215899923631
 30
0.0
 40
0.5847556740788113
 50
98.7464177598085513
 51
109.180685231426807
  0
ARC
  5
BD60
  8
0
 10
4272.4190890357576791
 20
98.8142886789634645
 30
0.0
 40
0.2123854325038886
 50
109.2365813774135006
 51
125.8692169830493981
  0
ARC
  5
BD61
  8
0
 10
4272.3419634989249971
 20
98.9209540334958746
 30
0.0
 40
0.0807577519447278
 50
125.8692169830493981
 51
153.3304874803293103
  0
ARC
  5
BD62
  8
0
 10
4272.3053612092153344
 20
98.942056120189747
 30
0.0
 40
0.0386543831401661
 50
156.9322875174080991
 51
179.7500669434645886
  0
ARC
  5
BD63
  8
0
 10
4272.4218016178938342
 20
99.0985242811748464
 30
0.0
 40
0.2496189575232255
 50
233.0244352041428044
 51
254.5618417326002998
  0
ARC
  5
BD64
  8
0
 10
4272.3111885301186703
 20
98.9516054332546702
 30
0.0
 40
0.0657157137751416
 50
195.7493081029795121
 51
233.0244352041422928
  0
ARC
  5
BD65
  8
0
 10
4272.4196540320899658
 20
98.7966712256520339
 30
0.0
 40
0.2387602814249808
 50
105.1347422558388018
 51
131.4654443816990863
  0
ARC
  5
BD66
  8
0
 10
4272.6241495317126464
 20
98.0406003244113009
 30
0.0
 40
1.0219981872167481
 50
100.2637671401511028
 51
105.1347422558388018
  0
ARC
  5
BD67
  8
0
 10
4272.3070286073434545
 20
98.9764117647251283
 30
0.0
 40
0.0796923281414272
 50
180.2624162391055052
 51
209.0584387725726003
  0
ARC
  5
BD68
  8
0
 10
4272.3411632144880059
 20
98.995378425130454
 30
0.0
 40
0.118742367986182
 50
209.0584387725726003
 51
234.2648060397237089
  0
ARC
  5
BD69
  8
0
 10
4272.3147083835074227
 20
98.9756564301388835
 30
0.0
 40
0.0485885113508923
 50
202.3780624789517049
 51
211.8424475238954869
  0
ARC
  5
BD6A
  8
0
 10
4272.3450095214730027
 20
98.997066423495923
 30
0.0
 40
0.085653282301483
 50
213.3151844473829044
 51
234.6274470371286043
  0
ARC
  5
BD6B
  8
0
 10
4272.4597895970737227
 20
99.1718253614881462
 30
0.0
 40
0.2946950865545726
 50
236.1001839606286126
 51
248.4036031979462962
  0
ARC
  5
BD6C
  8
0
 10
4272.585486658868831
 20
99.4582345215292492
 30
0.0
 40
0.6073710848736831
 50
247.3228872741024134
 51
255.7829332213946998
  0
ARC
  5
BD6D
  8
0
 10
4272.5609866718723424
 20
99.3252446471819752
 30
0.0
 40
0.4725213441572571
 50
254.7022172975711953
 51
263.7553963141244822
  0
ARC
  5
BD6E
  8
0
 10
4272.5807194658909793
 20
99.4187514166273729
 30
0.0
 40
0.5676982694717351
 50
262.8021345817577981
 51
268.8453316598880747
  0
ARC
  5
BD6F
  8
0
 10
4272.580878394460342
 20
100.1050318996451978
 30
0.0
 40
1.2539171219414069
 50
269.4700014448778234
 51
270.0344544627902792
  0
ARC
  5
BD70
  8
0
 10
4272.589674424813893
 20
99.6887556348722654
 30
0.0
 40
0.7824829604459703
 50
264.3179774974809106
 51
269.4111303210689243
  0
ARC
  5
BD71
  8
0
 10
4272.5814472570064027
 20
99.5296516119477133
 30
0.0
 40
0.6233920265506371
 50
254.8094462092259107
 51
263.6225944428093158
  0
ARC
  5
BD72
  8
0
 10
4272.5778639216077863
 20
99.5164541474642306
 30
0.0
 40
0.6097167436882733
 50
249.2293747528391066
 51
254.8094462092259107
  0
ARC
  5
BD73
  8
0
 10
4272.5808208095249938
 20
99.524250247856429
 30
0.0
 40
0.618054751093302
 50
246.563251232927712
 51
249.2293747528391066
  0
ARC
  5
BD74
  8
0
 10
4272.5658660940771369
 20
99.4897526621084438
 30
0.0
 40
0.5804551907689149
 50
245.5239871072674873
 51
246.563251232927712
  0
LINE
  5
BD75
  8
0
 10
4272.3253763994753172
 20
98.961460190762665
 30
0.0
 11
4272.3248709838626382
 21
98.9590010118240855
 31
0.0
  0
LINE
  5
BD76
  8
0
 10
4272.3274175083906812
 20
98.9605357874014544
 30
0.0
 11
4272.3248709838735522
 21
98.9590010118854337
 31
0.0
  0
LINE
  5
BD77
  8
0
 10
4272.3248709838735522
 20
98.9590010118854337
 30
0.0
 11
4272.3212756572393118
 21
98.9606524885558656
 31
0.0
  0
LINE
  5
BD78
  8
0
 10
4272.3212756572393118
 20
98.9606524885558656
 30
0.0
 11
4272.3114331375618349
 21
98.9583778429253158
 31
0.0
  0
LINE
  5
BD79
  8
0
 10
4272.3114331375618349
 20
98.9583778429253158
 30
0.0
 11
4272.3212756572393118
 21
98.9473051821541958
 31
0.0
  0
LINE
  5
BD7A
  8
0
 10
4272.3212756572393118
 20
98.9473051821541958
 30
0.0
 11
4272.3232934060533807
 21
98.9463779917956856
 31
0.0
  0
LINE
  5
BD7B
  8
0
 10
4272.3232934060533807
 20
98.9463779917956856
 30
0.0
 11
4272.3388542059010433
 21
98.9555275980587368
 31
0.0
  0
LINE
  5
BD7C
  8
0
 10
4272.6013174691606764
 20
98.8588360577350329
 30
0.0
 11
4272.5914749494386342
 21
98.8615977334036558
 31
0.0
  0
LINE
  5
BD7D
  8
0
 10
4272.5439864544387092
 20
99.0396874555776492
 30
0.0
 11
4272.5341439347675987
 21
99.0267544302156466
 31
0.0
  0
LINE
  5
BD7E
  8
0
 10
4272.5341439347675987
 20
99.0267544302156466
 30
0.0
 11
4272.5439864544387092
 21
99.0129682319558668
 31
0.0
  0
LINE
  5
BD7F
  8
0
 10
4272.5439864544387092
 20
99.0129682319558668
 30
0.0
 11
4272.5636714938400473
 21
99.0120174600558585
 31
0.0
  0
LINE
  5
BD80
  8
0
 10
4272.5636714938400473
 20
99.0120174600558585
 30
0.0
 11
4272.5735140135002439
 21
99.0248245772103814
 31
0.0
  0
LINE
  5
BD81
  8
0
 10
4272.5735140135002439
 20
99.0248245772103814
 30
0.0
 11
4272.5636714938400473
 21
99.0387077256271056
 31
0.0
  0
LINE
  5
BD82
  8
0
 10
4272.5636714938400473
 20
99.0387077256271056
 30
0.0
 11
4272.5439864544387092
 21
99.0396874555776492
 31
0.0
  0
LINE
  5
BD83
  8
0
 10
4272.5161476047887845
 20
99.0201992457181177
 30
0.0
 11
4272.5063050851149455
 21
99.0087017742494737
 31
0.0
  0
LINE
  5
BD84
  8
0
 10
4272.5063050851149455
 20
99.0087017742494737
 30
0.0
 11
4272.5161476047387623
 21
98.9953896507558682
 31
0.0
  0
LINE
  5
BD85
  8
0
 10
4272.5161476047387623
 20
98.9953896507558682
 30
0.0
 11
4272.5358326441537429
 21
98.9935194035536625
 31
0.0
  0
LINE
  5
BD86
  8
0
 10
4272.5358326441537429
 20
98.9935194035536625
 30
0.0
 11
4272.5456751639812865
 21
99.0049135316067463
 31
0.0
  0
LINE
  5
BD87
  8
0
 10
4272.5456751639812865
 20
99.0049135316067463
 30
0.0
 11
4272.5357915149706969
 21
99.0182836277461718
 31
0.0
  0
LINE
  5
BD88
  8
0
 10
4272.5357915149706969
 20
99.0182836277461718
 30
0.0
 11
4272.5161476047887845
 21
99.0201992457181177
 31
0.0
  0
LINE
  5
BD89
  8
0
 10
4272.4873420656685994
 20
99.0450017003762042
 30
0.0
 11
4272.4784662354786633
 21
99.0342125397765756
 31
0.0
  0
LINE
  5
BD8A
  8
0
 10
4272.4784662354786633
 20
99.0342125397766324
 30
0.0
 11
4272.4883087551561403
 21
99.0193432619188059
 31
0.0
  0
LINE
  5
BD8B
  8
0
 10
4272.4883087551561403
 20
99.0193432619188059
 30
0.0
 11
4272.5079937944874473
 21
99.0164603077716663
 31
0.0
  0
LINE
  5
BD8C
  8
0
 10
4272.5079937944874473
 20
99.0164603077716663
 30
0.0
 11
4272.51783631438866
 21
99.0283588265486685
 31
0.0
  0
LINE
  5
BD8D
  8
0
 10
4272.51783631438866
 20
99.0283588265486685
 30
0.0
 11
4272.507993794540198
 21
99.0432868704558587
 31
0.0
  0
LINE
  5
BD8E
  8
0
 10
4272.507993794540198
 20
99.0432868704558587
 30
0.0
 11
4272.4924202726497242
 21
99.0455324633152543
 31
0.0
  0
LINE
  5
BD8F
  8
0
 10
4272.460469905438913
 20
99.0292474181967464
 30
0.0
 11
4272.4506273858178247
 21
99.0187684553683312
 31
0.0
  0
LINE
  5
BD90
  8
0
 10
4272.4506273858178247
 20
99.0187684553683312
 30
0.0
 11
4272.460469905438913
 21
99.0043533949639993
 31
0.0
  0
LINE
  5
BD91
  8
0
 10
4272.460469905438913
 20
99.0043533949639993
 30
0.0
 11
4272.4801549448393416
 21
99.0005541711558834
 31
0.0
  0
LINE
  5
BD92
  8
0
 10
4272.4801549448393416
 20
99.0005541711558834
 30
0.0
 11
4272.4899974646696137
 21
99.0110697520805445
 31
0.0
  0
LINE
  5
BD93
  8
0
 10
4272.4899974646696137
 20
99.0110697520805445
 30
0.0
 11
4272.4801549448393416
 21
99.0255000764558702
 31
0.0
  0
LINE
  5
BD94
  8
0
 10
4272.4801549448393416
 20
99.0255000764558702
 30
0.0
 11
4272.460469905438913
 21
99.0292474181967464
 31
0.0
  0
LINE
  5
BD95
  8
0
 10
4272.4883087551561403
 20
99.00357868629564
 30
0.0
 11
4272.4784662354677494
 21
98.993441610396431
 31
0.0
  0
LINE
  5
BD96
  8
0
 10
4272.4784662354677494
 20
98.993441610396431
 30
0.0
 11
4272.4883087551388599
 21
98.9805509928967808
 31
0.0
  0
LINE
  5
BD97
  8
0
 10
4272.4883087551388599
 20
98.9805509928967808
 30
0.0
 11
4272.5079937944810808
 21
98.9777765541130066
 31
0.0
  0
LINE
  5
BD98
  8
0
 10
4272.5079937944810808
 20
98.9777765541130066
 30
0.0
 11
4272.5178363143058959
 21
98.9878322437100167
 31
0.0
  0
LINE
  5
BD99
  8
0
 10
4272.5178363143058959
 20
98.9878322437100167
 30
0.0
 11
4272.5079937945320125
 21
99.0007428108617944
 31
0.0
  0
LINE
  5
BD9A
  8
0
 10
4272.5079937945320125
 20
99.0007428108617944
 30
0.0
 11
4272.4883087551561403
 21
99.00357868629564
 31
0.0
  0
LINE
  5
BD9B
  8
0
 10
4272.543986454377773
 20
98.9973070627820277
 30
0.0
 11
4272.5341439347012056
 21
98.9862938814395221
 31
0.0
  0
LINE
  5
BD9C
  8
0
 10
4272.5341439347012056
 20
98.9862938814395221
 30
0.0
 11
4272.5439864544387092
 21
98.9744143638558569
 31
0.0
  0
LINE
  5
BD9D
  8
0
 10
4272.5439864544387092
 20
98.9744143638558569
 30
0.0
 11
4272.5636714938400473
 21
98.9734986639950307
 31
0.0
  0
LINE
  5
BD9E
  8
0
 10
4272.5636714938400473
 20
98.9734986639950307
 30
0.0
 11
4272.5735140137267081
 21
98.9844429329870934
 31
0.0
  0
LINE
  5
BD9F
  8
0
 10
4272.5735140137267081
 20
98.9844429329870934
 30
0.0
 11
4272.5636714938491423
 21
98.9963714965849988
 31
0.0
  0
LINE
  5
BDA0
  8
0
 10
4272.5636714938491423
 20
98.9963714965849988
 30
0.0
 11
4272.543986454377773
 21
98.9973070627820277
 31
0.0
  0
LINE
  5
BDA1
  8
0
 10
4272.5161476047724136
 20
98.9808677280736333
 30
0.0
 11
4272.5063050851576918
 21
98.9711738798676066
 31
0.0
  0
LINE
  5
BDA2
  8
0
 10
4272.5063050851576918
 20
98.9711738798676066
 30
0.0
 11
4272.5161476047387623
 21
98.9596899149558737
 31
0.0
  0
LINE
  5
BDA3
  8
0
 10
4272.5161476047387623
 20
98.9596899149558737
 30
0.0
 11
4272.5358326441619283
 21
98.9578778922246016
 31
0.0
  0
LINE
  5
BDA4
  8
0
 10
4272.5358326441619283
 20
98.9578778922246016
 30
0.0
 11
4272.5456751640713264
 21
98.9675174461552132
 31
0.0
  0
LINE
  5
BDA5
  8
0
 10
4272.5456751640713264
 20
98.9675174461552132
 30
0.0
 11
4272.5358326441655663
 21
98.9790228914631882
 31
0.0
  0
LINE
  5
BDA6
  8
0
 10
4272.5358326441655663
 20
98.9790228914631882
 30
0.0
 11
4272.5161476047724136
 21
98.9808677280736333
 31
0.0
  0
LINE
  5
BDA7
  8
0
 10
4272.488308755113394
 20
98.9671048509916602
 30
0.0
 11
4272.4784662354522879
 21
98.9588507950107328
 31
0.0
  0
LINE
  5
BDA8
  8
0
 10
4272.4784662354522879
 20
98.9588507950107328
 30
0.0
 11
4272.4885492110506675
 21
98.9475272070875036
 31
0.0
  0
LINE
  5
BDA9
  8
0
 10
4272.4885492110506675
 20
98.9475272070875036
 30
0.0
 11
4272.5079937944710764
 21
98.944861550449005
 31
0.0
  0
LINE
  5
BDAA
  8
0
 10
4272.5079937944710764
 20
98.944861550449005
 30
0.0
 11
4272.5178363142904345
 21
98.9532414283243469
 31
0.0
  0
LINE
  5
BDAB
  8
0
 10
4272.5178363142904345
 20
98.9532414283243469
 30
0.0
 11
4272.507993794540198
 21
98.9643621183558651
 31
0.0
  0
LINE
  5
BDAC
  8
0
 10
4272.507993794540198
 20
98.9643621183558651
 30
0.0
 11
4272.488308755113394
 21
98.9671048509916602
 31
0.0
  0
LINE
  5
BDAD
  8
0
 10
4272.4604699054880257
 20
98.9897071384076241
 30
0.0
 11
4272.4506273857050473
 21
98.9808810904231677
 31
0.0
  0
LINE
  5
BDAE
  8
0
 10
4272.4506273857050473
 20
98.9808810904231677
 30
0.0
 11
4272.4604699054580124
 21
98.968368925089095
 31
0.0
  0
LINE
  5
BDAF
  8
0
 10
4272.4604699054580124
 20
98.968368925089095
 30
0.0
 11
4272.4801549448266087
 21
98.9646915452184714
 31
0.0
  0
LINE
  5
BDB0
  8
0
 10
4272.4801549448266087
 20
98.9646915452184714
 30
0.0
 11
4272.4899974646814371
 21
98.9734585169542243
 31
0.0
  0
LINE
  5
BDB1
  8
0
 10
4272.4899974646814371
 20
98.9734585169542243
 30
0.0
 11
4272.4801549449057347
 21
98.9863690841060162
 31
0.0
  0
LINE
  5
BDB2
  8
0
 10
4272.4801549449057347
 20
98.9863690841060162
 30
0.0
 11
4272.4604699054880257
 21
98.9897071384076241
 31
0.0
  0
LINE
  5
BDB3
  8
0
 10
4272.43263105574988
 20
99.0153876510823636
 30
0.0
 11
4272.4227885360660366
 21
99.0061122659043349
 31
0.0
  0
LINE
  5
BDB4
  8
0
 10
4272.4227885360660366
 20
99.0061122659043349
 30
0.0
 11
4272.43263105583992
 21
98.9920968648558528
 31
0.0
  0
LINE
  5
BDB5
  8
0
 10
4272.43263105583992
 20
98.9920968648558528
 30
0.0
 11
4272.4523160951393947
 21
98.9873774332547782
 31
0.0
  0
LINE
  5
BDB6
  8
0
 10
4272.4523160951393947
 20
98.9873774332547782
 30
0.0
 11
4272.4621586150751682
 21
98.9965659373240214
 31
0.0
  0
LINE
  5
BDB7
  8
0
 10
4272.4621586150751682
 20
98.9965659373240214
 30
0.0
 11
4272.4523160951393947
 21
99.0105592043092742
 31
0.0
  0
LINE
  5
BDB8
  8
0
 10
4272.4523160951393947
 20
99.0105592043092742
 30
0.0
 11
4272.43263105574988
 21
99.0153876510823636
 31
0.0
  0
LINE
  5
BDB9
  8
0
 10
4272.5439864544296142
 20
98.9610379120731238
 30
0.0
 11
4272.5341439347466803
 21
98.951747567639643
 31
0.0
  0
LINE
  5
BDBA
  8
0
 10
4272.5341439347466803
 20
98.951747567639643
 30
0.0
 11
4272.5440642016819766
 21
98.9415806714057311
 31
0.0
  0
LINE
  5
BDBB
  8
0
 10
4272.5440642016819766
 20
98.9415806714057311
 30
0.0
 11
4272.5636714938227669
 21
98.9406930029676062
 31
0.0
  0
LINE
  5
BDBC
  8
0
 10
4272.5636714938227669
 20
98.9406930029676062
 30
0.0
 11
4272.5735140135184338
 21
98.9499498312324306
 31
0.0
  0
LINE
  5
BDBD
  8
0
 10
4272.5735140135184338
 20
98.9499498312324306
 30
0.0
 11
4272.5636436073400546
 21
98.9601333038137767
 31
0.0
  0
LINE
  5
BDBE
  8
0
 10
4272.5636436073400546
 20
98.9601333038137767
 30
0.0
 11
4272.5439864544296142
 21
98.9610379120731238
 31
0.0
  0
LINE
  5
BDBF
  8
0
 10
4272.5161476047387623
 20
98.9473562742040258
 30
0.0
 11
4272.5063050851113076
 21
98.9393144261591431
 31
0.0
  0
LINE
  5
BDC0
  8
0
 10
4272.5063050851113076
 20
98.9393144261591431
 30
0.0
 11
4272.5163299264231682
 21
98.9294813917113203
 31
0.0
  0
LINE
  5
BDC1
  8
0
 10
4272.5163299264231682
 20
98.9294813917113203
 30
0.0
 11
4272.535832644139191
 21
98.9277257012653735
 31
0.0
  0
LINE
  5
BDC2
  8
0
 10
4272.535832644139191
 20
98.9277257012653735
 30
0.0
 11
4272.5456751637875641
 21
98.9357441413328615
 31
0.0
  0
LINE
  5
BDC3
  8
0
 10
4272.5456751637875641
 20
98.9357441413328615
 30
0.0
 11
4272.5358326441555619
 21
98.9455608703141252
 31
0.0
  0
LINE
  5
BDC4
  8
0
 10
4272.5358326441555619
 20
98.9455608703141252
 30
0.0
 11
4272.5161476047387623
 21
98.9473562742040258
 31
0.0
  0
LINE
  5
BDC5
  8
0
 10
4272.460469905438913
 20
98.9559541166459411
 30
0.0
 11
4272.4506273857368797
 21
98.9487872361628717
 31
0.0
  0
LINE
  5
BDC6
  8
0
 10
4272.4506273857368797
 20
98.9487872361628717
 30
0.0
 11
4272.4604699054498269
 21
98.9379991868981676
 31
0.0
  0
LINE
  5
BDC7
  8
0
 10
4272.4604699054498269
 20
98.9379991868981676
 30
0.0
 11
4272.4801549448466176
 21
98.9343990161985545
 31
0.0
  0
LINE
  5
BDC8
  8
0
 10
4272.4801549448466176
 20
98.9343990161985545
 30
0.0
 11
4272.4899974645450129
 21
98.9415446474840934
 31
0.0
  0
LINE
  5
BDC9
  8
0
 10
4272.4899974645450129
 20
98.9415446474840934
 30
0.0
 11
4272.4801549448393416
 21
98.9523114495558644
 31
0.0
  0
LINE
  5
BDCA
  8
0
 10
4272.4801549448393416
 20
98.9523114495558644
 30
0.0
 11
4272.460469905438913
 21
98.9559541166459411
 31
0.0
  0
LINE
  5
BDCB
  8
0
 10
4272.4326310557999022
 20
98.9785151402461736
 30
0.0
 11
4272.4227885361151493
 21
98.9709727169811231
 31
0.0
  0
LINE
  5
BDCC
  8
0
 10
4272.4227885361151493
 20
98.9709727169811231
 30
0.0
 11
4272.4326310558353725
 21
98.9588030228022149
 31
0.0
  0
LINE
  5
BDCD
  8
0
 10
4272.4326310558353725
 20
98.9588030228022149
 30
0.0
 11
4272.4523160951393947
 21
98.9542106772684349
 31
0.0
  0
LINE
  5
BDCE
  8
0
 10
4272.4523160951393947
 20
98.9542106772684349
 30
0.0
 11
4272.4621586148623464
 21
98.9617176253672142
 31
0.0
  0
LINE
  5
BDCF
  8
0
 10
4272.4621586148623464
 20
98.9617176253672142
 30
0.0
 11
4272.4523160951393947
 21
98.9738518503558566
 31
0.0
  0
LINE
  5
BDD0
  8
0
 10
4272.4523160951393947
 20
98.9738518503558566
 30
0.0
 11
4272.4326310557999022
 21
98.9785151402461736
 31
0.0
  0
LINE
  5
BDD1
  8
0
 10
4272.4047922061390636
 20
99.0041417048321648
 30
0.0
 11
4272.3949496864552202
 21
98.9961917963038331
 31
0.0
  0
LINE
  5
BDD2
  8
0
 10
4272.3949496864552202
 20
98.9961917963038331
 30
0.0
 11
4272.4047922061463396
 21
98.9825297250787344
 31
0.0
  0
LINE
  5
BDD3
  8
0
 10
4272.4047922061463396
 20
98.9825297250787344
 30
0.0
 11
4272.4244772455385828
 21
98.9768720882558739
 31
0.0
  0
LINE
  5
BDD4
  8
0
 10
4272.4244772455385828
 20
98.9768720882558739
 30
0.0
 11
4272.4343197652206072
 21
98.9847663728549207
 31
0.0
  0
LINE
  5
BDD5
  8
0
 10
4272.4343197652206072
 20
98.9847663728549207
 30
0.0
 11
4272.4244772455658676
 21
98.9983728353420531
 31
0.0
  0
LINE
  5
BDD6
  8
0
 10
4272.4244772455658676
 20
98.9983728353420531
 30
0.0
 11
4272.4047922061390636
 21
99.0041417048321648
 31
0.0
  0
LINE
  5
BDD7
  8
0
 10
4272.4047922061399731
 20
98.9699766422851042
 30
0.0
 11
4272.3949496864888715
 21
98.9637105232855845
 31
0.0
  0
LINE
  5
BDD8
  8
0
 10
4272.3949496864888715
 20
98.9637105232855845
 30
0.0
 11
4272.404792206156344
 21
98.951852617532964
 31
0.0
  0
LINE
  5
BDD9
  8
0
 10
4272.404792206156344
 20
98.951852617532964
 30
0.0
 11
4272.4244772455631391
 21
98.9463197413425917
 31
0.0
  0
LINE
  5
BDDA
  8
0
 10
4272.4244772455631391
 20
98.9463197413425917
 30
0.0
 11
4272.4343197652096933
 21
98.9525763102552389
 31
0.0
  0
LINE
  5
BDDB
  8
0
 10
4272.4343197652096933
 20
98.9525763102552389
 30
0.0
 11
4272.4244772455385828
 21
98.9643751469084521
 31
0.0
  0
LINE
  5
BDDC
  8
0
 10
4272.4244772455385828
 20
98.9643751469084521
 30
0.0
 11
4272.4047922061399731
 21
98.9699766422851042
 31
0.0
  0
LINE
  5
BDDD
  8
0
 10
4272.3769533565391612
 20
98.9956349054558586
 30
0.0
 11
4272.3671108368680507
 21
98.9890004996002659
 31
0.0
  0
LINE
  5
BDDE
  8
0
 10
4272.3671108368680507
 20
98.9890004996002659
 30
0.0
 11
4272.3769533564664016
 21
98.975651249384839
 31
0.0
  0
LINE
  5
BDDF
  8
0
 10
4272.3769533564664016
 20
98.975651249384839
 30
0.0
 11
4272.3966383957686048
 21
98.9684894390593541
 31
0.0
  0
LINE
  5
BDE0
  8
0
 10
4272.3966383957686048
 20
98.9684894390593541
 30
0.0
 11
4272.4064809154660907
 21
98.9756350703449357
 31
0.0
  0
LINE
  5
BDE1
  8
0
 10
4272.4064809154660907
 20
98.9756350703449357
 30
0.0
 11
4272.3966383958386359
 21
98.9888974579360479
 31
0.0
  0
LINE
  5
BDE2
  8
0
 10
4272.3966383958386359
 20
98.9888974579360479
 30
0.0
 11
4272.3769533565391612
 21
98.9956349054558586
 31
0.0
  0
LINE
  5
BDE3
  8
0
 10
4272.3491145068392143
 20
98.9898840755558638
 30
0.0
 11
4272.3392719872508678
 21
98.9845769082913165
 31
0.0
  0
LINE
  5
BDE4
  8
0
 10
4272.3392719872508678
 20
98.9845769082913165
 30
0.0
 11
4272.3491145067873731
 21
98.9715038736914039
 31
0.0
  0
LINE
  5
BDE5
  8
0
 10
4272.3491145067873731
 20
98.9715038736914039
 30
0.0
 11
4272.368799546239643
 21
98.9638557102558849
 31
0.0
  0
LINE
  5
BDE6
  8
0
 10
4272.368799546239643
 20
98.9638557102558849
 30
0.0
 11
4272.3786420658907446
 21
98.9691781472472769
 31
0.0
  0
LINE
  5
BDE7
  8
0
 10
4272.3786420658907446
 20
98.9691781472472769
 30
0.0
 11
4272.3687995462641993
 21
98.9824405348383891
 31
0.0
  0
LINE
  5
BDE8
  8
0
 10
4272.3687995462641993
 20
98.9824405348383891
 30
0.0
 11
4272.3491145068392143
 21
98.9898840755558638
 31
0.0
  0
LINE
  5
BDE9
  8
0
 10
4272.3186313455753407
 20
99.0014138360712366
 30
0.0
 11
4272.3212756572229409
 21
98.9986934589118732
 31
0.0
  0
LINE
  5
BDEA
  8
0
 10
4272.3212756572229409
 20
98.9986934589118732
 30
0.0
 11
4272.3409606965069543
 21
98.989789520368447
 31
0.0
  0
LINE
  5
BDEB
  8
0
 10
4272.3409606965069543
 20
98.989789520368447
 30
0.0
 11
4272.3508032161907977
 21
98.9954536763852246
 31
0.0
  0
LINE
  5
BDEC
  8
0
 10
4272.3508032161907977
 20
98.9954536763852246
 30
0.0
 11
4272.3409606965387866
 21
99.0100157142558857
 31
0.0
  0
LINE
  5
BDED
  8
0
 10
4272.3409606965387866
 20
99.0100157142558857
 30
0.0
 11
4272.3383615588572866
 21
99.010733700312386
 31
0.0
  0
LINE
  5
BDEE
  8
0
 10
4272.3415895487141825
 20
99.0120294219771324
 30
0.0
 11
4272.349114506888327
 21
99.0018234428555957
 31
0.0
  0
LINE
  5
BDEF
  8
0
 10
4272.349114506888327
 20
99.0018234428555957
 30
0.0
 11
4272.3687995461923492
 21
98.994661632530125
 31
0.0
  0
LINE
  5
BDF0
  8
0
 10
4272.3687995461923492
 20
98.994661632530125
 30
0.0
 11
4272.3786420658889256
 21
99.0018072638156639
 31
0.0
  0
LINE
  5
BDF1
  8
0
 10
4272.3786420658889256
 20
99.0018072638156639
 30
0.0
 11
4272.368799546239643
 21
99.0166755583607738
 31
0.0
  0
LINE
  5
BDF2
  8
0
 10
4272.368799546239643
 20
99.0166755583607738
 30
0.0
 11
4272.3622973286910565
 21
99.0192266444038154
 31
0.0
  0
LINE
  5
BDF3
  8
0
 10
4272.3692105828131389
 20
99.0214015478966303
 30
0.0
 11
4272.3769533564745871
 21
99.0094318983947943
 31
0.0
  0
LINE
  5
BDF4
  8
0
 10
4272.3769533564745871
 20
99.0094318983947943
 30
0.0
 11
4272.3966383958386359
 21
99.0026079616558548
 31
0.0
  0
LINE
  5
BDF5
  8
0
 10
4272.3966383958386359
 20
99.0026079616558548
 30
0.0
 11
4272.4064809155515832
 21
99.0109255035906983
 31
0.0
  0
LINE
  5
BDF6
  8
0
 10
4272.4064809155515832
 20
99.0109255035906983
 30
0.0
 11
4272.3966383958668303
 21
99.0261492120660876
 31
0.0
  0
LINE
  5
BDF7
  8
0
 10
4272.3966383958668303
 20
99.0261492120660876
 30
0.0
 11
4272.3916908750752555
 21
99.0278319127073985
 31
0.0
  0
LINE
  5
BDF8
  8
0
 10
4272.3981396376575503
 20
99.0294985941145853
 30
0.0
 11
4272.4047922062009093
 21
99.0190006493294845
 31
0.0
  0
LINE
  5
BDF9
  8
0
 10
4272.4047922062009093
 20
99.0190006493294845
 30
0.0
 11
4272.424477245590424
 21
99.0131452900307352
 31
0.0
  0
LINE
  5
BDFA
  8
0
 10
4272.424477245590424
 20
99.0131452900307352
 30
0.0
 11
4272.4343197651878654
 21
99.0228016389563948
 31
0.0
  0
LINE
  5
BDFB
  8
0
 10
4272.4343197651878654
 20
99.0228016389563948
 30
0.0
 11
4272.4260435231890369
 21
99.0358191812338191
 31
0.0
  0
LINE
  5
BDFC
  8
0
 10
4272.4293496843747562
 20
99.0364735744178546
 30
0.0
 11
4272.43263105583992
 21
99.0313541750558812
 31
0.0
  0
LINE
  5
BDFD
  8
0
 10
4272.43263105583992
 20
99.0313541750558812
 30
0.0
 11
4272.4523160950484453
 21
99.0264419813443055
 31
0.0
  0
LINE
  5
BDFE
  8
0
 10
4272.4523160950484453
 20
99.0264419813443055
 30
0.0
 11
4272.4621586147950438
 21
99.0374754433629221
 31
0.0
  0
LINE
  5
BDFF
  8
0
 10
4272.4621586147950438
 20
99.0374754433629221
 30
0.0
 11
4272.4595258890658442
 21
99.0415324225275526
 31
0.0
  0
LINE
  5
BE00
  8
0
 10
4272.5097202632969129
 20
99.0471043887693554
 30
0.0
 11
4272.5161476047387623
 21
99.0371572631654118
 31
0.0
  0
LINE
  5
BE01
  8
0
 10
4272.5161476047387623
 20
99.0371572631654118
 30
0.0
 11
4272.5358326441810277
 21
99.0352012817531033
 31
0.0
  0
LINE
  5
BE02
  8
0
 10
4272.5358326441810277
 20
99.0352012817531033
 30
0.0
 11
4272.5456751638394053
 21
99.0485660787558544
 31
0.0
  0
LINE
  5
BE03
  8
0
 10
4272.5456751638394053
 20
99.0485660787558544
 30
0.0
 11
4272.5452488269356763
 21
99.0492113928387283
 31
0.0
  0
LINE
  5
BE04
  8
0
 10
4272.5619827843902385
 20
99.0041324531077152
 30
0.0
 11
4272.5718253040404306
 21
99.016532389391358
 31
0.0
  0
LINE
  5
BE05
  8
0
 10
4272.5718253040404306
 20
99.016532389391358
 30
0.0
 11
4272.5915103434399498
 21
99.016532389391358
 31
0.0
  0
LINE
  5
BE06
  8
0
 10
4272.5915103434399498
 20
99.016532389391358
 30
0.0
 11
4272.6013528631356166
 21
99.0041324530992881
 31
0.0
  0
LINE
  5
BE07
  8
0
 10
4272.6013528631356166
 20
99.0041324530992881
 30
0.0
 11
4272.5915103434235789
 21
98.9918154826243608
 31
0.0
  0
LINE
  5
BE08
  8
0
 10
4272.5915103434235789
 20
98.9918154826243608
 30
0.0
 11
4272.571825304147751
 21
98.9918154826227976
 31
0.0
  0
LINE
  5
BE09
  8
0
 10
4272.571825304147751
 20
98.9918154826227976
 30
0.0
 11
4272.5619827843429448
 21
99.0041324530360498
 31
0.0
  0
LINE
  5
BE0A
  8
0
 10
4272.5619827842983796
 20
98.9667633152541555
 30
0.0
 11
4272.5718253040849959
 21
98.9773419653637632
 31
0.0
  0
LINE
  5
BE0B
  8
0
 10
4272.5718253040849959
 20
98.9773419653637632
 30
0.0
 11
4272.5915103433953846
 21
98.9773419653637632
 31
0.0
  0
LINE
  5
BE0C
  8
0
 10
4272.5915103433953846
 20
98.9773419653637632
 30
0.0
 11
4272.6013528630446672
 21
98.9667633152457427
 31
0.0
  0
LINE
  5
BE0D
  8
0
 10
4272.6013528630446672
 20
98.9667633152457427
 30
0.0
 11
4272.5914816047597924
 21
98.9562262053486847
 31
0.0
  0
LINE
  5
BE0E
  8
0
 10
4272.5914816047597924
 20
98.9562262053486847
 30
0.0
 11
4272.5718540426296386
 21
98.9562262053501343
 31
0.0
  0
LINE
  5
BE0F
  8
0
 10
4272.5718540426296386
 20
98.9562262053501343
 30
0.0
 11
4272.5619827842510858
 21
98.9667633151825044
 31
0.0
  0
LINE
  5
BE10
  8
0
 10
4272.5619827843693201
 20
98.9350076365699636
 30
0.0
 11
4272.5718253041677599
 21
98.9439246955475653
 31
0.0
  0
LINE
  5
BE11
  8
0
 10
4272.5718253041677599
 20
98.9439246955475653
 30
0.0
 11
4272.5915103434299454
 21
98.9439246955885494
 31
0.0
  0
LINE
  5
BE12
  8
0
 10
4272.5915103434299454
 20
98.9439246955885494
 30
0.0
 11
4272.6013528631146983
 21
98.9350076365615649
 31
0.0
  0
LINE
  5
BE13
  8
0
 10
4272.6013528631146983
 20
98.9350076365615649
 30
0.0
 11
4272.5915103434399498
 21
98.9261079683558648
 31
0.0
  0
LINE
  5
BE14
  8
0
 10
4272.5915103434399498
 20
98.9261079683558648
 30
0.0
 11
4272.5718253040404306
 21
98.9261079683558648
 31
0.0
  0
LINE
  5
BE15
  8
0
 10
4272.5718253040404306
 20
98.9261079683558648
 30
0.0
 11
4272.5619827843211169
 21
98.9350076364983266
 31
0.0
  0
LINE
  5
BE16
  8
0
 10
4272.3229643666636548
 20
98.9645288728723216
 30
0.0
 11
4272.3131218468251973
 21
98.9618960952912516
 31
0.0
  0
LINE
  5
BE17
  8
0
 10
4272.3131218468251973
 20
98.9618960952912516
 30
0.0
 11
4272.2934368075875682
 21
98.9718132347967838
 31
0.0
  0
LINE
  5
BE18
  8
0
 10
4272.2934368075875682
 20
98.9718132347967838
 30
0.0
 11
4272.2869162458291612
 21
98.9800439177886915
 31
0.0
  0
LINE
  5
BE19
  8
0
 10
4272.2946445387660788
 20
98.9863966076249113
 30
0.0
 11
4272.3131218470716703
 21
98.9769700910726158
 31
0.0
  0
LINE
  5
BE1A
  8
0
 10
4272.3131218470716703
 20
98.9769700910726158
 30
0.0
 11
4272.3229643663553361
 21
98.9645288727894297
 31
0.0
  0
LINE
  5
BE1B
  8
0
 10
4272.311433137543645
 20
98.9830079045195248
 30
0.0
 11
4272.3212756571820137
 21
98.9869529595746656
 31
0.0
  0
LINE
  5
BE1C
  8
0
 10
4272.3212756571820137
 20
98.9869529595746656
 30
0.0
 11
4272.3409606966288266
 21
98.9781269725168045
 31
0.0
  0
LINE
  5
BE1D
  8
0
 10
4272.3409606966288266
 20
98.9781269725168045
 30
0.0
 11
4272.3508032162608288
 21
98.9654443164343149
 31
0.0
  0
LINE
  5
BE1E
  8
0
 10
4272.3508032162608288
 20
98.9654443164343149
 30
0.0
 11
4272.3378910429673851
 21
98.970423914155873
 31
0.0
  0
LINE
  5
BE1F
  8
0
 10
4272.3378910429673851
 20
98.970423914155873
 30
0.0
 11
4272.3329822180394331
 21
98.9648803283558607
 31
0.0
  0
LINE
  5
BE20
  8
0
 10
4272.3329822180394331
 20
98.9648803283558607
 30
0.0
 11
4272.3212756571911086
 21
98.9701766957581555
 31
0.0
  0
LINE
  5
BE21
  8
0
 10
4272.3212756571911086
 20
98.9701766957581555
 30
0.0
 11
4272.311433137543645
 21
98.9830079045195248
 31
0.0
  0
LINE
  5
BE22
  8
0
 10
4272.3671108368289424
 20
98.9591296046468187
 30
0.0
 11
4272.3769533565409802
 21
98.9641069308384402
 31
0.0
  0
LINE
  5
BE23
  8
0
 10
4272.3769533565409802
 20
98.9641069308384402
 30
0.0
 11
4272.3966383958695587
 21
98.9575317052517534
 31
0.0
  0
LINE
  5
BE24
  8
0
 10
4272.3966383958695587
 20
98.9575317052517534
 30
0.0
 11
4272.4064809156334377
 21
98.9460402276225039
 31
0.0
  0
LINE
  5
BE25
  8
0
 10
4272.4064809156334377
 20
98.9460402276225039
 30
0.0
 11
4272.3671108368289424
 21
98.9591296046468187
 31
0.0
  0
LINE
  5
BE26
  8
0
 10
4272.4227885361397057
 20
98.9414709216558492
 30
0.0
 11
4272.432631055838101
 21
98.9473913703822916
 31
0.0
  0
LINE
  5
BE27
  8
0
 10
4272.432631055838101
 20
98.9473913703822916
 30
0.0
 11
4272.4523160951675891
 21
98.9428337374303908
 31
0.0
  0
LINE
  5
BE28
  8
0
 10
4272.4523160951675891
 20
98.9428337374303908
 30
0.0
 11
4272.4621586148896313
 21
98.9323958030189345
 31
0.0
  0
LINE
  5
BE29
  8
0
 10
4272.4621586148896313
 20
98.9323958030189345
 30
0.0
 11
4272.4227885361524386
 21
98.9414709216178636
 31
0.0
  0
LINE
  5
BE2A
  8
0
 10
4272.4784662353968088
 20
98.9294221695312501
 30
0.0
 11
4272.4883087551388599
 21
98.9362364107967807
 31
0.0
  0
LINE
  5
BE2B
  8
0
 10
4272.4883087551388599
 20
98.9362364107967807
 30
0.0
 11
4272.507993794451977
 21
98.9335534691677196
 31
0.0
  0
LINE
  5
BE2C
  8
0
 10
4272.507993794451977
 20
98.9335534691677196
 30
0.0
 11
4272.5178363141385489
 21
98.924079132255855
 31
0.0
  0
LINE
  5
BE2D
  8
0
 10
4272.5178363141385489
 20
98.924079132255855
 30
0.0
 11
4272.4784662353968088
 21
98.9294221695312501
 31
0.0
  0
LINE
  5
BE2E
  8
0
 10
4272.5735140134638641
 20
98.9208481704338851
 30
0.0
 11
4272.5636714937782017
 21
98.9294148674846383
 31
0.0
  0
LINE
  5
BE2F
  8
0
 10
4272.5636714937782017
 20
98.9294148674846383
 30
0.0
 11
4272.5439864544368902
 21
98.930300932999728
 31
0.0
  0
LINE
  5
BE30
  8
0
 10
4272.5439864544368902
 20
98.930300932999728
 30
0.0
 11
4272.5341439347394044
 21
98.9226128799558637
 31
0.0
  0
LINE
  5
BE31
  8
0
 10
4272.5341439347394044
 20
98.9226128799558637
 30
0.0
 11
4272.5735140134402172
 21
98.9208481704558551
 31
0.0
  0
LINE
  5
BE32
  8
0
 10
4272.2835942879009963
 20
98.9625279987621127
 30
0.0
 11
4272.293436807539365
 21
98.9633344759558753
 31
0.0
  0
LINE
  5
BE33
  8
0
 10
4272.293436807539365
 20
98.9633344759558753
 30
0.0
 11
4272.3131218471498869
 21
98.9534393632050069
 31
0.0
  0
LINE
  5
BE34
  8
0
 10
4272.3131218471498869
 20
98.9534393632050069
 30
0.0
 11
4272.3229643666700213
 21
98.9427347332909051
 31
0.0
  0
LINE
  5
BE35
  8
0
 10
4272.3229643666700213
 20
98.9427347332909051
 30
0.0
 11
4272.3131218469507075
 21
98.9417780195004752
 31
0.0
  0
LINE
  5
BE36
  8
0
 10
4272.3131218469507075
 20
98.9417780195004752
 30
0.0
 11
4272.2934368077358158
 21
98.9516731319783105
 31
0.0
  0
LINE
  5
BE37
  8
0
 10
4272.2934368077358158
 20
98.9516731319783105
 30
0.0
 11
4272.2835942878409696
 21
98.9625279987595832
 31
0.0
  0
LINE
  5
BE38
  8
0
 10
4272.283594287854612
 20
98.9463506917357165
 30
0.0
 11
4272.2934368076012106
 21
98.9453887892811963
 31
0.0
  0
LINE
  5
BE39
  8
0
 10
4272.2934368076012106
 20
98.9453887892811963
 30
0.0
 11
4272.3131218468433872
 21
98.9354716496826825
 31
0.0
  0
LINE
  5
BE3A
  8
0
 10
4272.3131218468433872
 20
98.9354716496826825
 30
0.0
 11
4272.3229643665581534
 21
98.9264430833962365
 31
0.0
  0
LINE
  5
BE3B
  8
0
 10
4272.3229643665581534
 20
98.9264430833962365
 30
0.0
 11
4272.3131218469397936
 21
98.9272229579558626
 31
0.0
  0
LINE
  5
BE3C
  8
0
 10
4272.3131218469397936
 20
98.9272229579558626
 30
0.0
 11
4272.2934368072792495
 21
98.9372106731234737
 31
0.0
  0
LINE
  5
BE3D
  8
0
 10
4272.2934368072792495
 20
98.9372106731234737
 30
0.0
 11
4272.283594287854612
 21
98.9463506917357165
 31
0.0
  0
LINE
  5
BE3E
  8
0
 10
4272.3114331376436894
 20
98.9258792203280137
 30
0.0
 11
4272.3212756571901991
 21
98.924709355459612
 31
0.0
  0
LINE
  5
BE3F
  8
0
 10
4272.3212756571901991
 20
98.924709355459612
 30
0.0
 11
4272.3329822180394331
 21
98.9194129880558535
 31
0.0
  0
LINE
  5
BE40
  8
0
 10
4272.3329822180394331
 20
98.9194129880558535
 30
0.0
 11
4272.3378910429401003
 21
98.9138694022558553
 31
0.0
  0
LINE
  5
BE41
  8
0
 10
4272.3378910429401003
 20
98.9138694022558553
 30
0.0
 11
4272.3505609070889477
 21
98.9084961364058586
 31
0.0
  0
LINE
  5
BE42
  8
0
 10
4272.3505609070889477
 20
98.9084961364058586
 30
0.0
 11
4272.3409606965387866
 21
98.9093369446558484
 31
0.0
  0
LINE
  5
BE43
  8
0
 10
4272.3409606965387866
 20
98.9093369446558484
 30
0.0
 11
4272.3212756573502702
 21
98.9181629315868065
 31
0.0
  0
LINE
  5
BE44
  8
0
 10
4272.3212756573502702
 20
98.9181629315868065
 30
0.0
 11
4272.3114331375036272
 21
98.9258792203503674
 31
0.0
  0
LINE
  5
BE45
  8
0
 10
4272.3114331375609254
 20
98.9182074541274403
 30
0.0
 11
4272.3212756572320359
 21
98.9151403293116402
 31
0.0
  0
LINE
  5
BE46
  8
0
 10
4272.3212756572320359
 20
98.9151403293116402
 30
0.0
 11
4272.34096069638872
 21
98.9062363907586928
 31
0.0
  0
LINE
  5
BE47
  8
0
 10
4272.34096069638872
 20
98.9062363907586928
 30
0.0
 11
4272.3508032162326344
 21
98.9002392029124167
 31
0.0
  0
LINE
  5
BE48
  8
0
 10
4272.3508032162326344
 20
98.9002392029124167
 30
0.0
 11
4272.3409606965687999
 21
98.903139896936608
 31
0.0
  0
LINE
  5
BE49
  8
0
 10
4272.3409606965687999
 20
98.903139896936608
 30
0.0
 11
4272.3212756581033318
 21
98.9122040377217786
 31
0.0
  0
LINE
  5
BE4A
  8
0
 10
4272.3212756581033318
 20
98.9122040377217786
 30
0.0
 11
4272.3114331374836183
 21
98.9182074541770362
 31
0.0
  0
LINE
  5
BE4B
  8
0
 10
4272.3392719872072121
 20
98.9084053295520675
 30
0.0
 11
4272.3491145068392143
 21
98.9069936386558624
 31
0.0
  0
LINE
  5
BE4C
  8
0
 10
4272.3491145068392143
 20
98.9069936386558624
 30
0.0
 11
4272.3687995462732943
 21
98.8993454753100565
 31
0.0
  0
LINE
  5
BE4D
  8
0
 10
4272.3687995462732943
 20
98.8993454753100565
 30
0.0
 11
4272.3786420660180738
 21
98.8930065684462818
 31
0.0
  0
LINE
  5
BE4E
  8
0
 10
4272.3786420660180738
 20
98.8930065684462818
 30
0.0
 11
4272.3693579200971726
 21
98.8942066059307336
 31
0.0
  0
LINE
  5
BE4F
  8
0
 10
4272.3693579200971726
 20
98.8942066059307336
 30
0.0
 11
4272.3491145068392143
 21
98.9020511529558632
 31
0.0
  0
LINE
  5
BE50
  8
0
 10
4272.3491145068392143
 20
98.9020511529558632
 30
0.0
 11
4272.3392719875228067
 21
98.9084053295067633
 31
0.0
  0
LINE
  5
BE51
  8
0
 10
4272.3671108367852867
 20
98.9020009205144675
 30
0.0
 11
4272.3769533565391612
 21
98.8986153376693267
 31
0.0
  0
LINE
  5
BE52
  8
0
 10
4272.3769533565391612
 20
98.8986153376693267
 30
0.0
 11
4272.3966383958386359
 21
98.8920753327044935
 31
0.0
  0
LINE
  5
BE53
  8
0
 10
4272.3966383958386359
 20
98.8920753327044935
 30
0.0
 11
4272.4064809156152478
 21
98.8889115435341068
 31
0.0
  0
LINE
  5
BE54
  8
0
 10
4272.4064809156152478
 20
98.8889115435341068
 30
0.0
 11
4272.3966383958486404
 21
98.8887416773145134
 31
0.0
  0
LINE
  5
BE55
  8
0
 10
4272.3966383958486404
 20
98.8887416773145134
 30
0.0
 11
4272.3769533565391612
 21
98.8953169029558694
 31
0.0
  0
LINE
  5
BE56
  8
0
 10
4272.3769533565391612
 20
98.8953169029558694
 30
0.0
 11
4272.3671108368025671
 21
98.9020009205779047
 31
0.0
  0
LINE
  5
BE57
  8
0
 10
4272.3392719871753798
 20
98.9033833402659752
 30
0.0
 11
4272.3491145068392143
 21
98.8987573567558655
 31
0.0
  0
LINE
  5
BE58
  8
0
 10
4272.3491145068392143
 20
98.8987573567558655
 30
0.0
 11
4272.368799546239643
 21
98.8910607694043335
 31
0.0
  0
LINE
  5
BE59
  8
0
 10
4272.368799546239643
 20
98.8910607694043335
 30
0.0
 11
4272.3786420664910111
 21
98.887549895442703
 31
0.0
  0
LINE
  5
BE5A
  8
0
 10
4272.3786420664910111
 20
98.887549895442703
 30
0.0
 11
4272.3687995467807923
 21
98.8922170871776842
 31
0.0
  0
LINE
  5
BE5B
  8
0
 10
4272.3687995467807923
 20
98.8922170871776842
 30
0.0
 11
4272.3491145068574042
 21
98.9000510919406253
 31
0.0
  0
LINE
  5
BE5C
  8
0
 10
4272.3491145068574042
 20
98.9000510919406253
 30
0.0
 11
4272.3392719862549711
 21
98.9033833406193708
 31
0.0
  0
LINE
  5
BE5D
  8
0
 10
4272.5914749494386342
 20
98.8615977334036558
 30
0.0
 11
4272.5718253040404306
 21
98.8615977334036558
 31
0.0
  0
LINE
  5
BE5E
  8
0
 10
4272.5718253040404306
 20
98.8615977334036558
 30
0.0
 11
4272.5619827844266183
 21
98.8588360577500538
 31
0.0
  0
LINE
  5
BE5F
  8
0
 10
4272.5619827844266183
 20
98.8588360577500538
 30
0.0
 11
4272.5718253043423829
 21
98.8560917729455753
 31
0.0
  0
LINE
  5
BE60
  8
0
 10
4272.5718253043423829
 20
98.8560917729455042
 30
0.0
 11
4272.5914749491676048
 21
98.8560917729044206
 31
0.0
  0
LINE
  5
BE61
  8
0
 10
4272.5914749491976181
 20
98.8560917729044206
 30
0.0
 11
4272.6013174691606764
 21
98.8588360577350329
 31
0.0
  0
LINE
  5
BE62
  8
0
 10
4272.6013528632029193
 20
98.8525059471038787
 30
0.0
 11
4272.5914749493858835
 21
98.8536306456766312
 31
0.0
  0
LINE
  5
BE63
  8
0
 10
4272.5914749493858835
 20
98.8536306456766312
 30
0.0
 11
4272.571825304399681
 21
98.8536306456783507
 31
0.0
  0
LINE
  5
BE64
  8
0
 10
4272.571825304399681
 20
98.8536306456783507
 30
0.0
 11
4272.5619827844402607
 21
98.8525059470302239
 31
0.0
  0
LINE
  5
BE65
  8
0
 10
4272.5619827844402607
 20
98.8525059470302239
 30
0.0
 11
4272.571825304587037
 21
98.8514232533710242
 31
0.0
  0
LINE
  5
BE66
  8
0
 10
4272.571825304587037
 20
98.8514232533710242
 30
0.0
 11
4272.5914749491794282
 21
98.8514232533747759
 31
0.0
  0
LINE
  5
BE67
  8
0
 10
4272.5914749489520545
 20
98.8514232533497648
 30
0.0
 11
4272.6013528632029193
 21
98.8525059471038787
 31
0.0
  0
LINE
  5
BE68
  8
0
 10
4272.5735140134684116
 20
98.8547353577667138
 30
0.0
 11
4272.563671493811853
 21
98.8571398733377151
 31
0.0
  0
LINE
  5
BE69
  8
0
 10
4272.563671493811853
 20
98.8571398733377151
 30
0.0
 11
4272.5439864544532611
 21
98.8580323114097439
 31
0.0
  0
LINE
  5
BE6A
  8
0
 10
4272.5439864544532611
 20
98.8580323114097439
 30
0.0
 11
4272.5341439347002961
 21
98.8565330941141553
 31
0.0
  0
LINE
  5
BE6B
  8
0
 10
4272.5341439347002961
 20
98.8565330941141553
 30
0.0
 11
4272.5439864544141528
 21
98.8541620946489132
 31
0.0
  0
LINE
  5
BE6C
  8
0
 10
4272.5439864544141528
 20
98.8541620946489132
 30
0.0
 11
4272.5636714930642484
 21
98.8532566573676519
 31
0.0
  0
LINE
  5
BE6D
  8
0
 10
4272.5636714930642484
 20
98.8532566573676519
 30
0.0
 11
4272.5735140135002439
 21
98.8547353577459091
 31
0.0
  0
LINE
  5
BE6E
  8
0
 10
4272.5735140134565881
 20
98.8637194864485309
 30
0.0
 11
4272.5636714938400473
 21
98.8641035977558857
 31
0.0
  0
LINE
  5
BE6F
  8
0
 10
4272.5636714938400473
 20
98.8641035977558857
 30
0.0
 11
4272.5439864544387092
 21
98.8649854450558507
 31
0.0
  0
LINE
  5
BE70
  8
0
 10
4272.5439864544387092
 20
98.8649854450558507
 30
0.0
 11
4272.5341439347394044
 21
98.8654841958558706
 31
0.0
  0
LINE
  5
BE71
  8
0
 10
4272.5341439347394044
 20
98.8654841958558706
 30
0.0
 11
4272.5439864545396631
 21
98.8615109050330148
 31
0.0
  0
LINE
  5
BE72
  8
0
 10
4272.5439864545396631
 20
98.8615109050330148
 30
0.0
 11
4272.5636714938400473
 21
98.8606248396558556
 31
0.0
  0
LINE
  5
BE73
  8
0
 10
4272.5636714938400473
 20
98.8606248396558556
 30
0.0
 11
4272.5735140134565881
 21
98.8637194864485309
 31
0.0
  0
LINE
  5
BE74
  8
0
 10
4272.545675163807573
 20
98.8595725625417145
 30
0.0
 11
4272.535832644139191
 21
98.8632154662558804
 31
0.0
  0
LINE
  5
BE75
  8
0
 10
4272.535832644139191
 20
98.8632154662558804
 30
0.0
 11
4272.5161476047387623
 21
98.8649905067948964
 31
0.0
  0
LINE
  5
BE76
  8
0
 10
4272.5161476047387623
 20
98.8649905067948964
 30
0.0
 11
4272.5063050852859305
 21
98.863142847404049
 31
0.0
  0
LINE
  5
BE77
  8
0
 10
4272.5063050852859305
 20
98.863142847404049
 30
0.0
 11
4272.5161476047942415
 21
98.8595233516501253
 31
0.0
  0
LINE
  5
BE78
  8
0
 10
4272.5161476047942415
 20
98.8595233516501253
 30
0.0
 11
4272.5358326440336896
 21
98.8577279476639603
 31
0.0
  0
LINE
  5
BE79
  8
0
 10
4272.5358326440336896
 20
98.8577279476639603
 30
0.0
 11
4272.5456751639148933
 21
98.8595725625653756
 31
0.0
  0
LINE
  5
BE7A
  8
0
 10
4272.5063050850530999
 20
98.8569165117011437
 30
0.0
 11
4272.5161476047651377
 21
98.8570938905531591
 31
0.0
  0
LINE
  5
BE7B
  8
0
 10
4272.5161476047651377
 20
98.8570938905531591
 30
0.0
 11
4272.535832644139191
 21
98.8552818679558527
 31
0.0
  0
LINE
  5
BE7C
  8
0
 10
4272.535832644139191
 20
98.8552818679558527
 30
0.0
 11
4272.5456751640904258
 21
98.8532600777054427
 31
0.0
  0
LINE
  5
BE7D
  8
0
 10
4272.5456751640904258
 20
98.8532600777054427
 30
0.0
 11
4272.535832644139191
 21
98.8531041794519041
 31
0.0
  0
LINE
  5
BE7E
  8
0
 10
4272.535832644139191
 20
98.8531041794519041
 30
0.0
 11
4272.5161476035791566
 21
98.8549490162490656
 31
0.0
  0
LINE
  5
BE7F
  8
0
 10
4272.5161476035791566
 20
98.8549490162490656
 30
0.0
 11
4272.5063050848493731
 21
98.8569165117047532
 31
0.0
  0
LINE
  5
BE80
  8
0
 10
4272.5178363141867521
 20
98.8580269544852968
 30
0.0
 11
4272.507993794540198
 21
98.8613084206688342
 31
0.0
  0
LINE
  5
BE81
  8
0
 10
4272.507993794540198
 20
98.8613084206688342
 30
0.0
 11
4272.4883087550915661
 21
98.864011023593406
 31
0.0
  0
LINE
  5
BE82
  8
0
 10
4272.4883087550915661
 20
98.864011023593406
 30
0.0
 11
4272.4784662354086322
 21
98.863471899679098
 31
0.0
  0
LINE
  5
BE83
  8
0
 10
4272.4784662354086322
 20
98.863471899679098
 30
0.0
 11
4272.4883087546049865
 21
98.8602290338205449
 31
0.0
  0
LINE
  5
BE84
  8
0
 10
4272.4883087546049865
 20
98.8602290338205449
 30
0.0
 11
4272.5079937945092752
 21
98.8574863010237834
 31
0.0
  0
LINE
  5
BE85
  8
0
 10
4272.5079937945092752
 20
98.8574863010237834
 30
0.0
 11
4272.5178363141385489
 21
98.858026954482753
 31
0.0
  0
LINE
  5
BE86
  8
0
 10
4272.517836314210399
 20
98.8669504482132311
 30
0.0
 11
4272.5079937941636672
 21
98.8647634411907461
 31
0.0
  0
LINE
  5
BE87
  8
0
 10
4272.5079937941636672
 20
98.8647634411907461
 30
0.0
 11
4272.4883087553371297
 21
98.8674463828518668
 31
0.0
  0
LINE
  5
BE88
  8
0
 10
4272.4883087553371297
 20
98.8674463828518668
 30
0.0
 11
4272.478466235439555
 21
98.8722934854558559
 31
0.0
  0
LINE
  5
BE89
  8
0
 10
4272.478466235439555
 20
98.8722934854558559
 30
0.0
 11
4272.4883087551388599
 21
98.8708897696239717
 31
0.0
  0
LINE
  5
BE8A
  8
0
 10
4272.4883087551388599
 20
98.8708897696239717
 30
0.0
 11
4272.507993794540198
 21
98.8682221552558644
 31
0.0
  0
LINE
  5
BE8B
  8
0
 10
4272.507993794540198
 20
98.8682221552558644
 30
0.0
 11
4272.5178363142240414
 21
98.8669504482163859
 31
0.0
  0
LINE
  5
BE8C
  8
0
 10
4272.4899974645659313
 20
98.8653730686622936
 30
0.0
 11
4272.4801549448611695
 21
98.8698887811765985
 31
0.0
  0
LINE
  5
BE8D
  8
0
 10
4272.4801549448611695
 20
98.8698887811765985
 30
0.0
 11
4272.4604699055116726
 21
98.8734889519967339
 31
0.0
  0
LINE
  5
BE8E
  8
0
 10
4272.4604699055116726
 20
98.8734889519967339
 30
0.0
 11
4272.4506273859133216
 21
98.8726156573671346
 31
0.0
  0
LINE
  5
BE8F
  8
0
 10
4272.4506273859133216
 20
98.8726156573671346
 30
0.0
 11
4272.4604699054152661
 21
98.8681211940719464
 31
0.0
  0
LINE
  5
BE90
  8
0
 10
4272.4604699054152661
 20
98.8681211940719464
 30
0.0
 11
4272.4801549448229707
 21
98.8644785268815838
 31
0.0
  0
LINE
  5
BE91
  8
0
 10
4272.4801549448229707
 20
98.8644785268815838
 30
0.0
 11
4272.489997464444059
 21
98.8653730687144616
 31
0.0
  0
LINE
  5
BE92
  8
0
 10
4272.4621586148668939
 20
98.8752671188812826
 30
0.0
 11
4272.4523160951393947
 21
98.8774538335892146
 31
0.0
  0
LINE
  5
BE93
  8
0
 10
4272.4523160951393947
 20
98.8774538335892146
 30
0.0
 11
4272.43263105583992
 21
98.8819884657113732
 31
0.0
  0
LINE
  5
BE94
  8
0
 10
4272.43263105583992
 20
98.8819884657113732
 30
0.0
 11
4272.4227885360933215
 21
98.8843422375264538
 31
0.0
  0
LINE
  5
BE95
  8
0
 10
4272.4227885360933215
 20
98.8843422375264538
 30
0.0
 11
4272.4326310557953548
 21
98.8786013425008434
 31
0.0
  0
LINE
  5
BE96
  8
0
 10
4272.4326310557953548
 20
98.8786013425008434
 30
0.0
 11
4272.4523160951393947
 21
98.8740437095558633
 31
0.0
  0
LINE
  5
BE97
  8
0
 10
4272.4523160951393947
 20
98.8740437095558633
 30
0.0
 11
4272.4621586147613925
 21
98.8752671189048726
 31
0.0
  0
LINE
  5
BE98
  8
0
 10
4272.4227885359687207
 20
98.8757582435493845
 30
0.0
 11
4272.43263105583992
 21
98.8752498931558534
 31
0.0
  0
LINE
  5
BE99
  8
0
 10
4272.43263105583992
 20
98.8752498931558534
 30
0.0
 11
4272.4523160952494436
 21
98.8706575476147833
 31
0.0
  0
LINE
  5
BE9A
  8
0
 10
4272.4523160952494436
 20
98.8706575476147833
 30
0.0
 11
4272.4621586148678034
 21
98.8665031518884518
 31
0.0
  0
LINE
  5
BE9B
  8
0
 10
4272.4621586148678034
 20
98.8665031518884518
 30
0.0
 11
4272.4523160952103353
 21
98.8669760330670897
 31
0.0
  0
LINE
  5
BE9C
  8
0
 10
4272.4523160952103353
 20
98.8669760330670897
 30
0.0
 11
4272.4320851662569112
 21
98.8718502710191558
 31
0.0
  0
LINE
  5
BE9D
  8
0
 10
4272.4320851662569112
 20
98.8718502710191558
 30
0.0
 11
4272.4227885359687207
 21
98.8757582435493845
 31
0.0
  0
LINE
  5
BE9E
  8
0
 10
4272.4343197652087838
 20
98.8764047314162866
 30
0.0
 11
4272.4244772453967016
 21
98.8818095063573708
 31
0.0
  0
LINE
  5
BE9F
  8
0
 10
4272.4244772453967016
 20
98.8818095063573708
 30
0.0
 11
4272.4047922061827194
 21
98.8873423826504165
 31
0.0
  0
LINE
  5
BEA0
  8
0
 10
4272.4047922061827194
 20
98.8873423826504165
 30
0.0
 11
4272.3949496865016044
 21
98.887538944568945
 31
0.0
  0
LINE
  5
BEA1
  8
0
 10
4272.3949496865016044
 20
98.887538944568945
 30
0.0
 11
4272.4047922061727149
 21
98.8821437196760371
 31
0.0
  0
LINE
  5
BEA2
  8
0
 10
4272.4047922061727149
 20
98.8821437196760371
 30
0.0
 11
4272.4244772455776911
 21
98.8765422243610459
 31
0.0
  0
LINE
  5
BEA3
  8
0
 10
4272.4244772455776911
 20
98.8765422243610459
 30
0.0
 11
4272.4343197652351591
 21
98.876404731416855
 31
0.0
  0
LINE
  5
BEA4
  8
0
 10
4272.3949496867298876
 20
98.8819344280922508
 30
0.0
 11
4272.4047922061836289
 21
98.8799337007506836
 31
0.0
  0
LINE
  5
BEA5
  8
0
 10
4272.4047922061836289
 20
98.8799337007506836
 30
0.0
 11
4272.4244772455385828
 21
98.8742760637919389
 31
0.0
  0
LINE
  5
BEA6
  8
0
 10
4272.4244772455385828
 20
98.8742760637919389
 30
0.0
 11
4272.4343197652360686
 21
98.870509004680315
 31
0.0
  0
LINE
  5
BEA7
  8
0
 10
4272.4343197652360686
 20
98.870509004680315
 30
0.0
 11
4272.4244772455385828
 21
98.8728471986838429
 31
0.0
  0
LINE
  5
BEA8
  8
0
 10
4272.4244772455385828
 20
98.8728471986838429
 30
0.0
 11
4272.4047922061399731
 21
98.8786913040652564
 31
0.0
  0
LINE
  5
BEA9
  8
0
 10
4272.4047922061399731
 20
98.8786913040652564
 30
0.0
 11
4272.3949496864534012
 21
98.8819344282063355
 31
0.0
  0
LINE
  5
BEAA
  8
0
 10
4272.4064809155552211
 20
98.8804205969088201
 30
0.0
 11
4272.3966383958777442
 21
98.8854696757288139
 31
0.0
  0
LINE
  5
BEAB
  8
0
 10
4272.3966383958777442
 20
98.8854696757288139
 30
0.0
 11
4272.3769533564809535
 21
98.8920981197768754
 31
0.0
  0
LINE
  5
BEAC
  8
0
 10
4272.3769533564809535
 20
98.8920981197768754
 30
0.0
 11
4272.3671108368289424
 21
98.8937860261624166
 31
0.0
  0
LINE
  5
BEAD
  8
0
 10
4272.3671108368289424
 20
98.8937860261624166
 30
0.0
 11
4272.3769533566428436
 21
98.8887590881913638
 31
0.0
  0
LINE
  5
BEAE
  8
0
 10
4272.3769533566428436
 20
98.8887590881913638
 30
0.0
 11
4272.3966383958859296
 21
98.8820216406492989
 31
0.0
  0
LINE
  5
BEAF
  8
0
 10
4272.3966383958859296
 20
98.8820216406492989
 30
0.0
 11
4272.4064809155552211
 21
98.8804205969087775
 31
0.0
  0
LINE
  5
BEB0
  8
0
 10
4272.3508032162271775
 20
98.9487845771772356
 30
0.0
 11
4272.3409606966069987
 21
98.949300883867366
 31
0.0
  0
LINE
  5
BEB1
  8
0
 10
4272.3409606966069987
 20
98.949300883867366
 30
0.0
 11
4272.3232934061206834
 21
98.9389964407696993
 31
0.0
  0
LINE
  5
BEB2
  8
0
 10
4272.3232934061206834
 20
98.9389964407696993
 30
0.0
 11
4272.3212756572393118
 21
98.9399236312558514
 31
0.0
  0
LINE
  5
BEB3
  8
0
 10
4272.3212756572393118
 20
98.9399236312558514
 30
0.0
 11
4272.3114331374836183
 21
98.9393349481792939
 31
0.0
  0
LINE
  5
BEB4
  8
0
 10
4272.3114331374836183
 20
98.9393349481792939
 30
0.0
 11
4272.3212756571811042
 21
98.9299482500558156
 31
0.0
  0
LINE
  5
BEB5
  8
0
 10
4272.3212756571811042
 20
98.9299482500558156
 30
0.0
 11
4272.3248709838544528
 21
98.9282967732735017
 31
0.0
  0
LINE
  5
BEB6
  8
0
 10
4272.3248709838544528
 20
98.9282967732735017
 30
0.0
 11
4272.3409606965387866
 21
98.9376395401558568
 31
0.0
  0
LINE
  5
BEB7
  8
0
 10
4272.3409606965387866
 20
98.9376395401558568
 30
0.0
 11
4272.3508032162271775
 21
98.9487845771772356
 31
0.0
  0
LINE
  5
BEB8
  8
0
 10
4272.3568387292907573
 20
98.9482088404186158
 30
0.0
 11
4272.34911450688287
 21
98.9442028765822386
 31
0.0
  0
LINE
  5
BEB9
  8
0
 10
4272.34911450688287
 20
98.9442028765822386
 30
0.0
 11
4272.3418680985851097
 21
98.9359890512573656
 31
0.0
  0
LINE
  5
BEBA
  8
0
 10
4272.3418680985851097
 20
98.9359890512573656
 30
0.0
 11
4272.3253763994525798
 21
98.9264502548955562
 31
0.0
  0
LINE
  5
BEBB
  8
0
 10
4272.3253763994525798
 20
98.9264502548955562
 30
0.0
 11
4272.3248709838544528
 21
98.9282967732735017
 31
0.0
  0
ARC
  5
BEBC
  8
0
 10
4272.5773414109826263
 20
99.4805611177642248
 30
0.0
 40
0.6087078243529792
 50
245.5477814957122007
 51
251.3014876537766895
  0
ARC
  5
BEBD
  8
0
 10
4272.5805514268968182
 20
99.4900455121387779
 30
0.0
 40
0.6187207129880244
 50
251.3014876537766895
 51
262.9291682684964258
  0
ARC
  5
BEBE
  8
0
 10
4272.5819896117072858
 20
99.5016414029631022
 30
0.0
 40
0.630405449165315
 50
262.929183175591902
 51
269.9675367316987149
  0
LINE
  5
BEBF
  8
0
 10
4272.3418680986396794
 20
98.9246416902558536
 30
0.0
 11
4272.3760459544391779
 21
98.9246416902558536
 31
0.0
  0
LINE
  5
BEC0
  8
0
 10
4272.3760459544391779
 20
98.9246416902558536
 30
0.0
 11
4272.3760459544391779
 21
98.9411072819457047
 31
0.0
  0
LINE
  5
BEC1
  8
0
 10
4272.3418680986396794
 20
98.9246416902558536
 30
0.0
 11
4272.3418680986396794
 21
98.9359890513182734
 31
0.0
  0
LINE
  5
BEC2
  8
0
 10
4272.3491145068392143
 20
98.9246416902558536
 30
0.0
 11
4272.3491145068392143
 21
98.9442028765599702
 31
0.0
  0
LINE
  5
BEC3
  8
0
 10
4272.368799546239643
 20
98.9246416902558536
 30
0.0
 11
4272.368799546239643
 21
98.9437006276271234
 31
0.0
  0
LINE
  5
BEC4
  8
0
 10
4272.3975457979386192
 20
98.9340111186531459
 30
0.0
 11
4272.3975457979386192
 21
98.9246416902558536
 31
0.0
  0
LINE
  5
BEC5
  8
0
 10
4272.3975457979386192
 20
98.9246416902558536
 30
0.0
 11
4272.4311787858569005
 21
98.9246416902558536
 31
0.0
  0
LINE
  5
BEC6
  8
0
 10
4272.4047922061399731
 20
98.9246416902558536
 30
0.0
 11
4272.4047922061399731
 21
98.9318169190577947
 31
0.0
  0
LINE
  5
BEC7
  8
0
 10
4272.4244772455385828
 20
98.9246416902558536
 30
0.0
 11
4272.4244772455385828
 21
98.926346500387325
 31
0.0
  0
LINE
  5
BEC8
  8
0
 10
4272.5915103434399498
 20
99.016532389391358
 30
0.0
 11
4272.5915103434399498
 21
98.9918154826243608
 31
0.0
  0
LINE
  5
BEC9
  8
0
 10
4272.5915103434399498
 20
98.9773419653637632
 30
0.0
 11
4272.5915103434399498
 21
98.9562262053486847
 31
0.0
  0
LINE
  5
BECA
  8
0
 10
4272.5915103434399498
 20
98.9439246955885494
 30
0.0
 11
4272.5915103434399498
 21
98.9261079683558648
 31
0.0
  0
LINE
  5
BECB
  8
0
 10
4272.5718253040404306
 20
98.9261079683558648
 30
0.0
 11
4272.5718253040404306
 21
98.9439246955475653
 31
0.0
  0
LINE
  5
BECC
  8
0
 10
4272.5718253040404306
 20
98.9562262053501343
 30
0.0
 11
4272.5718253040404306
 21
98.9773419653637632
 31
0.0
  0
LINE
  5
BECD
  8
0
 10
4272.5718253040404306
 20
98.9918154826227976
 30
0.0
 11
4272.5718253040404306
 21
99.016532389391358
 31
0.0
  0
LINE
  5
BECE
  8
0
 10
4272.5636714937782017
 20
98.9294148674846383
 30
0.0
 11
4272.5636714937782017
 21
98.9212893478302249
 31
0.0
  0
LINE
  5
BECF
  8
0
 10
4272.5439864544368902
 20
98.930300932999728
 30
0.0
 11
4272.5439864544368902
 21
98.9221717025798171
 31
0.0
  0
LINE
  5
BED0
  8
0
 10
4272.5636714938227669
 20
98.9406930029676062
 30
0.0
 11
4272.5636436073400546
 21
98.9601333038137767
 31
0.0
  0
LINE
  5
BED1
  8
0
 10
4272.5439864544296142
 20
98.9610379120731238
 30
0.0
 11
4272.5440642016819766
 21
98.9415806714057311
 31
0.0
  0
LINE
  5
BED2
  8
0
 10
4272.535832644139191
 20
98.9277257012653735
 30
0.0
 11
4272.5358326441555619
 21
98.9455608703141252
 31
0.0
  0
LINE
  5
BED3
  8
0
 10
4272.5161476047387623
 20
98.9473562742040258
 30
0.0
 11
4272.5163299264231682
 21
98.9294813917113203
 31
0.0
  0
LINE
  5
BED4
  8
0
 10
4272.507993794451977
 20
98.9335534691677196
 30
0.0
 11
4272.507993794451977
 21
98.9254148915749738
 31
0.0
  0
LINE
  5
BED5
  8
0
 10
4272.4883087551388599
 20
98.9362364107967807
 30
0.0
 11
4272.4883087551388599
 21
98.9280864102045427
 31
0.0
  0
LINE
  5
BED6
  8
0
 10
4272.5079937944710764
 20
98.944861550449005
 30
0.0
 11
4272.507993794540198
 21
98.9643621183558651
 31
0.0
  0
LINE
  5
BED7
  8
0
 10
4272.488308755113394
 20
98.9671048509916602
 30
0.0
 11
4272.4885492110506675
 21
98.9475272070875036
 31
0.0
  0
LINE
  5
BED8
  8
0
 10
4272.5161476047387623
 20
98.9596899149558737
 30
0.0
 11
4272.5161476047724136
 21
98.9808677280736333
 31
0.0
  0
LINE
  5
BED9
  8
0
 10
4272.5358326441655663
 20
98.9790228914631882
 30
0.0
 11
4272.5358326441619283
 21
98.9578778922246016
 31
0.0
  0
LINE
  5
BEDA
  8
0
 10
4272.543986454377773
 20
98.9973070627820277
 30
0.0
 11
4272.5439864544387092
 21
98.9744143638558569
 31
0.0
  0
LINE
  5
BEDB
  8
0
 10
4272.5636714938400473
 20
98.9734986639950307
 30
0.0
 11
4272.5636714938400473
 21
98.9963714965854535
 31
0.0
  0
LINE
  5
BEDC
  8
0
 10
4272.5358326441537429
 20
98.9935194035536625
 30
0.0
 11
4272.5357915149706969
 21
99.0182836277461718
 31
0.0
  0
LINE
  5
BEDD
  8
0
 10
4272.5161476047887845
 20
99.0201992457181177
 30
0.0
 11
4272.5161476047887845
 21
98.995389650688395
 31
0.0
  0
LINE
  5
BEDE
  8
0
 10
4272.5439864544387092
 20
99.0396874555776492
 30
0.0
 11
4272.5439864544387092
 21
99.0129682319558668
 31
0.0
  0
LINE
  5
BEDF
  8
0
 10
4272.5636714938400473
 20
99.0120174600558585
 30
0.0
 11
4272.5636714938400473
 21
99.0387077256271056
 31
0.0
  0
LINE
  5
BEE0
  8
0
 10
4272.5079937944874473
 20
99.0164603077716663
 30
0.0
 11
4272.507993794540198
 21
99.0432868704558587
 31
0.0
  0
LINE
  5
BEE1
  8
0
 10
4272.4883087551561403
 20
99.0193432619188059
 30
0.0
 11
4272.4883087551561403
 21
99.045005070696817
 31
0.0
  0
LINE
  5
BEE2
  8
0
 10
4272.460469905438913
 20
99.0292474181967464
 30
0.0
 11
4272.460469905438913
 21
99.0043533949639993
 31
0.0
  0
LINE
  5
BEE3
  8
0
 10
4272.4801549448393416
 20
99.0255000764558702
 30
0.0
 11
4272.4801549448393416
 21
99.0005541711558834
 31
0.0
  0
LINE
  5
BEE4
  8
0
 10
4272.4883087551561403
 20
99.00357868629564
 30
0.0
 11
4272.4883087551388599
 21
98.9805509928967808
 31
0.0
  0
LINE
  5
BEE5
  8
0
 10
4272.5079937944810808
 20
98.9777765541130066
 30
0.0
 11
4272.5079937945320125
 21
99.0007428108617944
 31
0.0
  0
LINE
  5
BEE6
  8
0
 10
4272.4801549449057347
 20
98.9863690841060162
 30
0.0
 11
4272.4801549449057347
 21
98.9646915452038769
 31
0.0
  0
LINE
  5
BEE7
  8
0
 10
4272.4604699054580124
 20
98.968368925089095
 30
0.0
 11
4272.4604699054580124
 21
98.9897071383813056
 31
0.0
  0
LINE
  5
BEE8
  8
0
 10
4272.4523160951393947
 20
98.9873774332547782
 30
0.0
 11
4272.4523160951393947
 21
99.0105592043092742
 31
0.0
  0
LINE
  5
BEE9
  8
0
 10
4272.43263105574988
 20
99.0153876510823636
 30
0.0
 11
4272.43263105583992
 21
98.9920968648558528
 31
0.0
  0
LINE
  5
BEEA
  8
0
 10
4272.4244772455658676
 20
98.9983728353420531
 30
0.0
 11
4272.4244772455385828
 21
98.9768720882558739
 31
0.0
  0
LINE
  5
BEEB
  8
0
 10
4272.4047922061463396
 20
98.9825297250787344
 30
0.0
 11
4272.4047922061390636
 21
99.0041417048321648
 31
0.0
  0
LINE
  5
BEEC
  8
0
 10
4272.3769533565391612
 20
98.9956349054558586
 30
0.0
 11
4272.3769533564664016
 21
98.975651249384839
 31
0.0
  0
LINE
  5
BEED
  8
0
 10
4272.3966383957686048
 20
98.9684894390593541
 30
0.0
 11
4272.3966383957686048
 21
98.9888974579601921
 31
0.0
  0
LINE
  5
BEEE
  8
0
 10
4272.4047922061399731
 20
98.9699766422851042
 30
0.0
 11
4272.404792206156344
 21
98.951852617532964
 31
0.0
  0
LINE
  5
BEEF
  8
0
 10
4272.4244772455631391
 20
98.9463197413425917
 30
0.0
 11
4272.4244772455631391
 21
98.9643751468794335
 31
0.0
  0
LINE
  5
BEF0
  8
0
 10
4272.4326310558353725
 20
98.9588030228022149
 30
0.0
 11
4272.4326310557999022
 21
98.9785151402461736
 31
0.0
  0
LINE
  5
BEF1
  8
0
 10
4272.4523160951393947
 20
98.9738518503558566
 30
0.0
 11
4272.4523160951393947
 21
98.9542106772684349
 31
0.0
  0
LINE
  5
BEF2
  8
0
 10
4272.460469905438913
 20
98.9559541166459411
 30
0.0
 11
4272.4604699054498269
 21
98.9379991868981676
 31
0.0
  0
LINE
  5
BEF3
  8
0
 10
4272.4801549448466176
 20
98.9343990161985545
 30
0.0
 11
4272.4801549448393416
 21
98.9523114495558644
 31
0.0
  0
LINE
  5
BEF4
  8
0
 10
4272.368799546239643
 20
98.9638557102558849
 30
0.0
 11
4272.3687995462641993
 21
98.9824405348383891
 31
0.0
  0
LINE
  5
BEF5
  8
0
 10
4272.3491145068392143
 20
98.9898840755558638
 30
0.0
 11
4272.3491145067873731
 21
98.9715038736914039
 31
0.0
  0
LINE
  5
BEF6
  8
0
 10
4272.3409606966288266
 20
98.9781269725168045
 30
0.0
 11
4272.3409606966288266
 21
98.9692400979208173
 31
0.0
  0
LINE
  5
BEF7
  8
0
 10
4272.3329822180394331
 20
98.9648803283558607
 30
0.0
 11
4272.3329822180394331
 21
98.981704204300371
 31
0.0
  0
LINE
  5
BEF8
  8
0
 10
4272.3212756571911086
 20
98.9701766957581555
 30
0.0
 11
4272.3212756571820137
 21
98.9869529595746656
 31
0.0
  0
LINE
  5
BEF9
  8
0
 10
4272.3409606965069543
 20
98.989789520368447
 30
0.0
 11
4272.3409606965387866
 21
99.0100157142558857
 31
0.0
  0
LINE
  5
BEFA
  8
0
 10
4272.3212756572229409
 20
98.9986934589118732
 30
0.0
 11
4272.3212756572229409
 21
99.0028095396637582
 31
0.0
  0
LINE
  5
BEFB
  8
0
 10
4272.349114506888327
 20
99.0018234428555957
 30
0.0
 11
4272.349114506888327
 21
99.0148158273726864
 31
0.0
  0
LINE
  5
BEFC
  8
0
 10
4272.368799546239643
 20
99.0166755583607738
 30
0.0
 11
4272.3687995461923492
 21
98.994661632530125
 31
0.0
  0
LINE
  5
BEFD
  8
0
 10
4272.3769533564745871
 20
99.0094318983947943
 30
0.0
 11
4272.3769533564745871
 21
99.0237263197008417
 31
0.0
  0
LINE
  5
BEFE
  8
0
 10
4272.3966383958386359
 20
99.0026079616558548
 30
0.0
 11
4272.3966383958668303
 21
99.0261492120660876
 31
0.0
  0
LINE
  5
BEFF
  8
0
 10
4272.4047922062009093
 20
99.0190006493294845
 30
0.0
 11
4272.4047922062009093
 21
99.0311361954995704
 31
0.0
  0
LINE
  5
BF00
  8
0
 10
4272.424477245590424
 20
99.0131452900307352
 30
0.0
 11
4272.424477245590424
 21
99.035502245268674
 31
0.0
  0
LINE
  5
BF01
  8
0
 10
4272.43263105583992
 20
99.0313541750558812
 30
0.0
 11
4272.43263105583992
 21
99.0371035140186393
 31
0.0
  0
LINE
  5
BF02
  8
0
 10
4272.4523160950484453
 20
99.0264419813443055
 30
0.0
 11
4272.4523160950484453
 21
99.0404771517850548
 31
0.0
  0
LINE
  5
BF03
  8
0
 10
4272.3131218468251973
 20
98.9618960952912516
 30
0.0
 11
4272.3131218470716703
 21
98.9769700910726158
 31
0.0
  0
LINE
  5
BF04
  8
0
 10
4272.2946445387660788
 20
98.9863966076249113
 30
0.0
 11
4272.293864502183169
 21
98.9715977662413025
 31
0.0
  0
LINE
  5
BF05
  8
0
 10
4272.293436807539365
 20
98.9633344759558753
 30
0.0
 11
4272.2934368077358158
 21
98.9516731319783105
 31
0.0
  0
LINE
  5
BF06
  8
0
 10
4272.3131218469507075
 20
98.9417780195004752
 30
0.0
 11
4272.3131218471498869
 21
98.9534393632050069
 31
0.0
  0
LINE
  5
BF07
  8
0
 10
4272.2934368072792495
 20
98.9372106731234737
 30
0.0
 11
4272.2934368076012106
 21
98.9453887892811963
 31
0.0
  0
LINE
  5
BF08
  8
0
 10
4272.3131218468433872
 20
98.9354716496826825
 30
0.0
 11
4272.3124723374112364
 21
98.9272744220094467
 31
0.0
  0
LINE
  5
BF09
  8
0
 10
4272.3232934061206834
 20
98.9389964407696993
 30
0.0
 11
4272.3212756571811042
 21
98.9299482500558156
 31
0.0
  0
LINE
  5
BF0A
  8
0
 10
4272.3409606966069987
 20
98.949300883867366
 30
0.0
 11
4272.3409606965387866
 21
98.9376395401558568
 31
0.0
  0
LINE
  5
BF0B
  8
0
 10
4272.3212756571901991
 20
98.924709355459612
 30
0.0
 11
4272.3212756573502702
 21
98.9181629315868065
 31
0.0
  0
LINE
  5
BF0C
  8
0
 10
4272.3378910429401003
 20
98.9138694022558553
 30
0.0
 11
4272.3409606965387866
 21
98.9093369446558484
 31
0.0
  0
LINE
  5
BF0D
  8
0
 10
4272.3212756572320359
 20
98.9151403293116402
 30
0.0
 11
4272.3212756572320359
 21
98.9122040377217786
 31
0.0
  0
LINE
  5
BF0E
  8
0
 10
4272.3409606965687999
 20
98.903139896936608
 30
0.0
 11
4272.34096069638872
 21
98.9062363907586928
 31
0.0
  0
LINE
  5
BF0F
  8
0
 10
4272.3491145068392143
 20
98.9069936386558624
 30
0.0
 11
4272.3491145068392143
 21
98.9020511529558632
 31
0.0
  0
LINE
  5
BF10
  8
0
 10
4272.3491145068574042
 20
98.9000510919406253
 30
0.0
 11
4272.3491145068392143
 21
98.8987573567558655
 31
0.0
  0
LINE
  5
BF11
  8
0
 10
4272.3673943092189802
 20
98.8927763259597441
 30
0.0
 11
4272.3675712297072096
 21
98.891541024754531
 31
0.0
  0
LINE
  5
BF12
  8
0
 10
4272.3693579200971726
 20
98.8942066059307336
 30
0.0
 11
4272.3687995462732943
 21
98.8993454753100565
 31
0.0
  0
LINE
  5
BF13
  8
0
 10
4272.3769533565391612
 20
98.8953169029558694
 30
0.0
 11
4272.3769533565391612
 21
98.8986153376693267
 31
0.0
  0
LINE
  5
BF14
  8
0
 10
4272.3966383958486404
 20
98.8887416773145134
 30
0.0
 11
4272.3966383958386359
 21
98.8920753327044935
 31
0.0
  0
LINE
  5
BF15
  8
0
 10
4272.3769533564809535
 20
98.8920981197768754
 30
0.0
 11
4272.3773867172158134
 21
98.8886107651890995
 31
0.0
  0
LINE
  5
BF16
  8
0
 10
4272.3966383958859296
 20
98.8820216406492989
 30
0.0
 11
4272.3966383958777442
 21
98.8854696757288139
 31
0.0
  0
LINE
  5
BF17
  8
0
 10
4272.4047922061727149
 20
98.8821437196760371
 30
0.0
 11
4272.4047922061827194
 21
98.8873423826504165
 31
0.0
  0
LINE
  5
BF18
  8
0
 10
4272.4047922061836289
 20
98.8799337007506836
 30
0.0
 11
4272.4050170726277429
 21
98.8786245455777362
 31
0.0
  0
LINE
  5
BF19
  8
0
 10
4272.4244772455776911
 20
98.8765422243610459
 30
0.0
 11
4272.4244772453967016
 21
98.8818095063573708
 31
0.0
  0
LINE
  5
BF1A
  8
0
 10
4272.4326310557953548
 20
98.8786013425008434
 30
0.0
 11
4272.43263105583992
 21
98.8819884657113732
 31
0.0
  0
LINE
  5
BF1B
  8
0
 10
4272.4320851662569112
 20
98.8718502710191558
 30
0.0
 11
4272.4322617364778125
 21
98.8752689679096193
 31
0.0
  0
LINE
  5
BF1C
  8
0
 10
4272.4244772455385828
 20
98.8728471986838429
 30
0.0
 11
4272.4244772455385828
 21
98.8742760637919389
 31
0.0
  0
LINE
  5
BF1D
  8
0
 10
4272.4523160952103353
 20
98.8669760330670897
 30
0.0
 11
4272.4523160952494436
 21
98.8706575476147833
 31
0.0
  0
LINE
  5
BF1E
  8
0
 10
4272.4523160951393947
 20
98.8740437095558633
 30
0.0
 11
4272.4523160951393947
 21
98.8774538335892146
 31
0.0
  0
LINE
  5
BF1F
  8
0
 10
4272.4604699055116726
 20
98.8734889519967339
 30
0.0
 11
4272.4604699054152661
 21
98.8681211940719464
 31
0.0
  0
LINE
  5
BF20
  8
0
 10
4272.4801549448229707
 20
98.8644785268815838
 30
0.0
 11
4272.4801549448611695
 21
98.8698887811765985
 31
0.0
  0
LINE
  5
BF21
  8
0
 10
4272.4883087553371297
 20
98.8674463828518668
 30
0.0
 11
4272.4874013334811025
 21
98.8710191838581807
 31
0.0
  0
LINE
  5
BF22
  8
0
 10
4272.5079937941636672
 20
98.8647634411907461
 30
0.0
 11
4272.507993794540198
 21
98.8682221552558644
 31
0.0
  0
LINE
  5
BF23
  8
0
 10
4272.4883087546049865
 20
98.8602290338205449
 30
0.0
 11
4272.4881022158342603
 21
98.8639997104076258
 31
0.0
  0
LINE
  5
BF24
  8
0
 10
4272.5079937945092752
 20
98.8574863010237834
 30
0.0
 11
4272.5085088337764319
 21
98.8612377097845041
 31
0.0
  0
LINE
  5
BF25
  8
0
 10
4272.5161476047942415
 20
98.8595233516501253
 30
0.0
 11
4272.5151562339442535
 21
98.8648044044896039
 31
0.0
  0
LINE
  5
BF26
  8
0
 10
4272.5349779928392309
 20
98.8578058974278662
 30
0.0
 11
4272.5354687436747554
 21
98.8632482799101666
 31
0.0
  0
LINE
  5
BF27
  8
0
 10
4272.5161476035791566
 20
98.8549490162490656
 30
0.0
 11
4272.5161089618659389
 21
98.8570931941427773
 31
0.0
  0
LINE
  5
BF28
  8
0
 10
4272.535832644139191
 20
98.8552818679558527
 30
0.0
 11
4272.5358671284666343
 21
98.8531047256581843
 31
0.0
  0
LINE
  5
BF29
  8
0
 10
4272.5439864544141528
 20
98.8541620946489132
 30
0.0
 11
4272.5439756303067043
 21
98.8580328021316177
 31
0.0
  0
LINE
  5
BF2A
  8
0
 10
4272.5439864545396631
 20
98.8615109050330148
 30
0.0
 11
4272.5439864545396631
 21
98.8649854450513317
 31
0.0
  0
LINE
  5
BF2B
  8
0
 10
4272.5636714938400473
 20
98.8606248396558556
 30
0.0
 11
4272.5636714938400473
 21
98.8641035977558857
 31
0.0
  0
LINE
  5
BF2C
  8
0
 10
4272.5636714930642484
 20
98.8532566573676519
 30
0.0
 11
4272.5636714930642484
 21
98.8571398733377151
 31
0.0
  0
LINE
  5
BF2D
  8
0
 10
4272.5914749491976181
 20
98.8560917729044206
 30
0.0
 11
4272.5914749491976181
 21
98.8615977334036558
 31
0.0
  0
LINE
  5
BF2E
  8
0
 10
4272.5718253043423829
 20
98.8560917729455753
 30
0.0
 11
4272.5718253043423829
 21
98.8615977334036558
 31
0.0
  0
LINE
  5
BF2F
  8
0
 10
4272.5914749493858835
 20
98.8536306456766312
 30
0.0
 11
4272.5914749491794282
 21
98.8514232533747759
 31
0.0
  0
LINE
  5
BF30
  8
0
 10
4272.571825304587037
 20
98.8514232533710242
 30
0.0
 11
4272.571825304399681
 21
98.8536306456783507
 31
0.0
  0
LINE
  5
BF31
  8
0
 10
4272.535832644139191
 20
99.0352012816964447
 30
0.0
 11
4272.535832644139191
 21
99.0487887318558649
 31
0.0
  0
LINE
  5
BF32
  8
0
 10
4272.5161476047387623
 20
99.0371572631655113
 30
0.0
 11
4272.5161476047387623
 21
99.0475956310431513
 31
0.0
  0
ARC
  5
BF33
  8
0
 10
4272.8262024116020257
 20
98.9249547382581653
 30
0.0
 40
0.0746608344092985
 50
25.5909440728684388
 51
52.4304724572772969
  0
ARC
  5
BF34
  8
0
 10
4272.740298949015596
 20
98.8076586168799054
 30
0.0
 40
0.2200354983047793
 50
53.3236409924146173
 51
71.6885491753301807
  0
ARC
  5
BF35
  8
0
 10
4272.6260490932590983
 20
98.4766258515964807
 30
0.0
 40
0.570218372708486
 50
71.2404068912105544
 51
83.1083288167799452
  0
ARC
  5
BF36
  8
0
 10
4272.5836081107581776
 20
98.1817921137368756
 30
0.0
 40
0.8680407724388242
 50
82.6623561675612564
 51
88.0520799946735622
  0
ARC
  5
BF37
  8
0
 10
4272.5816908210954352
 20
98.1324167367077678
 30
0.0
 40
0.9174528188062623
 50
88.0372254234073637
 51
90.0036465952804008
  0
ARC
  5
BF38
  8
0
 10
4272.8486315295722306
 20
98.9756564301388835
 30
0.0
 40
0.0485885113508923
 50
328.1575524761045131
 51
337.6183993303448005
  0
ARC
  5
BF39
  8
0
 10
4272.8183303916057412
 20
98.997066423495923
 30
0.0
 40
0.085653282301483
 50
305.3725529628709978
 51
326.684815552617124
  0
ARC
  5
BF3A
  8
0
 10
4272.7035503160050212
 20
99.1718253614881462
 30
0.0
 40
0.2946950865545726
 50
291.5963968020536754
 51
303.8998160393713874
  0
ARC
  5
BF3B
  8
0
 10
4272.5778532542099128
 20
99.4582345215292492
 30
0.0
 40
0.6073710848736831
 50
284.2170667786052718
 51
292.6771127258977003
  0
ARC
  5
BF3C
  8
0
 10
4272.6023532412064014
 20
99.3252446471819752
 30
0.0
 40
0.4725213441572571
 50
276.2446036858754042
 51
285.2977827024287762
  0
ARC
  5
BF3D
  8
0
 10
4272.5826204471877645
 20
99.4187514166273729
 30
0.0
 40
0.5676982694717351
 50
271.1546683400599136
 51
277.1978654182423156
  0
ARC
  5
BF3E
  8
0
 10
4272.5892367538435792
 20
98.5276784821897564
 30
0.0
 40
0.3235259026080698
 50
89.1457171133259294
 51
91.3468343715333191
  0
ARC
  5
BF3F
  8
0
 10
4272.5718684825651508
 20
99.7217539725691751
 30
0.0
 40
0.8154984249852009
 50
270.6860176713220199
 51
275.5781164746462082
  0
ARC
  5
BF40
  8
0
 10
4272.5818926560741602
 20
99.5296516119477133
 30
0.0
 40
0.6233920265506371
 50
276.3774055571906842
 51
285.1905537907238113
  0
ARC
  5
BF41
  8
0
 10
4272.585475991471867
 20
99.5164541474642306
 30
0.0
 40
0.6097167436882733
 50
285.1905537907238113
 51
290.7706252471609218
  0
ARC
  5
BF42
  8
0
 10
4272.5825191035528405
 20
99.524250247856429
 30
0.0
 40
0.618054751093302
 50
290.7706252471609218
 51
293.436748767072288
  0
ARC
  5
BF43
  8
0
 10
4272.5974738190016069
 20
99.4897526621084438
 30
0.0
 40
0.5804551907689149
 50
293.436748767072288
 51
294.4760128927325127
  0
LINE
  5
BF44
  8
0
 10
4272.8379635136043362
 20
98.961460190762665
 30
0.0
 11
4272.8384689292161056
 21
98.9590010118240855
 31
0.0
  0
LINE
  5
BF45
  8
0
 10
4272.8359224046880627
 20
98.9605357874014544
 30
0.0
 11
4272.8384689292042822
 21
98.9590010118854337
 31
0.0
  0
LINE
  5
BF46
  8
0
 10
4272.8384689292042822
 20
98.9590010118854337
 30
0.0
 11
4272.842064255839432
 21
98.9606524885558656
 31
0.0
  0
LINE
  5
BF47
  8
0
 10
4272.842064255839432
 20
98.9606524885558656
 30
0.0
 11
4272.851906775516909
 21
98.9583778429253158
 31
0.0
  0
LINE
  5
BF48
  8
0
 10
4272.851906775516909
 20
98.9583778429253158
 30
0.0
 11
4272.842064255839432
 21
98.9473051821541958
 31
0.0
  0
LINE
  5
BF49
  8
0
 10
4272.842064255839432
 20
98.9473051821541958
 30
0.0
 11
4272.8400465070271821
 21
98.9463779917956856
 31
0.0
  0
LINE
  5
BF4A
  8
0
 10
4272.8400465070271821
 20
98.9463779917956856
 30
0.0
 11
4272.8244857071777005
 21
98.9555275980587368
 31
0.0
  0
LINE
  5
BF4B
  8
0
 10
4272.6193534586391252
 20
99.0396874555776492
 30
0.0
 11
4272.6291959783120546
 21
99.0267544302156466
 31
0.0
  0
LINE
  5
BF4C
  8
0
 10
4272.6291959783120546
 20
99.0267544302156466
 30
0.0
 11
4272.6193534586391252
 21
99.0129682319558668
 31
0.0
  0
LINE
  5
BF4D
  8
0
 10
4272.6193534586391252
 20
99.0129682319558668
 30
0.0
 11
4272.5996684192386965
 21
99.0120174600558585
 31
0.0
  0
LINE
  5
BF4E
  8
0
 10
4272.5996684192386965
 20
99.0120174600558585
 30
0.0
 11
4272.5898258995794095
 21
99.0248245772103814
 31
0.0
  0
LINE
  5
BF4F
  8
0
 10
4272.5898258995794095
 20
99.0248245772103814
 30
0.0
 11
4272.5996684192386965
 21
99.0387077256271056
 31
0.0
  0
LINE
  5
BF50
  8
0
 10
4272.5996684192386965
 20
99.0387077256271056
 30
0.0
 11
4272.6193534586391252
 21
99.0396874555776492
 31
0.0
  0
LINE
  5
BF51
  8
0
 10
4272.6471923082899593
 20
99.0201992457181177
 30
0.0
 11
4272.6570348279647078
 21
99.0087017742494737
 31
0.0
  0
LINE
  5
BF52
  8
0
 10
4272.6570348279647078
 20
99.0087017742494737
 30
0.0
 11
4272.6471923083399815
 21
98.9953896507558682
 31
0.0
  0
LINE
  5
BF53
  8
0
 10
4272.6471923083399815
 20
98.9953896507558682
 30
0.0
 11
4272.6275072689240915
 21
98.9935194035536625
 31
0.0
  0
LINE
  5
BF54
  8
0
 10
4272.6275072689240915
 20
98.9935194035536625
 30
0.0
 11
4272.6176647490983669
 21
99.0049135316067463
 31
0.0
  0
LINE
  5
BF55
  8
0
 10
4272.6176647490983669
 20
99.0049135316067463
 30
0.0
 11
4272.6275483981089565
 21
99.0182836277461718
 31
0.0
  0
LINE
  5
BF56
  8
0
 10
4272.6275483981089565
 20
99.0182836277461718
 30
0.0
 11
4272.6471923082899593
 21
99.0201992457181177
 31
0.0
  0
LINE
  5
BF57
  8
0
 10
4272.6760876642611038
 20
99.0448925220324554
 30
0.0
 11
4272.6848736776000806
 21
99.0342125397765756
 31
0.0
  0
LINE
  5
BF58
  8
0
 10
4272.6848736776000806
 20
99.0342125397766324
 30
0.0
 11
4272.6750311579216941
 21
99.0193432619188059
 31
0.0
  0
LINE
  5
BF59
  8
0
 10
4272.6750311579216941
 20
99.0193432619188059
 30
0.0
 11
4272.655346118592206
 21
99.0164603077716663
 31
0.0
  0
LINE
  5
BF5A
  8
0
 10
4272.655346118592206
 20
99.0164603077716663
 30
0.0
 11
4272.6455035986900839
 21
99.0283588265486685
 31
0.0
  0
LINE
  5
BF5B
  8
0
 10
4272.6455035986900839
 20
99.0283588265486685
 30
0.0
 11
4272.6553461185385459
 21
99.0432868704558587
 31
0.0
  0
LINE
  5
BF5C
  8
0
 10
4272.6553461185385459
 20
99.0432868704558587
 30
0.0
 11
4272.6705040569968332
 21
99.0454725390930264
 31
0.0
  0
LINE
  5
BF5D
  8
0
 10
4272.7028700076389214
 20
99.0292474181967464
 30
0.0
 11
4272.7127125272609192
 21
99.0187684553683312
 31
0.0
  0
LINE
  5
BF5E
  8
0
 10
4272.7127125272609192
 20
99.0187684553683312
 30
0.0
 11
4272.7028700076389214
 21
99.0043533949639993
 31
0.0
  0
LINE
  5
BF5F
  8
0
 10
4272.7028700076389214
 20
99.0043533949639993
 30
0.0
 11
4272.6831849682394022
 21
99.0005541711558834
 31
0.0
  0
LINE
  5
BF60
  8
0
 10
4272.6831849682394022
 20
99.0005541711558834
 30
0.0
 11
4272.6733424484091302
 21
99.0110697520805445
 31
0.0
  0
LINE
  5
BF61
  8
0
 10
4272.6733424484091302
 20
99.0110697520805445
 30
0.0
 11
4272.6831849682394022
 21
99.0255000764558702
 31
0.0
  0
LINE
  5
BF62
  8
0
 10
4272.6831849682394022
 20
99.0255000764558702
 30
0.0
 11
4272.7028700076389214
 21
99.0292474181967464
 31
0.0
  0
LINE
  5
BF63
  8
0
 10
4272.6750311579226036
 20
99.00357868629564
 30
0.0
 11
4272.684873677610085
 21
98.993441610396431
 31
0.0
  0
LINE
  5
BF64
  8
0
 10
4272.684873677610085
 20
98.993441610396431
 30
0.0
 11
4272.675031157939884
 21
98.9805509928967808
 31
0.0
  0
LINE
  5
BF65
  8
0
 10
4272.675031157939884
 20
98.9805509928967808
 30
0.0
 11
4272.655346118597663
 21
98.9777765541130066
 31
0.0
  0
LINE
  5
BF66
  8
0
 10
4272.655346118597663
 20
98.9777765541130066
 30
0.0
 11
4272.6455035987728479
 21
98.9878322437100167
 31
0.0
  0
LINE
  5
BF67
  8
0
 10
4272.6455035987728479
 20
98.9878322437100167
 30
0.0
 11
4272.6553461185467313
 21
99.0007428108617944
 31
0.0
  0
LINE
  5
BF68
  8
0
 10
4272.6553461185467313
 20
99.0007428108617944
 30
0.0
 11
4272.6750311579226036
 21
99.00357868629564
 31
0.0
  0
LINE
  5
BF69
  8
0
 10
4272.6193534587018803
 20
98.9973070627820277
 30
0.0
 11
4272.6291959783766288
 21
98.9862938814395221
 31
0.0
  0
LINE
  5
BF6A
  8
0
 10
4272.6291959783766288
 20
98.9862938814395221
 30
0.0
 11
4272.6193534586391252
 21
98.9744143638558569
 31
0.0
  0
LINE
  5
BF6B
  8
0
 10
4272.6193534586391252
 20
98.9744143638558569
 30
0.0
 11
4272.5996684192386965
 21
98.9734986639950307
 31
0.0
  0
LINE
  5
BF6C
  8
0
 10
4272.5996684192386965
 20
98.9734986639950307
 30
0.0
 11
4272.5898258993520358
 21
98.9844429329870934
 31
0.0
  0
LINE
  5
BF6D
  8
0
 10
4272.5898258993520358
 20
98.9844429329870934
 30
0.0
 11
4272.5996684192286921
 21
98.9963714965849988
 31
0.0
  0
LINE
  5
BF6E
  8
0
 10
4272.5996684192286921
 20
98.9963714965849988
 30
0.0
 11
4272.6193534587018803
 21
98.9973070627820277
 31
0.0
  0
LINE
  5
BF6F
  8
0
 10
4272.6471923083081492
 20
98.9808677280736333
 30
0.0
 11
4272.6570348279210521
 21
98.9711738798676066
 31
0.0
  0
LINE
  5
BF70
  8
0
 10
4272.6570348279210521
 20
98.9711738798676066
 30
0.0
 11
4272.6471923083399815
 21
98.9596899149558737
 31
0.0
  0
LINE
  5
BF71
  8
0
 10
4272.6471923083399815
 20
98.9596899149558737
 30
0.0
 11
4272.6275072689168155
 21
98.9578778922246016
 31
0.0
  0
LINE
  5
BF72
  8
0
 10
4272.6275072689168155
 20
98.9578778922246016
 30
0.0
 11
4272.6176647490083269
 21
98.9675174461552132
 31
0.0
  0
LINE
  5
BF73
  8
0
 10
4272.6176647490083269
 20
98.9675174461552132
 30
0.0
 11
4272.6275072689131775
 21
98.9790228914631882
 31
0.0
  0
LINE
  5
BF74
  8
0
 10
4272.6275072689131775
 20
98.9790228914631882
 30
0.0
 11
4272.6471923083081492
 21
98.9808677280736333
 31
0.0
  0
LINE
  5
BF75
  8
0
 10
4272.6750311579671688
 20
98.9671048509916602
 30
0.0
 11
4272.6848736776273654
 21
98.9588507950107328
 31
0.0
  0
LINE
  5
BF76
  8
0
 10
4272.6848736776273654
 20
98.9588507950107328
 30
0.0
 11
4272.6747907020271668
 21
98.9475272070875036
 31
0.0
  0
LINE
  5
BF77
  8
0
 10
4272.6747907020271668
 20
98.9475272070875036
 30
0.0
 11
4272.655346118606758
 21
98.944861550449005
 31
0.0
  0
LINE
  5
BF78
  8
0
 10
4272.655346118606758
 20
98.944861550449005
 30
0.0
 11
4272.6455035987892188
 21
98.9532414283243469
 31
0.0
  0
LINE
  5
BF79
  8
0
 10
4272.6455035987892188
 20
98.9532414283243469
 30
0.0
 11
4272.6553461185385459
 21
98.9643621183558651
 31
0.0
  0
LINE
  5
BF7A
  8
0
 10
4272.6553461185385459
 20
98.9643621183558651
 30
0.0
 11
4272.6750311579671688
 21
98.9671048509916602
 31
0.0
  0
LINE
  5
BF7B
  8
0
 10
4272.7028700075907182
 20
98.9897071384076241
 30
0.0
 11
4272.7127125273736965
 21
98.9808810904231677
 31
0.0
  0
LINE
  5
BF7C
  8
0
 10
4272.7127125273736965
 20
98.9808810904231677
 30
0.0
 11
4272.7028700076207315
 21
98.968368925089095
 31
0.0
  0
LINE
  5
BF7D
  8
0
 10
4272.7028700076207315
 20
98.968368925089095
 30
0.0
 11
4272.6831849682512257
 21
98.9646915452184714
 31
0.0
  0
LINE
  5
BF7E
  8
0
 10
4272.6831849682512257
 20
98.9646915452184714
 30
0.0
 11
4272.6733424483982162
 21
98.9734585169542243
 31
0.0
  0
LINE
  5
BF7F
  8
0
 10
4272.6733424483982162
 20
98.9734585169542243
 30
0.0
 11
4272.6831849681730091
 21
98.9863690841060162
 31
0.0
  0
LINE
  5
BF80
  8
0
 10
4272.6831849681730091
 20
98.9863690841060162
 30
0.0
 11
4272.7028700075907182
 21
98.9897071384076241
 31
0.0
  0
LINE
  5
BF81
  8
0
 10
4272.7307088573297733
 20
99.0153876510823636
 30
0.0
 11
4272.7405513770136167
 21
99.0061122659043349
 31
0.0
  0
LINE
  5
BF82
  8
0
 10
4272.7405513770136167
 20
99.0061122659043349
 30
0.0
 11
4272.7307088572388238
 21
98.9920968648558528
 31
0.0
  0
LINE
  5
BF83
  8
0
 10
4272.7307088572388238
 20
98.9920968648558528
 30
0.0
 11
4272.7110238179393491
 21
98.9873774332547782
 31
0.0
  0
LINE
  5
BF84
  8
0
 10
4272.7110238179393491
 20
98.9873774332547782
 30
0.0
 11
4272.7011812980026662
 21
98.9965659373240214
 31
0.0
  0
LINE
  5
BF85
  8
0
 10
4272.7011812980026662
 20
98.9965659373240214
 30
0.0
 11
4272.7110238179393491
 21
99.0105592043092742
 31
0.0
  0
LINE
  5
BF86
  8
0
 10
4272.7110238179393491
 20
99.0105592043092742
 30
0.0
 11
4272.7307088573297733
 21
99.0153876510823636
 31
0.0
  0
LINE
  5
BF87
  8
0
 10
4272.6193534586482201
 20
98.9610379120731238
 30
0.0
 11
4272.6291959783320635
 21
98.951747567639643
 31
0.0
  0
LINE
  5
BF88
  8
0
 10
4272.6291959783320635
 20
98.951747567639643
 30
0.0
 11
4272.6192757113949483
 21
98.9415806714057311
 31
0.0
  0
LINE
  5
BF89
  8
0
 10
4272.6192757113949483
 20
98.9415806714057311
 30
0.0
 11
4272.5996684192550674
 21
98.9406930029676062
 31
0.0
  0
LINE
  5
BF8A
  8
0
 10
4272.5996684192550674
 20
98.9406930029676062
 30
0.0
 11
4272.5898258995621291
 21
98.9499498312324306
 31
0.0
  0
LINE
  5
BF8B
  8
0
 10
4272.5898258995621291
 20
98.9499498312324306
 30
0.0
 11
4272.5996963057377798
 21
98.9601333038137767
 31
0.0
  0
LINE
  5
BF8C
  8
0
 10
4272.5996963057377798
 20
98.9601333038137767
 30
0.0
 11
4272.6193534586482201
 21
98.9610379120731238
 31
0.0
  0
LINE
  5
BF8D
  8
0
 10
4272.6471923083399815
 20
98.9473562742040258
 30
0.0
 11
4272.6570348279683458
 21
98.9393144261591431
 31
0.0
  0
LINE
  5
BF8E
  8
0
 10
4272.6570348279683458
 20
98.9393144261591431
 30
0.0
 11
4272.6470099866546661
 21
98.9294813917113203
 31
0.0
  0
LINE
  5
BF8F
  8
0
 10
4272.6470099866546661
 20
98.9294813917113203
 30
0.0
 11
4272.6275072689386434
 21
98.9277257012653735
 31
0.0
  0
LINE
  5
BF90
  8
0
 10
4272.6275072689386434
 20
98.9277257012653735
 30
0.0
 11
4272.6176647492902703
 21
98.9357441413328615
 31
0.0
  0
LINE
  5
BF91
  8
0
 10
4272.6176647492902703
 20
98.9357441413328615
 30
0.0
 11
4272.627507268923182
 21
98.9455608703141252
 31
0.0
  0
LINE
  5
BF92
  8
0
 10
4272.627507268923182
 20
98.9455608703141252
 30
0.0
 11
4272.6471923083399815
 21
98.9473562742040258
 31
0.0
  0
LINE
  5
BF93
  8
0
 10
4272.7028700076389214
 20
98.9559541166459411
 30
0.0
 11
4272.7127125273427737
 21
98.9487872361628717
 31
0.0
  0
LINE
  5
BF94
  8
0
 10
4272.7127125273427737
 20
98.9487872361628717
 30
0.0
 11
4272.7028700076298264
 21
98.9379991868981676
 31
0.0
  0
LINE
  5
BF95
  8
0
 10
4272.7028700076298264
 20
98.9379991868981676
 30
0.0
 11
4272.6831849682321263
 21
98.9343990161985545
 31
0.0
  0
LINE
  5
BF96
  8
0
 10
4272.6831849682321263
 20
98.9343990161985545
 30
0.0
 11
4272.6733424485337309
 21
98.9415446474840934
 31
0.0
  0
LINE
  5
BF97
  8
0
 10
4272.6733424485337309
 20
98.9415446474840934
 30
0.0
 11
4272.6831849682394022
 21
98.9523114495558644
 31
0.0
  0
LINE
  5
BF98
  8
0
 10
4272.6831849682394022
 20
98.9523114495558644
 30
0.0
 11
4272.7028700076389214
 21
98.9559541166459411
 31
0.0
  0
LINE
  5
BF99
  8
0
 10
4272.7307088572770226
 20
98.9785151402461736
 30
0.0
 11
4272.7405513769635945
 21
98.9709727169811231
 31
0.0
  0
LINE
  5
BF9A
  8
0
 10
4272.7405513769635945
 20
98.9709727169811231
 30
0.0
 11
4272.7307088572451903
 21
98.9588030228022149
 31
0.0
  0
LINE
  5
BF9B
  8
0
 10
4272.7307088572451903
 20
98.9588030228022149
 30
0.0
 11
4272.7110238179393491
 21
98.9542106772684349
 31
0.0
  0
LINE
  5
BF9C
  8
0
 10
4272.7110238179393491
 20
98.9542106772684349
 30
0.0
 11
4272.7011812982163974
 21
98.9617176253672142
 31
0.0
  0
LINE
  5
BF9D
  8
0
 10
4272.7011812982163974
 20
98.9617176253672142
 30
0.0
 11
4272.7110238179393491
 21
98.9738518503558566
 31
0.0
  0
LINE
  5
BF9E
  8
0
 10
4272.7110238179393491
 20
98.9738518503558566
 30
0.0
 11
4272.7307088572770226
 21
98.9785151402461736
 31
0.0
  0
LINE
  5
BF9F
  8
0
 10
4272.7585477069387707
 20
99.0041417048321648
 30
0.0
 11
4272.7683902266244331
 21
98.9961917963038331
 31
0.0
  0
LINE
  5
BFA0
  8
0
 10
4272.7683902266244331
 20
98.9961917963038331
 30
0.0
 11
4272.7585477069333137
 21
98.9825297250787344
 31
0.0
  0
LINE
  5
BFA1
  8
0
 10
4272.7585477069333137
 20
98.9825297250787344
 30
0.0
 11
4272.7388626675392516
 21
98.9768720882558739
 31
0.0
  0
LINE
  5
BFA2
  8
0
 10
4272.7388626675392516
 20
98.9768720882558739
 30
0.0
 11
4272.7290201478581366
 21
98.9847663728549207
 31
0.0
  0
LINE
  5
BFA3
  8
0
 10
4272.7290201478581366
 20
98.9847663728549207
 30
0.0
 11
4272.7388626675128762
 21
98.9983728353420531
 31
0.0
  0
LINE
  5
BFA4
  8
0
 10
4272.7388626675128762
 20
98.9983728353420531
 30
0.0
 11
4272.7585477069387707
 21
99.0041417048321648
 31
0.0
  0
LINE
  5
BFA5
  8
0
 10
4272.7585477069387707
 20
98.9699766422851042
 30
0.0
 11
4272.7683902265898723
 21
98.9637105232855845
 31
0.0
  0
LINE
  5
BFA6
  8
0
 10
4272.7683902265898723
 20
98.9637105232855845
 30
0.0
 11
4272.7585477069233093
 21
98.951852617532964
 31
0.0
  0
LINE
  5
BFA7
  8
0
 10
4272.7585477069233093
 20
98.951852617532964
 30
0.0
 11
4272.7388626675146952
 21
98.9463197413425917
 31
0.0
  0
LINE
  5
BFA8
  8
0
 10
4272.7388626675146952
 20
98.9463197413425917
 30
0.0
 11
4272.7290201478690506
 21
98.9525763102552389
 31
0.0
  0
LINE
  5
BFA9
  8
0
 10
4272.7290201478690506
 20
98.9525763102552389
 30
0.0
 11
4272.7388626675392516
 21
98.9643751469084521
 31
0.0
  0
LINE
  5
BFAA
  8
0
 10
4272.7388626675392516
 20
98.9643751469084521
 30
0.0
 11
4272.7585477069387707
 21
98.9699766422851042
 31
0.0
  0
LINE
  5
BFAB
  8
0
 10
4272.7863865565386732
 20
98.9956349054558586
 30
0.0
 11
4272.7962290762106932
 21
98.9890004996002659
 31
0.0
  0
LINE
  5
BFAC
  8
0
 10
4272.7962290762106932
 20
98.9890004996002659
 30
0.0
 11
4272.7863865566132517
 21
98.975651249384839
 31
0.0
  0
LINE
  5
BFAD
  8
0
 10
4272.7863865566132517
 20
98.975651249384839
 30
0.0
 11
4272.766701517310139
 21
98.9684894390593541
 31
0.0
  0
LINE
  5
BFAE
  8
0
 10
4272.766701517310139
 20
98.9684894390593541
 30
0.0
 11
4272.7568589976108342
 21
98.9756350703449357
 31
0.0
  0
LINE
  5
BFAF
  8
0
 10
4272.7568589976108342
 20
98.9756350703449357
 30
0.0
 11
4272.7667015172391984
 21
98.9888974579360479
 31
0.0
  0
LINE
  5
BFB0
  8
0
 10
4272.7667015172391984
 20
98.9888974579360479
 30
0.0
 11
4272.7863865565386732
 21
98.9956349054558586
 31
0.0
  0
LINE
  5
BFB1
  8
0
 10
4272.8142254062386201
 20
98.9898840755558638
 30
0.0
 11
4272.8240679258269665
 21
98.9845769082913165
 31
0.0
  0
LINE
  5
BFB2
  8
0
 10
4272.8240679258269665
 20
98.9845769082913165
 30
0.0
 11
4272.8142254062931897
 21
98.9715038736914039
 31
0.0
  0
LINE
  5
BFB3
  8
0
 10
4272.8142254062931897
 20
98.9715038736914039
 30
0.0
 11
4272.7945403668400104
 21
98.9638557102558849
 31
0.0
  0
LINE
  5
BFB4
  8
0
 10
4272.7945403668400104
 20
98.9638557102558849
 30
0.0
 11
4272.7846978471870898
 21
98.9691781472472769
 31
0.0
  0
LINE
  5
BFB5
  8
0
 10
4272.7846978471870898
 20
98.9691781472472769
 30
0.0
 11
4272.794540366813635
 21
98.9824405348383891
 31
0.0
  0
LINE
  5
BFB6
  8
0
 10
4272.794540366813635
 20
98.9824405348383891
 30
0.0
 11
4272.8142254062386201
 21
98.9898840755558638
 31
0.0
  0
LINE
  5
BFB7
  8
0
 10
4272.8446643898423645
 20
99.0013683876071866
 30
0.0
 11
4272.8420642558567124
 21
98.9986934589118732
 31
0.0
  0
LINE
  5
BFB8
  8
0
 10
4272.8420642558567124
 20
98.9986934589118732
 30
0.0
 11
4272.8223792165699706
 21
98.989789520368447
 31
0.0
  0
LINE
  5
BFB9
  8
0
 10
4272.8223792165699706
 20
98.989789520368447
 30
0.0
 11
4272.8125366968879462
 21
98.9954536763852246
 31
0.0
  0
LINE
  5
BFBA
  8
0
 10
4272.8125366968879462
 20
98.9954536763852246
 30
0.0
 11
4272.8223792165399573
 21
99.0100157142558857
 31
0.0
  0
LINE
  5
BFBB
  8
0
 10
4272.8223792165399573
 20
99.0100157142558857
 30
0.0
 11
4272.8249979914016876
 21
99.010739124888687
 31
0.0
  0
LINE
  5
BFBC
  8
0
 10
4272.8217696881447409
 20
99.0120556305076605
 30
0.0
 11
4272.8142254061913263
 21
99.0018234428555957
 31
0.0
  0
LINE
  5
BFBD
  8
0
 10
4272.8142254061913263
 20
99.0018234428555957
 30
0.0
 11
4272.7945403668882136
 21
98.994661632530125
 31
0.0
  0
LINE
  5
BFBE
  8
0
 10
4272.7945403668882136
 20
98.994661632530125
 30
0.0
 11
4272.7846978471898183
 21
99.0018072638156639
 31
0.0
  0
LINE
  5
BFBF
  8
0
 10
4272.7846978471898183
 20
99.0018072638156639
 30
0.0
 11
4272.7945403668400104
 21
99.0166755583607738
 31
0.0
  0
LINE
  5
BFC0
  8
0
 10
4272.7945403668400104
 20
99.0166755583607738
 30
0.0
 11
4272.8011851895598738
 21
99.019282594249276
 31
0.0
  0
LINE
  5
BFC1
  8
0
 10
4272.7941874619673399
 20
99.0214914144123668
 30
0.0
 11
4272.7863865566041568
 21
99.0094318983947943
 31
0.0
  0
LINE
  5
BFC2
  8
0
 10
4272.7863865566041568
 20
99.0094318983947943
 30
0.0
 11
4272.7667015172391984
 21
99.0026079616558548
 31
0.0
  0
LINE
  5
BFC3
  8
0
 10
4272.7667015172391984
 20
99.0026079616558548
 30
0.0
 11
4272.7568589975262512
 21
99.0109255035906983
 31
0.0
  0
LINE
  5
BFC4
  8
0
 10
4272.7568589975262512
 20
99.0109255035906983
 30
0.0
 11
4272.7667015172119136
 21
99.0261492120660876
 31
0.0
  0
LINE
  5
BFC5
  8
0
 10
4272.7667015172119136
 20
99.0261492120660876
 30
0.0
 11
4272.7718314163976174
 21
99.027893941398986
 31
0.0
  0
LINE
  5
BFC6
  8
0
 10
4272.765258430727954
 20
99.0295903648661948
 30
0.0
 11
4272.7585477068769251
 21
99.0190006493294845
 31
0.0
  0
LINE
  5
BFC7
  8
0
 10
4272.7585477068769251
 20
99.0190006493294845
 30
0.0
 11
4272.7388626674892294
 21
99.0131452900307352
 31
0.0
  0
LINE
  5
BFC8
  8
0
 10
4272.7388626674892294
 20
99.0131452900307352
 30
0.0
 11
4272.7290201478908784
 21
99.0228016389563948
 31
0.0
  0
LINE
  5
BFC9
  8
0
 10
4272.7290201478908784
 20
99.0228016389563948
 30
0.0
 11
4272.7373346656249851
 21
99.0358793844040264
 31
0.0
  0
LINE
  5
BFCA
  8
0
 10
4272.7340249893532018
 20
99.036527805903745
 30
0.0
 11
4272.7307088572388238
 21
99.0313541750558812
 31
0.0
  0
LINE
  5
BFCB
  8
0
 10
4272.7307088572388238
 20
99.0313541750558812
 30
0.0
 11
4272.7110238180321176
 21
99.0264419813443055
 31
0.0
  0
LINE
  5
BFCC
  8
0
 10
4272.7110238180321176
 20
99.0264419813443055
 30
0.0
 11
4272.7011812982827905
 21
99.0374754433629221
 31
0.0
  0
LINE
  5
BFCD
  8
0
 10
4272.7011812982827905
 20
99.0374754433629221
 30
0.0
 11
4272.7038046248089813
 21
99.0415179385367423
 31
0.0
  0
LINE
  5
BFCE
  8
0
 10
4272.65355855839789
 20
99.0470098421099721
 30
0.0
 11
4272.6471923083399815
 21
99.0371572631654118
 31
0.0
  0
LINE
  5
BFCF
  8
0
 10
4272.6471923083399815
 20
99.0371572631654118
 30
0.0
 11
4272.6275072688968066
 21
99.0352012817531033
 31
0.0
  0
LINE
  5
BFD0
  8
0
 10
4272.6275072688968066
 20
99.0352012817531033
 30
0.0
 11
4272.6176647492393386
 21
99.0485660787558544
 31
0.0
  0
LINE
  5
BFD1
  8
0
 10
4272.6176647492393386
 20
99.0485660787558544
 30
0.0
 11
4272.6180495077742307
 21
99.049148458792402
 31
0.0
  0
LINE
  5
BFD2
  8
0
 10
4272.8403755464141796
 20
98.9645288728723216
 30
0.0
 11
4272.8502180662526371
 21
98.9618960952912516
 31
0.0
  0
LINE
  5
BFD3
  8
0
 10
4272.8502180662526371
 20
98.9618960952912516
 30
0.0
 11
4272.8699031054893567
 21
98.9718132347967838
 31
0.0
  0
LINE
  5
BFD4
  8
0
 10
4272.8699031054893567
 20
98.9718132347967838
 30
0.0
 11
4272.8764956227041694
 21
98.9801347447074846
 31
0.0
  0
LINE
  5
BFD5
  8
0
 10
4272.8687192010893341
 20
98.986331108807434
 30
0.0
 11
4272.8502180660070735
 21
98.9769700910726158
 31
0.0
  0
LINE
  5
BFD6
  8
0
 10
4272.8502180660070735
 20
98.9769700910726158
 30
0.0
 11
4272.8403755467234078
 21
98.9645288727894297
 31
0.0
  0
LINE
  5
BFD7
  8
0
 10
4272.8519067755341894
 20
98.9830079045195248
 30
0.0
 11
4272.8420642558958207
 21
98.9869529595746656
 31
0.0
  0
LINE
  5
BFD8
  8
0
 10
4272.8420642558958207
 20
98.9869529595746656
 30
0.0
 11
4272.8223792164499173
 21
98.9781269725168045
 31
0.0
  0
LINE
  5
BFD9
  8
0
 10
4272.8223792164499173
 20
98.9781269725168045
 30
0.0
 11
4272.8125366968170056
 21
98.9654443164343149
 31
0.0
  0
LINE
  5
BFDA
  8
0
 10
4272.8125366968170056
 20
98.9654443164343149
 30
0.0
 11
4272.8254488701104492
 21
98.970423914155873
 31
0.0
  0
LINE
  5
BFDB
  8
0
 10
4272.8254488701104492
 20
98.970423914155873
 30
0.0
 11
4272.8303576950393108
 21
98.9648803283558607
 31
0.0
  0
LINE
  5
BFDC
  8
0
 10
4272.8303576950393108
 20
98.9648803283558607
 30
0.0
 11
4272.8420642558858162
 21
98.9701766957581555
 31
0.0
  0
LINE
  5
BFDD
  8
0
 10
4272.8420642558858162
 20
98.9701766957581555
 30
0.0
 11
4272.8519067755341894
 21
98.9830079045195248
 31
0.0
  0
LINE
  5
BFDE
  8
0
 10
4272.7962290762498014
 20
98.9591296046468187
 30
0.0
 11
4272.7863865565359447
 21
98.9641069308384402
 31
0.0
  0
LINE
  5
BFDF
  8
0
 10
4272.7863865565359447
 20
98.9641069308384402
 30
0.0
 11
4272.7667015172091851
 21
98.9575317052517534
 31
0.0
  0
LINE
  5
BFE0
  8
0
 10
4272.7667015172091851
 20
98.9575317052517534
 30
0.0
 11
4272.7568589974453062
 21
98.9460402276225039
 31
0.0
  0
LINE
  5
BFE1
  8
0
 10
4272.7568589974453062
 20
98.9460402276225039
 30
0.0
 11
4272.7962290762498014
 21
98.9591296046468187
 31
0.0
  0
LINE
  5
BFE2
  8
0
 10
4272.7405513769399477
 20
98.9414709216558492
 30
0.0
 11
4272.7307088572406428
 21
98.9473913703822916
 31
0.0
  0
LINE
  5
BFE3
  8
0
 10
4272.7307088572406428
 20
98.9473913703822916
 30
0.0
 11
4272.7110238179120643
 21
98.9428337374303908
 31
0.0
  0
LINE
  5
BFE4
  8
0
 10
4272.7110238179120643
 20
98.9428337374303908
 30
0.0
 11
4272.7011812981891126
 21
98.9323958030189345
 31
0.0
  0
LINE
  5
BFE5
  8
0
 10
4272.7011812981891126
 20
98.9323958030189345
 30
0.0
 11
4272.7405513769263052
 21
98.9414709216178636
 31
0.0
  0
LINE
  5
BFE6
  8
0
 10
4272.6848736776828446
 20
98.9294221695312501
 30
0.0
 11
4272.675031157938065
 21
98.9362364107967807
 31
0.0
  0
LINE
  5
BFE7
  8
0
 10
4272.675031157938065
 20
98.9362364107967807
 30
0.0
 11
4272.6553461186276763
 21
98.9335534691677196
 31
0.0
  0
LINE
  5
BFE8
  8
0
 10
4272.6553461186276763
 20
98.9335534691677196
 30
0.0
 11
4272.6455035989401949
 21
98.924079132255855
 31
0.0
  0
LINE
  5
BFE9
  8
0
 10
4272.6455035989401949
 20
98.924079132255855
 30
0.0
 11
4272.6848736776828446
 21
98.9294221695312501
 31
0.0
  0
LINE
  5
BFEA
  8
0
 10
4272.5898258996139703
 20
98.9208481704338851
 30
0.0
 11
4272.5996684192996327
 21
98.9294148674846383
 31
0.0
  0
LINE
  5
BFEB
  8
0
 10
4272.5996684192996327
 20
98.9294148674846383
 30
0.0
 11
4272.6193534586400347
 21
98.930300932999728
 31
0.0
  0
LINE
  5
BFEC
  8
0
 10
4272.6193534586400347
 20
98.930300932999728
 30
0.0
 11
4272.6291959783393395
 21
98.9226128799558637
 31
0.0
  0
LINE
  5
BFED
  8
0
 10
4272.6291959783393395
 20
98.9226128799558637
 30
0.0
 11
4272.5898258996394361
 21
98.9208481704558551
 31
0.0
  0
LINE
  5
BFEE
  8
0
 10
4272.8797456251786571
 20
98.9625279987621127
 30
0.0
 11
4272.8699031055393789
 21
98.9633344759558753
 31
0.0
  0
LINE
  5
BFEF
  8
0
 10
4272.8699031055393789
 20
98.9633344759558753
 30
0.0
 11
4272.8502180659279475
 21
98.9534393632050069
 31
0.0
  0
LINE
  5
BFF0
  8
0
 10
4272.8502180659279475
 20
98.9534393632050069
 30
0.0
 11
4272.8403755464096321
 21
98.9427347332909051
 31
0.0
  0
LINE
  5
BFF1
  8
0
 10
4272.8403755464096321
 20
98.9427347332909051
 30
0.0
 11
4272.8502180661271268
 21
98.9417780195004752
 31
0.0
  0
LINE
  5
BFF2
  8
0
 10
4272.8502180661271268
 20
98.9417780195004752
 30
0.0
 11
4272.8699031053438375
 21
98.9516731319783105
 31
0.0
  0
LINE
  5
BFF3
  8
0
 10
4272.8699031053438375
 20
98.9516731319783105
 30
0.0
 11
4272.8797456252368647
 21
98.9625279987595832
 31
0.0
  0
LINE
  5
BFF4
  8
0
 10
4272.8797456252241318
 20
98.9463506917357165
 30
0.0
 11
4272.8699031054793522
 21
98.9453887892811963
 31
0.0
  0
LINE
  5
BFF5
  8
0
 10
4272.8699031054793522
 20
98.9453887892811963
 30
0.0
 11
4272.8502180662362662
 21
98.9354716496826825
 31
0.0
  0
LINE
  5
BFF6
  8
0
 10
4272.8502180662362662
 20
98.9354716496826825
 30
0.0
 11
4272.8403755465205904
 21
98.9264430833962365
 31
0.0
  0
LINE
  5
BFF7
  8
0
 10
4272.8403755465205904
 20
98.9264430833962365
 30
0.0
 11
4272.8502180661398597
 21
98.9272229579558626
 31
0.0
  0
LINE
  5
BFF8
  8
0
 10
4272.8502180661398597
 20
98.9272229579558626
 30
0.0
 11
4272.8699031057985849
 21
98.9372106731234737
 31
0.0
  0
LINE
  5
BFF9
  8
0
 10
4272.8699031057985849
 20
98.9372106731234737
 30
0.0
 11
4272.8797456252241318
 21
98.9463506917357165
 31
0.0
  0
LINE
  5
BFFA
  8
0
 10
4272.8519067754341449
 20
98.9258792203280137
 30
0.0
 11
4272.8420642558903637
 21
98.924709355459612
 31
0.0
  0
LINE
  5
BFFB
  8
0
 10
4272.8420642558903637
 20
98.924709355459612
 30
0.0
 11
4272.8303576950393108
 21
98.9194129880558535
 31
0.0
  0
LINE
  5
BFFC
  8
0
 10
4272.8303576950393108
 20
98.9194129880558535
 30
0.0
 11
4272.8254488701386435
 21
98.9138694022558553
 31
0.0
  0
LINE
  5
BFFD
  8
0
 10
4272.8254488701386435
 20
98.9138694022558553
 30
0.0
 11
4272.8127790059897961
 21
98.9084961364058586
 31
0.0
  0
LINE
  5
BFFE
  8
0
 10
4272.8127790059897961
 20
98.9084961364058586
 30
0.0
 11
4272.8223792165399573
 21
98.9093369446558484
 31
0.0
  0
LINE
  5
BFFF
  8
0
 10
4272.8223792165399573
 20
98.9093369446558484
 30
0.0
 11
4272.8420642557266547
 21
98.9181629315868065
 31
0.0
  0
LINE
  5
C000
  8
0
 10
4272.8420642557266547
 20
98.9181629315868065
 30
0.0
 11
4272.8519067755751166
 21
98.9258792203503674
 31
0.0
  0
LINE
  5
C001
  8
0
 10
4272.8519067755178185
 20
98.9182074541274403
 30
0.0
 11
4272.842064255846708
 21
98.9151403293116402
 31
0.0
  0
LINE
  5
C002
  8
0
 10
4272.842064255846708
 20
98.9151403293116402
 30
0.0
 11
4272.8223792166900239
 21
98.9062363907586928
 31
0.0
  0
LINE
  5
C003
  8
0
 10
4272.8223792166900239
 20
98.9062363907586928
 30
0.0
 11
4272.8125366968461094
 21
98.9002392029124167
 31
0.0
  0
LINE
  5
C004
  8
0
 10
4272.8125366968461094
 20
98.9002392029124167
 30
0.0
 11
4272.8223792165108534
 21
98.903139896936608
 31
0.0
  0
LINE
  5
C005
  8
0
 10
4272.8223792165108534
 20
98.903139896936608
 30
0.0
 11
4272.8420642549763215
 21
98.9122040377217786
 31
0.0
  0
LINE
  5
C006
  8
0
 10
4272.8420642549763215
 20
98.9122040377217786
 30
0.0
 11
4272.8519067755951255
 21
98.9182074541770362
 31
0.0
  0
LINE
  5
C007
  8
0
 10
4272.8240679258706223
 20
98.9084053295520675
 30
0.0
 11
4272.8142254062386201
 21
98.9069936386558624
 31
0.0
  0
LINE
  5
C008
  8
0
 10
4272.8142254062386201
 20
98.9069936386558624
 30
0.0
 11
4272.7945403668063591
 21
98.8993454753100565
 31
0.0
  0
LINE
  5
C009
  8
0
 10
4272.7945403668063591
 20
98.8993454753100565
 30
0.0
 11
4272.78469784706067
 21
98.8930065684462818
 31
0.0
  0
LINE
  5
C00A
  8
0
 10
4272.78469784706067
 20
98.8930065684462818
 30
0.0
 11
4272.7939819929815712
 21
98.8942066059307336
 31
0.0
  0
LINE
  5
C00B
  8
0
 10
4272.7939819929815712
 20
98.8942066059307336
 30
0.0
 11
4272.8142254062386201
 21
98.9020511529558632
 31
0.0
  0
LINE
  5
C00C
  8
0
 10
4272.8142254062386201
 20
98.9020511529558632
 30
0.0
 11
4272.8240679255559371
 21
98.9084053295067633
 31
0.0
  0
LINE
  5
C00D
  8
0
 10
4272.7962290762943667
 20
98.9020009205144675
 30
0.0
 11
4272.7863865565386732
 21
98.8986153376693267
 31
0.0
  0
LINE
  5
C00E
  8
0
 10
4272.7863865565386732
 20
98.8986153376693267
 30
0.0
 11
4272.7667015172391984
 21
98.8920753327044935
 31
0.0
  0
LINE
  5
C00F
  8
0
 10
4272.7667015172391984
 20
98.8920753327044935
 30
0.0
 11
4272.7568589974616771
 21
98.8889115435341068
 31
0.0
  0
LINE
  5
C010
  8
0
 10
4272.7568589974616771
 20
98.8889115435341068
 30
0.0
 11
4272.766701517229194
 21
98.8887416773145134
 31
0.0
  0
LINE
  5
C011
  8
0
 10
4272.766701517229194
 20
98.8887416773145134
 30
0.0
 11
4272.7863865565386732
 21
98.8953169029558694
 31
0.0
  0
LINE
  5
C012
  8
0
 10
4272.7863865565386732
 20
98.8953169029558694
 30
0.0
 11
4272.7962290762761768
 21
98.9020009205779047
 31
0.0
  0
LINE
  5
C013
  8
0
 10
4272.8240679259042736
 20
98.9033833402659752
 30
0.0
 11
4272.8142254062386201
 21
98.8987573567558655
 31
0.0
  0
LINE
  5
C014
  8
0
 10
4272.8142254062386201
 20
98.8987573567558655
 30
0.0
 11
4272.7945403668400104
 21
98.8910607694043335
 31
0.0
  0
LINE
  5
C015
  8
0
 10
4272.7945403668400104
 20
98.8910607694043335
 30
0.0
 11
4272.7846978465877328
 21
98.887549895442703
 31
0.0
  0
LINE
  5
C016
  8
0
 10
4272.7846978465877328
 20
98.887549895442703
 30
0.0
 11
4272.7945403662970421
 21
98.8922170871776842
 31
0.0
  0
LINE
  5
C017
  8
0
 10
4272.7945403662970421
 20
98.8922170871776842
 30
0.0
 11
4272.8142254062213397
 21
98.9000510919406253
 31
0.0
  0
LINE
  5
C018
  8
0
 10
4272.8142254062213397
 20
98.9000510919406253
 30
0.0
 11
4272.8240679268246822
 21
98.9033833406193708
 31
0.0
  0
LINE
  5
C019
  8
0
 10
4272.5898258996103323
 20
98.8547353577667138
 30
0.0
 11
4272.5996684192668909
 21
98.8571398733377151
 31
0.0
  0
LINE
  5
C01A
  8
0
 10
4272.5996684192668909
 20
98.8571398733377151
 30
0.0
 11
4272.6193534586263922
 21
98.8580323114097439
 31
0.0
  0
LINE
  5
C01B
  8
0
 10
4272.6193534586263922
 20
98.8580323114097439
 30
0.0
 11
4272.6291959783784478
 21
98.8565330941141553
 31
0.0
  0
LINE
  5
C01C
  8
0
 10
4272.6291959783784478
 20
98.8565330941141553
 30
0.0
 11
4272.619353458664591
 21
98.8541620946489132
 31
0.0
  0
LINE
  5
C01D
  8
0
 10
4272.619353458664591
 20
98.8541620946489132
 30
0.0
 11
4272.599668420013586
 21
98.8532566573676519
 31
0.0
  0
LINE
  5
C01E
  8
0
 10
4272.599668420013586
 20
98.8532566573676519
 30
0.0
 11
4272.5898258995794095
 21
98.8547353577459091
 31
0.0
  0
LINE
  5
C01F
  8
0
 10
4272.5898258996212462
 20
98.8637194864485309
 30
0.0
 11
4272.5996684192386965
 21
98.8641035977558857
 31
0.0
  0
LINE
  5
C020
  8
0
 10
4272.5996684192386965
 20
98.8641035977558857
 30
0.0
 11
4272.6193534586391252
 21
98.8649854450558507
 31
0.0
  0
LINE
  5
C021
  8
0
 10
4272.6193534586391252
 20
98.8649854450558507
 30
0.0
 11
4272.6291959783393395
 21
98.8654841958558706
 31
0.0
  0
LINE
  5
C022
  8
0
 10
4272.6291959783393395
 20
98.8654841958558706
 30
0.0
 11
4272.6193534585381713
 21
98.8615109050330148
 31
0.0
  0
LINE
  5
C023
  8
0
 10
4272.6193534585381713
 20
98.8615109050330148
 30
0.0
 11
4272.5996684192386965
 21
98.8606248396558556
 31
0.0
  0
LINE
  5
C024
  8
0
 10
4272.5996684192386965
 20
98.8606248396558556
 30
0.0
 11
4272.5898258996212462
 21
98.8637194864485309
 31
0.0
  0
LINE
  5
C025
  8
0
 10
4272.6176647492702614
 20
98.8595725625417145
 30
0.0
 11
4272.6275072689386434
 21
98.8632154662558804
 31
0.0
  0
LINE
  5
C026
  8
0
 10
4272.6275072689386434
 20
98.8632154662558804
 30
0.0
 11
4272.6471923083399815
 21
98.8649905067948964
 31
0.0
  0
LINE
  5
C027
  8
0
 10
4272.6471923083399815
 20
98.8649905067948964
 30
0.0
 11
4272.6570348277909943
 21
98.863142847404049
 31
0.0
  0
LINE
  5
C028
  8
0
 10
4272.6570348277909943
 20
98.863142847404049
 30
0.0
 11
4272.6471923082854119
 21
98.8595233516501253
 31
0.0
  0
LINE
  5
C029
  8
0
 10
4272.6471923082854119
 20
98.8595233516501253
 30
0.0
 11
4272.6275072690459638
 21
98.8577279476639603
 31
0.0
  0
LINE
  5
C02A
  8
0
 10
4272.6275072690459638
 20
98.8577279476639603
 30
0.0
 11
4272.6176647491620315
 21
98.8595725625653756
 31
0.0
  0
LINE
  5
C02B
  8
0
 10
4272.6570348280247345
 20
98.8569165117011437
 30
0.0
 11
4272.6471923083154252
 21
98.8570938905531591
 31
0.0
  0
LINE
  5
C02C
  8
0
 10
4272.6471923083154252
 20
98.8570938905531591
 30
0.0
 11
4272.6275072689386434
 21
98.8552818679558527
 31
0.0
  0
LINE
  5
C02D
  8
0
 10
4272.6275072689386434
 20
98.8552818679558527
 30
0.0
 11
4272.6176647489892275
 21
98.8532600777054427
 31
0.0
  0
LINE
  5
C02E
  8
0
 10
4272.6176647489892275
 20
98.8532600777054427
 30
0.0
 11
4272.6275072689386434
 21
98.8531041794519041
 31
0.0
  0
LINE
  5
C02F
  8
0
 10
4272.6275072689386434
 20
98.8531041794519041
 30
0.0
 11
4272.6471923094986778
 21
98.8549490162490656
 31
0.0
  0
LINE
  5
C030
  8
0
 10
4272.6471923094986778
 20
98.8549490162490656
 30
0.0
 11
4272.6570348282293708
 21
98.8569165117047532
 31
0.0
  0
LINE
  5
C031
  8
0
 10
4272.6455035988929012
 20
98.8580269544852968
 30
0.0
 11
4272.6553461185385459
 21
98.8613084206688342
 31
0.0
  0
LINE
  5
C032
  8
0
 10
4272.6553461185385459
 20
98.8613084206688342
 30
0.0
 11
4272.6750311579862682
 21
98.864011023593406
 31
0.0
  0
LINE
  5
C033
  8
0
 10
4272.6750311579862682
 20
98.864011023593406
 30
0.0
 11
4272.6848736776692022
 21
98.863471899679098
 31
0.0
  0
LINE
  5
C034
  8
0
 10
4272.6848736776692022
 20
98.863471899679098
 30
0.0
 11
4272.6750311584737574
 21
98.8602290338205449
 31
0.0
  0
LINE
  5
C035
  8
0
 10
4272.6750311584737574
 20
98.8602290338205449
 30
0.0
 11
4272.6553461185685592
 21
98.8574863010237834
 31
0.0
  0
LINE
  5
C036
  8
0
 10
4272.6553461185685592
 20
98.8574863010237834
 30
0.0
 11
4272.6455035989401949
 21
98.858026954482753
 31
0.0
  0
LINE
  5
C037
  8
0
 10
4272.6455035988692543
 20
98.8669504482132311
 30
0.0
 11
4272.6553461189141672
 21
98.8647634411907461
 31
0.0
  0
LINE
  5
C038
  8
0
 10
4272.6553461189141672
 20
98.8647634411907461
 30
0.0
 11
4272.6750311577397952
 21
98.8674463828518668
 31
0.0
  0
LINE
  5
C039
  8
0
 10
4272.6750311577397952
 20
98.8674463828518668
 30
0.0
 11
4272.6848736776391888
 21
98.8722934854558559
 31
0.0
  0
LINE
  5
C03A
  8
0
 10
4272.6848736776391888
 20
98.8722934854558559
 30
0.0
 11
4272.675031157939884
 21
98.8708897696239717
 31
0.0
  0
LINE
  5
C03B
  8
0
 10
4272.675031157939884
 20
98.8708897696239717
 30
0.0
 11
4272.6553461185385459
 21
98.8682221552558644
 31
0.0
  0
LINE
  5
C03C
  8
0
 10
4272.6553461185385459
 20
98.8682221552558644
 30
0.0
 11
4272.6455035988537929
 21
98.8669504482163859
 31
0.0
  0
LINE
  5
C03D
  8
0
 10
4272.6733424485119031
 20
98.8653730686622936
 30
0.0
 11
4272.6831849682193933
 21
98.8698887811765985
 31
0.0
  0
LINE
  5
C03E
  8
0
 10
4272.6831849682193933
 20
98.8698887811765985
 30
0.0
 11
4272.7028700075670713
 21
98.8734889519967339
 31
0.0
  0
LINE
  5
C03F
  8
0
 10
4272.7028700075670713
 20
98.8734889519967339
 30
0.0
 11
4272.7127125271654222
 21
98.8726156573671346
 31
0.0
  0
LINE
  5
C040
  8
0
 10
4272.7127125271654222
 20
98.8726156573671346
 30
0.0
 11
4272.7028700076643872
 21
98.8681211940719464
 31
0.0
  0
LINE
  5
C041
  8
0
 10
4272.7028700076643872
 20
98.8681211940719464
 30
0.0
 11
4272.6831849682557731
 21
98.8644785268815838
 31
0.0
  0
LINE
  5
C042
  8
0
 10
4272.6831849682557731
 20
98.8644785268815838
 30
0.0
 11
4272.6733424486346848
 21
98.8653730687144616
 31
0.0
  0
LINE
  5
C043
  8
0
 10
4272.7011812982118499
 20
98.8752671188812826
 30
0.0
 11
4272.7110238179393491
 21
98.8774538335892146
 31
0.0
  0
LINE
  5
C044
  8
0
 10
4272.7110238179393491
 20
98.8774538335892146
 30
0.0
 11
4272.7307088572388238
 21
98.8819884657113732
 31
0.0
  0
LINE
  5
C045
  8
0
 10
4272.7307088572388238
 20
98.8819884657113732
 30
0.0
 11
4272.7405513769854224
 21
98.8843422375264538
 31
0.0
  0
LINE
  5
C046
  8
0
 10
4272.7405513769854224
 20
98.8843422375264538
 30
0.0
 11
4272.7307088572852081
 21
98.8786013425008434
 31
0.0
  0
LINE
  5
C047
  8
0
 10
4272.7307088572852081
 20
98.8786013425008434
 30
0.0
 11
4272.7110238179393491
 21
98.8740437095558633
 31
0.0
  0
LINE
  5
C048
  8
0
 10
4272.7110238179393491
 20
98.8740437095558633
 30
0.0
 11
4272.7011812983191703
 21
98.8752671189048726
 31
0.0
  0
LINE
  5
C049
  8
0
 10
4272.7405513771100232
 20
98.8757582435493845
 30
0.0
 11
4272.7307088572388238
 21
98.8752498931558534
 31
0.0
  0
LINE
  5
C04A
  8
0
 10
4272.7307088572388238
 20
98.8752498931558534
 30
0.0
 11
4272.7110238178311192
 21
98.8706575476147833
 31
0.0
  0
LINE
  5
C04B
  8
0
 10
4272.7110238178311192
 20
98.8706575476147833
 30
0.0
 11
4272.7011812982091215
 21
98.8665031518884518
 31
0.0
  0
LINE
  5
C04C
  8
0
 10
4272.7011812982091215
 20
98.8665031518884518
 30
0.0
 11
4272.7110238178665895
 21
98.8669760330670897
 31
0.0
  0
LINE
  5
C04D
  8
0
 10
4272.7110238178665895
 20
98.8669760330670897
 30
0.0
 11
4272.7312547468227422
 21
98.8718502710191558
 31
0.0
  0
LINE
  5
C04E
  8
0
 10
4272.7312547468227422
 20
98.8718502710191558
 30
0.0
 11
4272.7405513771100232
 21
98.8757582435493845
 31
0.0
  0
LINE
  5
C04F
  8
0
 10
4272.7290201478699601
 20
98.8764047314162866
 30
0.0
 11
4272.7388626676820422
 21
98.8818095063573708
 31
0.0
  0
LINE
  5
C050
  8
0
 10
4272.7388626676820422
 20
98.8818095063573708
 30
0.0
 11
4272.7585477068960245
 21
98.8873423826504165
 31
0.0
  0
LINE
  5
C051
  8
0
 10
4272.7585477068960245
 20
98.8873423826504165
 30
0.0
 11
4272.7683902265780489
 21
98.887538944568945
 31
0.0
  0
LINE
  5
C052
  8
0
 10
4272.7683902265780489
 20
98.887538944568945
 30
0.0
 11
4272.7585477069051194
 21
98.8821437196760371
 31
0.0
  0
LINE
  5
C053
  8
0
 10
4272.7585477069051194
 20
98.8821437196760371
 30
0.0
 11
4272.7388626675010528
 21
98.8765422243610459
 31
0.0
  0
LINE
  5
C054
  8
0
 10
4272.7388626675010528
 20
98.8765422243610459
 30
0.0
 11
4272.7290201478435847
 21
98.876404731416855
 31
0.0
  0
LINE
  5
C055
  8
0
 10
4272.7683902263497657
 20
98.8819344280922508
 30
0.0
 11
4272.758547706895115
 21
98.8799337007506836
 31
0.0
  0
LINE
  5
C056
  8
0
 10
4272.758547706895115
 20
98.8799337007506836
 30
0.0
 11
4272.7388626675392516
 21
98.8742760637919389
 31
0.0
  0
LINE
  5
C057
  8
0
 10
4272.7388626675392516
 20
98.8742760637919389
 30
0.0
 11
4272.7290201478417657
 21
98.870509004680315
 31
0.0
  0
LINE
  5
C058
  8
0
 10
4272.7290201478417657
 20
98.870509004680315
 30
0.0
 11
4272.7388626675392516
 21
98.8728471986838429
 31
0.0
  0
LINE
  5
C059
  8
0
 10
4272.7388626675392516
 20
98.8728471986838429
 30
0.0
 11
4272.7585477069387707
 21
98.8786913040652564
 31
0.0
  0
LINE
  5
C05A
  8
0
 10
4272.7585477069387707
 20
98.8786913040652564
 30
0.0
 11
4272.7683902266262521
 21
98.8819344282063355
 31
0.0
  0
LINE
  5
C05B
  8
0
 10
4272.7568589975226132
 20
98.8804205969088201
 30
0.0
 11
4272.7667015172000902
 21
98.8854696757288139
 31
0.0
  0
LINE
  5
C05C
  8
0
 10
4272.7667015172000902
 20
98.8854696757288139
 30
0.0
 11
4272.7863865565986998
 21
98.8920981197768754
 31
0.0
  0
LINE
  5
C05D
  8
0
 10
4272.7863865565986998
 20
98.8920981197768754
 30
0.0
 11
4272.7962290762498014
 21
98.8937860261624166
 31
0.0
  0
LINE
  5
C05E
  8
0
 10
4272.7962290762498014
 20
98.8937860261624166
 30
0.0
 11
4272.7863865564349908
 21
98.8887590881913638
 31
0.0
  0
LINE
  5
C05F
  8
0
 10
4272.7863865564349908
 20
98.8887590881913638
 30
0.0
 11
4272.7667015171928142
 21
98.8820216406492989
 31
0.0
  0
LINE
  5
C060
  8
0
 10
4272.7667015171928142
 20
98.8820216406492989
 30
0.0
 11
4272.7568589975226132
 21
98.8804205969087775
 31
0.0
  0
LINE
  5
C061
  8
0
 10
4272.8125366968533854
 20
98.9487845771772356
 30
0.0
 11
4272.8223792164717452
 21
98.949300883867366
 31
0.0
  0
LINE
  5
C062
  8
0
 10
4272.8223792164717452
 20
98.949300883867366
 30
0.0
 11
4272.8400465069562415
 21
98.9389964407696993
 31
0.0
  0
LINE
  5
C063
  8
0
 10
4272.8400465069562415
 20
98.9389964407696993
 30
0.0
 11
4272.842064255839432
 21
98.9399236312558514
 31
0.0
  0
LINE
  5
C064
  8
0
 10
4272.842064255839432
 20
98.9399236312558514
 30
0.0
 11
4272.8519067755951255
 21
98.9393349481792939
 31
0.0
  0
LINE
  5
C065
  8
0
 10
4272.8519067755951255
 20
98.9393349481792939
 30
0.0
 11
4272.8420642558985492
 21
98.9299482500558156
 31
0.0
  0
LINE
  5
C066
  8
0
 10
4272.8420642558985492
 20
98.9299482500558156
 30
0.0
 11
4272.8384689292252006
 21
98.9282967732735017
 31
0.0
  0
LINE
  5
C067
  8
0
 10
4272.8384689292252006
 20
98.9282967732735017
 30
0.0
 11
4272.8223792165399573
 21
98.9376395401558568
 31
0.0
  0
LINE
  5
C068
  8
0
 10
4272.8223792165399573
 20
98.9376395401558568
 30
0.0
 11
4272.8125366968533854
 21
98.9487845771772356
 31
0.0
  0
LINE
  5
C069
  8
0
 10
4272.806501183787077
 20
98.9482088404186158
 30
0.0
 11
4272.8142254061967833
 21
98.9442028765822386
 31
0.0
  0
LINE
  5
C06A
  8
0
 10
4272.8142254061967833
 20
98.9442028765822386
 30
0.0
 11
4272.8214718144936342
 21
98.9359890512573656
 31
0.0
  0
LINE
  5
C06B
  8
0
 10
4272.8214718144936342
 20
98.9359890512573656
 30
0.0
 11
4272.8379635136270736
 21
98.9264502548955562
 31
0.0
  0
LINE
  5
C06C
  8
0
 10
4272.8379635136270736
 20
98.9264502548955562
 30
0.0
 11
4272.8384689292252006
 21
98.9282967732735017
 31
0.0
  0
ARC
  5
C06D
  8
0
 10
4272.5859985020952081
 20
99.4805611177642248
 30
0.0
 40
0.6087078243529792
 50
288.6985123462233105
 51
294.452218504287714
  0
ARC
  5
C06E
  8
0
 10
4272.5827884861819257
 20
99.4900455121387779
 30
0.0
 40
0.6187207129880244
 50
277.0708317315035742
 51
288.6985123462233105
  0
ARC
  5
C06F
  8
0
 10
4272.5813512334680127
 20
99.501631375013929
 30
0.0
 40
0.630395382743772
 50
270.0255575464237268
 51
277.0708449447457724
  0
LINE
  5
C070
  8
0
 10
4272.821471814439974
 20
98.9246416902558536
 30
0.0
 11
4272.7872939586386565
 21
98.9246416902558536
 31
0.0
  0
LINE
  5
C071
  8
0
 10
4272.7872939586386565
 20
98.9246416902558536
 30
0.0
 11
4272.7872939586386565
 21
98.9411072819457047
 31
0.0
  0
LINE
  5
C072
  8
0
 10
4272.821471814439974
 20
98.9246416902558536
 30
0.0
 11
4272.821471814439974
 21
98.9359890513182734
 31
0.0
  0
LINE
  5
C073
  8
0
 10
4272.8142254062386201
 20
98.9246416902558536
 30
0.0
 11
4272.8142254062386201
 21
98.9442028765599702
 31
0.0
  0
LINE
  5
C074
  8
0
 10
4272.7945403668400104
 20
98.9246416902558536
 30
0.0
 11
4272.7945403668400104
 21
98.9437006276271234
 31
0.0
  0
LINE
  5
C075
  8
0
 10
4272.7657941151392151
 20
98.9340111186531459
 30
0.0
 11
4272.7657941151392151
 21
98.9246416902558536
 31
0.0
  0
LINE
  5
C076
  8
0
 10
4272.7657941151392151
 20
98.9246416902558536
 30
0.0
 11
4272.7321611272227528
 21
98.9246416902558536
 31
0.0
  0
LINE
  5
C077
  8
0
 10
4272.7585477069387707
 20
98.9246416902558536
 30
0.0
 11
4272.7585477069387707
 21
98.9318169190577947
 31
0.0
  0
LINE
  5
C078
  8
0
 10
4272.7388626675392516
 20
98.9246416902558536
 30
0.0
 11
4272.7388626675392516
 21
98.926346500387325
 31
0.0
  0
LINE
  5
C079
  8
0
 10
4272.5996684192996327
 20
98.9294148674846383
 30
0.0
 11
4272.5996684192996327
 21
98.9212893478302249
 31
0.0
  0
LINE
  5
C07A
  8
0
 10
4272.6193534586400347
 20
98.930300932999728
 30
0.0
 11
4272.6193534586400347
 21
98.9221717025798171
 31
0.0
  0
LINE
  5
C07B
  8
0
 10
4272.5996684192550674
 20
98.9406930029676062
 30
0.0
 11
4272.5996963057377798
 21
98.9601333038137767
 31
0.0
  0
LINE
  5
C07C
  8
0
 10
4272.6193534586482201
 20
98.9610379120731238
 30
0.0
 11
4272.6192757113949483
 21
98.9415806714057311
 31
0.0
  0
LINE
  5
C07D
  8
0
 10
4272.6275072689386434
 20
98.9277257012653735
 30
0.0
 11
4272.627507268923182
 21
98.9455608703141252
 31
0.0
  0
LINE
  5
C07E
  8
0
 10
4272.6471923083399815
 20
98.9473562742040258
 30
0.0
 11
4272.6470099866546661
 21
98.9294813917113203
 31
0.0
  0
LINE
  5
C07F
  8
0
 10
4272.6553461186276763
 20
98.9335534691677196
 30
0.0
 11
4272.6553461186276763
 21
98.9254148915749738
 31
0.0
  0
LINE
  5
C080
  8
0
 10
4272.675031157938065
 20
98.9362364107967807
 30
0.0
 11
4272.675031157938065
 21
98.9280864102045427
 31
0.0
  0
LINE
  5
C081
  8
0
 10
4272.655346118606758
 20
98.944861550449005
 30
0.0
 11
4272.6553461185385459
 21
98.9643621183558651
 31
0.0
  0
LINE
  5
C082
  8
0
 10
4272.6750311579671688
 20
98.9671048509916602
 30
0.0
 11
4272.6747907020271668
 21
98.9475272070875036
 31
0.0
  0
LINE
  5
C083
  8
0
 10
4272.6471923083399815
 20
98.9596899149558737
 30
0.0
 11
4272.6471923083081492
 21
98.9808677280736333
 31
0.0
  0
LINE
  5
C084
  8
0
 10
4272.6275072689131775
 20
98.9790228914631882
 30
0.0
 11
4272.6275072689168155
 21
98.9578778922246016
 31
0.0
  0
LINE
  5
C085
  8
0
 10
4272.6193534587018803
 20
98.9973070627820277
 30
0.0
 11
4272.6193534586391252
 21
98.9744143638558569
 31
0.0
  0
LINE
  5
C086
  8
0
 10
4272.5996684192386965
 20
98.9734986639950307
 30
0.0
 11
4272.5996684192386965
 21
98.9963714965854535
 31
0.0
  0
LINE
  5
C087
  8
0
 10
4272.6275072689240915
 20
98.9935194035536625
 30
0.0
 11
4272.6275483981089565
 21
99.0182836277461718
 31
0.0
  0
LINE
  5
C088
  8
0
 10
4272.6471923082899593
 20
99.0201992457181177
 30
0.0
 11
4272.6471923082899593
 21
98.995389650688395
 31
0.0
  0
LINE
  5
C089
  8
0
 10
4272.6193534586391252
 20
99.0396874555776492
 30
0.0
 11
4272.6193534586391252
 21
99.0129682319558668
 31
0.0
  0
LINE
  5
C08A
  8
0
 10
4272.5996684192386965
 20
99.0120174600558585
 30
0.0
 11
4272.5996684192386965
 21
99.0387077256271056
 31
0.0
  0
LINE
  5
C08B
  8
0
 10
4272.655346118592206
 20
99.0164603077716663
 30
0.0
 11
4272.6553461185385459
 21
99.0432868704558587
 31
0.0
  0
LINE
  5
C08C
  8
0
 10
4272.6750311579216941
 20
99.0193432619188059
 30
0.0
 11
4272.6750311579216941
 21
99.045005070696817
 31
0.0
  0
LINE
  5
C08D
  8
0
 10
4272.7028700076389214
 20
99.0292474181967464
 30
0.0
 11
4272.7028700076389214
 21
99.0043533949639993
 31
0.0
  0
LINE
  5
C08E
  8
0
 10
4272.6831849682394022
 20
99.0255000764558702
 30
0.0
 11
4272.6831849682394022
 21
99.0005541711558834
 31
0.0
  0
LINE
  5
C08F
  8
0
 10
4272.6750311579226036
 20
99.00357868629564
 30
0.0
 11
4272.675031157939884
 21
98.9805509928967808
 31
0.0
  0
LINE
  5
C090
  8
0
 10
4272.655346118597663
 20
98.9777765541130066
 30
0.0
 11
4272.6553461185467313
 21
99.0007428108617944
 31
0.0
  0
LINE
  5
C091
  8
0
 10
4272.6831849681730091
 20
98.9863690841060162
 30
0.0
 11
4272.6831849681730091
 21
98.9646915452038769
 31
0.0
  0
LINE
  5
C092
  8
0
 10
4272.7028700076207315
 20
98.968368925089095
 30
0.0
 11
4272.7028700076207315
 21
98.9897071383813056
 31
0.0
  0
LINE
  5
C093
  8
0
 10
4272.7110238179393491
 20
98.9873774332547782
 30
0.0
 11
4272.7110238179393491
 21
99.0105592043092742
 31
0.0
  0
LINE
  5
C094
  8
0
 10
4272.7307088573297733
 20
99.0153876510823636
 30
0.0
 11
4272.7307088572388238
 21
98.9920968648558528
 31
0.0
  0
LINE
  5
C095
  8
0
 10
4272.7388626675128762
 20
98.9983728353420531
 30
0.0
 11
4272.7388626675392516
 21
98.9768720882558739
 31
0.0
  0
LINE
  5
C096
  8
0
 10
4272.7585477069333137
 20
98.9825297250787344
 30
0.0
 11
4272.7585477069387707
 21
99.0041417048321648
 31
0.0
  0
LINE
  5
C097
  8
0
 10
4272.7863865565386732
 20
98.9956349054558586
 30
0.0
 11
4272.7863865566132517
 21
98.975651249384839
 31
0.0
  0
LINE
  5
C098
  8
0
 10
4272.766701517310139
 20
98.9684894390593541
 30
0.0
 11
4272.766701517310139
 21
98.9888974579601921
 31
0.0
  0
LINE
  5
C099
  8
0
 10
4272.7585477069387707
 20
98.9699766422851042
 30
0.0
 11
4272.7585477069233093
 21
98.951852617532964
 31
0.0
  0
LINE
  5
C09A
  8
0
 10
4272.7388626675146952
 20
98.9463197413425917
 30
0.0
 11
4272.7388626675146952
 21
98.9643751468794335
 31
0.0
  0
LINE
  5
C09B
  8
0
 10
4272.7307088572451903
 20
98.9588030228022149
 30
0.0
 11
4272.7307088572770226
 21
98.9785151402461736
 31
0.0
  0
LINE
  5
C09C
  8
0
 10
4272.7110238179393491
 20
98.9738518503558566
 30
0.0
 11
4272.7110238179393491
 21
98.9542106772684349
 31
0.0
  0
LINE
  5
C09D
  8
0
 10
4272.7028700076389214
 20
98.9559541166459411
 30
0.0
 11
4272.7028700076298264
 21
98.9379991868981676
 31
0.0
  0
LINE
  5
C09E
  8
0
 10
4272.6831849682321263
 20
98.9343990161985545
 30
0.0
 11
4272.6831849682394022
 21
98.9523114495558644
 31
0.0
  0
LINE
  5
C09F
  8
0
 10
4272.7945403668400104
 20
98.9638557102558849
 30
0.0
 11
4272.794540366813635
 21
98.9824405348383891
 31
0.0
  0
LINE
  5
C0A0
  8
0
 10
4272.8142254062386201
 20
98.9898840755558638
 30
0.0
 11
4272.8142254062931897
 21
98.9715038736914039
 31
0.0
  0
LINE
  5
C0A1
  8
0
 10
4272.8223792164499173
 20
98.9781269725168045
 30
0.0
 11
4272.8223792164499173
 21
98.9692400979208173
 31
0.0
  0
LINE
  5
C0A2
  8
0
 10
4272.8303576950393108
 20
98.9648803283558607
 30
0.0
 11
4272.8303576950393108
 21
98.981704204300371
 31
0.0
  0
LINE
  5
C0A3
  8
0
 10
4272.8420642558858162
 20
98.9701766957581555
 30
0.0
 11
4272.8420642558958207
 21
98.9869529595746656
 31
0.0
  0
LINE
  5
C0A4
  8
0
 10
4272.8223792165699706
 20
98.989789520368447
 30
0.0
 11
4272.8223792165399573
 21
99.0100157142558857
 31
0.0
  0
LINE
  5
C0A5
  8
0
 10
4272.8420642558567124
 20
98.9986934589118732
 30
0.0
 11
4272.8420642558567124
 21
99.0027469118591625
 31
0.0
  0
LINE
  5
C0A6
  8
0
 10
4272.8142254061913263
 20
99.0018234428555957
 30
0.0
 11
4272.8142254061913263
 21
99.0148996367892948
 31
0.0
  0
LINE
  5
C0A7
  8
0
 10
4272.7945403668400104
 20
99.0166755583607738
 30
0.0
 11
4272.7945403668882136
 21
98.994661632530125
 31
0.0
  0
LINE
  5
C0A8
  8
0
 10
4272.7863865566041568
 20
99.0094318983947943
 30
0.0
 11
4272.7863865566041568
 21
99.0238377761948527
 31
0.0
  0
LINE
  5
C0A9
  8
0
 10
4272.7667015172391984
 20
99.0026079616558548
 30
0.0
 11
4272.7667015172119136
 21
99.0261492120660876
 31
0.0
  0
LINE
  5
C0AA
  8
0
 10
4272.7585477068769251
 20
99.0190006493294845
 30
0.0
 11
4272.7585477068769251
 21
99.0312366249895462
 31
0.0
  0
LINE
  5
C0AB
  8
0
 10
4272.7388626674892294
 20
99.0131452900307352
 30
0.0
 11
4272.7388626674892294
 21
99.0355731568443645
 31
0.0
  0
LINE
  5
C0AC
  8
0
 10
4272.7307088572388238
 20
99.0313541750558812
 30
0.0
 11
4272.7307088572388238
 21
99.037157140980014
 31
0.0
  0
LINE
  5
C0AD
  8
0
 10
4272.7110238180321176
 20
99.0264419813443055
 30
0.0
 11
4272.7110238180321176
 21
99.0404771517850548
 31
0.0
  0
LINE
  5
C0AE
  8
0
 10
4272.8502180662526371
 20
98.9618960952912516
 30
0.0
 11
4272.8502180660070735
 21
98.9769700910726158
 31
0.0
  0
LINE
  5
C0AF
  8
0
 10
4272.8687192010893341
 20
98.986331108807434
 30
0.0
 11
4272.8694754108946654
 21
98.9715977662413025
 31
0.0
  0
LINE
  5
C0B0
  8
0
 10
4272.8699031055393789
 20
98.9633344759558753
 30
0.0
 11
4272.8699031053438375
 21
98.9516731319783105
 31
0.0
  0
LINE
  5
C0B1
  8
0
 10
4272.8502180661271268
 20
98.9417780195004752
 30
0.0
 11
4272.8502180659279475
 21
98.9534393632050069
 31
0.0
  0
LINE
  5
C0B2
  8
0
 10
4272.8699031057985849
 20
98.9372106731234737
 30
0.0
 11
4272.8699031054793522
 21
98.9453887892811963
 31
0.0
  0
LINE
  5
C0B3
  8
0
 10
4272.8502180662362662
 20
98.9354716496826825
 30
0.0
 11
4272.850867575668417
 21
98.9272744220094467
 31
0.0
  0
LINE
  5
C0B4
  8
0
 10
4272.8400465069562415
 20
98.9389964407696993
 30
0.0
 11
4272.8420642558985492
 21
98.9299482500558156
 31
0.0
  0
LINE
  5
C0B5
  8
0
 10
4272.8223792164717452
 20
98.949300883867366
 30
0.0
 11
4272.8223792165399573
 21
98.9376395401558568
 31
0.0
  0
LINE
  5
C0B6
  8
0
 10
4272.8420642558903637
 20
98.924709355459612
 30
0.0
 11
4272.8420642557266547
 21
98.9181629315868065
 31
0.0
  0
LINE
  5
C0B7
  8
0
 10
4272.8254488701386435
 20
98.9138694022558553
 30
0.0
 11
4272.8223792165399573
 21
98.9093369446558484
 31
0.0
  0
LINE
  5
C0B8
  8
0
 10
4272.842064255846708
 20
98.9151403293116402
 30
0.0
 11
4272.8420642558457985
 21
98.9122040377217786
 31
0.0
  0
LINE
  5
C0B9
  8
0
 10
4272.8223792165108534
 20
98.903139896936608
 30
0.0
 11
4272.8223792166900239
 21
98.9062363907586928
 31
0.0
  0
LINE
  5
C0BA
  8
0
 10
4272.8142254062386201
 20
98.9069936386558624
 30
0.0
 11
4272.8142254062386201
 21
98.9020511529558632
 31
0.0
  0
LINE
  5
C0BB
  8
0
 10
4272.8142254062213397
 20
98.9000510919406253
 30
0.0
 11
4272.8142254062386201
 21
98.8987573567558655
 31
0.0
  0
LINE
  5
C0BC
  8
0
 10
4272.7959456038588542
 20
98.8927763259597441
 30
0.0
 11
4272.7957686833724438
 21
98.891541024754531
 31
0.0
  0
LINE
  5
C0BD
  8
0
 10
4272.7939819929815712
 20
98.8942066059307336
 30
0.0
 11
4272.7945403668063591
 21
98.8993454753100565
 31
0.0
  0
LINE
  5
C0BE
  8
0
 10
4272.7863865565386732
 20
98.8953169029558694
 30
0.0
 11
4272.7863865565386732
 21
98.8986153376693267
 31
0.0
  0
LINE
  5
C0BF
  8
0
 10
4272.766701517229194
 20
98.8887416773145134
 30
0.0
 11
4272.7667015172391984
 21
98.8920753327044935
 31
0.0
  0
LINE
  5
C0C0
  8
0
 10
4272.7863865565986998
 20
98.8920981197768754
 30
0.0
 11
4272.7859531958629304
 21
98.8886107651890995
 31
0.0
  0
LINE
  5
C0C1
  8
0
 10
4272.7667015171928142
 20
98.8820216406492989
 30
0.0
 11
4272.7667015172000902
 21
98.8854696757288139
 31
0.0
  0
LINE
  5
C0C2
  8
0
 10
4272.7585477069051194
 20
98.8821437196760371
 30
0.0
 11
4272.7585477068960245
 21
98.8873423826504165
 31
0.0
  0
LINE
  5
C0C3
  8
0
 10
4272.758547706895115
 20
98.8799337007506836
 30
0.0
 11
4272.758322840451001
 21
98.8786245455777362
 31
0.0
  0
LINE
  5
C0C4
  8
0
 10
4272.7388626675010528
 20
98.8765422243610459
 30
0.0
 11
4272.7388626676820422
 21
98.8818095063573708
 31
0.0
  0
LINE
  5
C0C5
  8
0
 10
4272.7307088572852081
 20
98.8786013425008434
 30
0.0
 11
4272.7307088572388238
 21
98.8819884657113732
 31
0.0
  0
LINE
  5
C0C6
  8
0
 10
4272.7312547468227422
 20
98.8718502710191558
 30
0.0
 11
4272.7310781766018408
 21
98.8752689679096193
 31
0.0
  0
LINE
  5
C0C7
  8
0
 10
4272.7388626675392516
 20
98.8728471986838429
 30
0.0
 11
4272.7388626675392516
 21
98.8742760637919389
 31
0.0
  0
LINE
  5
C0C8
  8
0
 10
4272.7110238178665895
 20
98.8669760330670897
 30
0.0
 11
4272.7110238178311192
 21
98.8706575476147833
 31
0.0
  0
LINE
  5
C0C9
  8
0
 10
4272.7110238179393491
 20
98.8740437095558633
 30
0.0
 11
4272.7110238179393491
 21
98.8774538335892146
 31
0.0
  0
LINE
  5
C0CA
  8
0
 10
4272.7028700075670713
 20
98.8734889519967339
 30
0.0
 11
4272.7028700076643872
 21
98.8681211940719464
 31
0.0
  0
LINE
  5
C0CB
  8
0
 10
4272.6831849682557731
 20
98.8644785268815838
 30
0.0
 11
4272.6831849682193933
 21
98.8698887811765985
 31
0.0
  0
LINE
  5
C0CC
  8
0
 10
4272.6750311577397952
 20
98.8674463828518668
 30
0.0
 11
4272.6759385795985509
 21
98.8710191838581807
 31
0.0
  0
LINE
  5
C0CD
  8
0
 10
4272.6553461189141672
 20
98.8647634411907461
 30
0.0
 11
4272.6553461185385459
 21
98.8682221552558644
 31
0.0
  0
LINE
  5
C0CE
  8
0
 10
4272.6750311584737574
 20
98.8602290338205449
 30
0.0
 11
4272.6752376972453931
 21
98.8639997104076258
 31
0.0
  0
LINE
  5
C0CF
  8
0
 10
4272.6553461185685592
 20
98.8574863010237834
 30
0.0
 11
4272.6548310793032215
 21
98.8612377097845041
 31
0.0
  0
LINE
  5
C0D0
  8
0
 10
4272.6471923082854119
 20
98.8595233516501253
 30
0.0
 11
4272.6481836791363094
 21
98.8648044044896039
 31
0.0
  0
LINE
  5
C0D1
  8
0
 10
4272.6283619202404225
 20
98.8578058974278662
 30
0.0
 11
4272.627871169404898
 21
98.8632482799101666
 31
0.0
  0
LINE
  5
C0D2
  8
0
 10
4272.6471923094986778
 20
98.8549490162490656
 30
0.0
 11
4272.6472309512118954
 21
98.8570931941427773
 31
0.0
  0
LINE
  5
C0D3
  8
0
 10
4272.6275072689386434
 20
98.8552818679558527
 30
0.0
 11
4272.6274727846121095
 21
98.8531047256581843
 31
0.0
  0
LINE
  5
C0D4
  8
0
 10
4272.619353458664591
 20
98.8541620946489132
 30
0.0
 11
4272.6193642827720396
 21
98.8580328021316177
 31
0.0
  0
LINE
  5
C0D5
  8
0
 10
4272.6193534585381713
 20
98.8615109050330148
 30
0.0
 11
4272.6193534585381713
 21
98.8649854450513317
 31
0.0
  0
LINE
  5
C0D6
  8
0
 10
4272.5996684192386965
 20
98.8606248396558556
 30
0.0
 11
4272.5996684192386965
 21
98.8641035977558857
 31
0.0
  0
LINE
  5
C0D7
  8
0
 10
4272.599668420013586
 20
98.8532566573676519
 30
0.0
 11
4272.599668420013586
 21
98.8571398733377151
 31
0.0
  0
LINE
  5
C0D8
  8
0
 10
4272.6275072689386434
 20
99.0352012816964447
 30
0.0
 11
4272.6275072689386434
 21
99.0487226459403587
 31
0.0
  0
LINE
  5
C0D9
  8
0
 10
4272.6471923083399815
 20
99.0371572631655113
 30
0.0
 11
4272.6471923083399815
 21
99.0475115523860836
 31
0.0
  0
ARC
  5
C0DA
  8
0
 10
4272.2175322435168709
 20
99.0557330831030356
 30
0.0
 40
0.1882187359565907
 50
191.3752287824783878
 51
226.9425051190771967
  0
ARC
  5
C0DB
  8
0
 10
4272.266481306546666
 20
99.108119035217868
 30
0.0
 40
0.2599146127600796
 50
226.9425051190771967
 51
254.0814715543895943
  0
ARC
  5
C0DC
  8
0
 10
4272.3854816531802499
 20
99.5253608445058973
 30
0.0
 40
0.6937945614976817
 50
254.0814715543895943
 51
263.6796298643932914
  0
ARC
  5
C0DD
  8
0
 10
4272.3958303488689126
 20
99.6187935953971362
 30
0.0
 40
0.7877986807773817
 50
263.6796298643932914
 51
270.2315184480771109
  0
ARC
  5
C0DE
  8
0
 10
4272.4083864657477534
 20
96.5114447221026523
 30
0.0
 40
2.3195755606739921
 50
88.8321033965926574
 51
90.231518448077054
  0
ARC
  5
C0DF
  8
0
 10
4272.4737583673968402
 20
99.7180773045182463
 30
0.0
 40
0.8877233035004145
 50
268.8321033965925722
 51
271.9738660675488973
  0
ARC
  5
C0E0
  8
0
 10
4272.4200804538177181
 20
98.6211306589939625
 30
0.0
 40
0.5473024516764765
 50
99.1653846005890216
 51
119.3414900879791958
  0
ARC
  5
C0E1
  8
0
 10
4272.6956930286496572
 20
96.9129087908345639
 30
0.0
 40
2.277615788116881
 50
94.8446212240986455
 51
99.1653846005890216
  0
ARC
  5
C0E2
  8
0
 10
4272.5612485615420155
 20
98.4991492241909441
 30
0.0
 40
0.6856880174091633
 50
88.2964822551045359
 51
94.8446212240986455
  0
ARC
  5
C0E3
  8
0
 10
4272.2369159295376448
 20
98.9541934526424143
 30
0.0
 40
0.1672510109891614
 50
120.5536644804255957
 51
146.0706440088200111
  0
ARC
  5
C0E4
  8
0
 10
4272.142171746000713
 20
99.0179313339750138
 30
0.0
 40
0.0530626673510727
 50
146.0723869513201976
 51
192.617075288372007
  0
ARC
  5
C0E5
  8
0
 10
4272.1754941239923937
 20
99.0253901955394866
 30
0.0
 40
0.0872096363358456
 50
192.617075288372007
 51
228.6797900424718932
  0
ARC
  5
C0E6
  8
0
 10
4272.2957406414789148
 20
99.1621666031915368
 30
0.0
 40
0.269327759151841
 50
228.6797900424718932
 51
244.1168772216998093
  0
ARC
  5
C0E7
  8
0
 10
4272.3919465385042713
 20
99.3604434474333544
 30
0.0
 40
0.4897121542092456
 50
244.1168772216998093
 51
254.2887271906371041
  0
ARC
  5
C0E8
  8
0
 10
4272.7162703008189055
 20
100.5133911607336046
 30
0.0
 40
1.6874075797691159
 50
254.2887271906371041
 51
256.0300548402473169
  0
ARC
  5
C0E9
  8
0
 10
4272.1918946701880486
 20
99.0502389674529127
 30
0.0
 40
0.0624691301768464
 50
129.8153858934493883
 51
211.5421678659473059
  0
ARC
  5
C0EA
  8
0
 10
4272.2344814959797077
 20
99.0764107299446124
 30
0.0
 40
0.1124551130658717
 50
211.5557982125498029
 51
241.1488464616325871
  0
ARC
  5
C0EB
  8
0
 10
4273.1123210315081451
 20
100.6698234922181996
 30
0.0
 40
1.931676507265166
 50
241.1488464616325871
 51
242.8760210092160889
  0
ARC
  5
C0EC
  8
0
 10
4272.5894345714777955
 20
98.0134616902061424
 30
0.0
 40
1.0432460783486071
 50
90.4285028913153468
 51
98.1216358355753471
  0
ARC
  5
C0ED
  8
0
 10
4272.5762557510652186
 20
98.2188566969158217
 30
0.0
 40
0.8309158863526773
 50
92.7884747584544272
 51
98.578267382640874
  0
ARC
  5
C0EE
  8
0
 10
4272.5789141642517279
 20
98.1941333981804405
 30
0.0
 40
0.855740472780765
 50
89.8179992578961759
 51
92.8857267468813745
  0
ARC
  5
C0EF
  8
0
 10
4272.7550268695749764
 20
98.8789365317820597
 30
0.0
 40
0.2513296687198882
 50
54.5791227690220708
 51
78.9799877534438508
  0
ARC
  5
C0F0
  8
0
 10
4272.8460422594707779
 20
99.0014203263462065
 30
0.0
 40
0.0988162662904574
 50
34.034696119445492
 51
56.4238689728543292
  0
ARC
  5
C0F1
  8
0
 10
4272.8888816477847286
 20
99.0303536184976991
 30
0.0
 40
0.0471215026704835
 50
0.8019136007654099
 51
34.034696119445492
  0
LINE
  5
C0F2
  8
0
 10
4272.9359985352393778
 20
99.0310131110558842
 30
0.0
 11
4272.9359985352393778
 21
98.9760452940554103
 31
0.0
  0
ARC
  5
C0F3
  8
0
 10
4272.6117338470867253
 20
99.5198144323166787
 30
0.0
 40
0.6903826697652951
 50
275.5767975743580109
 51
286.5146296873506913
  0
ARC
  5
C0F4
  8
0
 10
4272.5814012571399871
 20
99.7856805822956261
 30
0.0
 40
0.9579480350705278
 50
270.5010496373101887
 51
275.8371067206339262
  0
ARC
  5
C0F5
  8
0
 10
4272.5789962549379197
 20
99.8039958245785215
 30
0.0
 40
0.9695551882838294
 50
270.6371814778156022
 51
273.3986897804120986
  0
ARC
  5
C0F6
  8
0
 10
4272.5912542906653471
 20
99.6191001475739313
 30
0.0
 40
0.7842590456949388
 50
273.305526839597519
 51
280.5123830757555083
  0
ARC
  5
C0F7
  8
0
 10
4272.639369416201589
 20
99.3621867968154078
 30
0.0
 40
0.5228795278924335
 50
280.4648042300088946
 51
288.0029525688358945
  0
ARC
  5
C0F8
  8
0
 10
4272.7469090785825756
 20
99.0534390772419755
 30
0.0
 40
0.1961307580675409
 50
286.0011123658421752
 51
316.0232431250984746
  0
ARC
  5
C0F9
  8
0
 10
4272.8529321124724447
 20
98.9432770981509861
 30
0.0
 40
0.0437090144262706
 50
323.458355431679081
 51
358.6203822192932762
  0
ARC
  5
C0FA
  8
0
 10
4272.868868424363427
 20
98.9417466258803984
 30
0.0
 40
0.0472064351650453
 50
350.2697709366325967
 51
45.7966367353985007
  0
ARC
  5
C0FB
  8
0
 10
4272.5857054014877576
 20
97.2509094606418643
 30
0.0
 40
1.5768649757747939
 50
89.8520073973694338
 51
90.1479926025263438
  0
ARC
  5
C0FC
  8
0
 10
4272.5854743610343576
 20
97.7531667996960181
 30
0.0
 40
1.0813423562805971
 50
89.7719479081515033
 51
90.2035681956839284
  0
ARC
  5
C0FD
  8
0
 10
4272.5881854521830974
 20
98.2708173761791386
 30
0.0
 40
0.8814094626052781
 50
75.8893448802719064
 51
90.4259813456141899
  0
ARC
  5
C0FE
  8
0
 10
4272.8579286971726106
 20
98.9420513491362641
 30
0.0
 40
0.0387001476773554
 50
0.2567011380610857
 51
23.0503137260185085
  0
ARC
  5
C0FF
  8
0
 10
4272.7415340323859709
 20
99.0985242811748464
 30
0.0
 40
0.2496189575232255
 50
285.4381582673996718
 51
306.975564795857224
  0
ARC
  5
C100
  8
0
 10
4272.8521471201593158
 20
98.9516054332546702
 30
0.0
 40
0.0657157137751416
 50
306.9755647958576787
 51
344.2506918970203742
  0
ARC
  5
C101
  8
0
 10
4272.7436816181889299
 20
98.7966712256520339
 30
0.0
 40
0.2387602814249808
 50
48.5345556183009208
 51
74.865257744161184
  0
ARC
  5
C102
  8
0
 10
4272.5391861185662492
 20
98.0406003244113009
 30
0.0
 40
1.0219981872167481
 50
74.865257744161184
 51
79.7362328598489256
  0
ARC
  5
C103
  8
0
 10
4272.8563070429354411
 20
98.9764117647251283
 30
0.0
 40
0.0796923281414272
 50
330.9415612274273144
 51
359.7375837608946085
  0
ARC
  5
C104
  8
0
 10
4272.8221724357899802
 20
98.995378425130454
 30
0.0
 40
0.118742367986182
 50
305.7351939602763196
 51
330.9415612274273144
  0
ARC
  5
C105
  8
0
 10
4272.743255196462087
 20
98.6211306589939625
 30
0.0
 40
0.5473024516764765
 50
60.6585099120208113
 51
80.8346153994109926
  0
ARC
  5
C106
  8
0
 10
4272.4676426216292384
 20
96.9129087908345639
 30
0.0
 40
2.277615788116881
 50
80.8346153994109926
 51
85.1553787759013687
  0
ARC
  5
C107
  8
0
 10
4272.6020509966338068
 20
98.4985050507862638
 30
0.0
 40
0.6863329377990497
 50
85.1569181476008055
 51
91.7048145102148737
  0
ARC
  5
C108
  8
0
 10
4272.9264197207412508
 20
98.9541934526424143
 30
0.0
 40
0.1672510109891614
 50
33.9293559911799676
 51
59.4463355195743688
  0
ARC
  5
C109
  8
0
 10
4273.0211639042790921
 20
99.0179313339750138
 30
0.0
 40
0.0530626673510727
 50
347.382924711627993
 51
33.9276130486798024
  0
ARC
  5
C10A
  8
0
 10
4272.9878415262874114
 20
99.0253901955394866
 30
0.0
 40
0.0872096363358456
 50
311.3202099575281068
 51
347.382924711627993
  0
ARC
  5
C10B
  8
0
 10
4272.8675950087999809
 20
99.1621666031915368
 30
0.0
 40
0.269327759151841
 50
295.8831227783002191
 51
311.3202099575281068
  0
ARC
  5
C10C
  8
0
 10
4272.7713891117764433
 20
99.3604434474333544
 30
0.0
 40
0.4897121542092456
 50
285.7112728093629244
 51
295.8831227783002191
  0
ARC
  5
C10D
  8
0
 10
4272.4470653494590806
 20
100.5133911607336046
 30
0.0
 40
1.6874075797691159
 50
283.9699451597526831
 51
285.7112728093629244
  0
ARC
  5
C10E
  8
0
 10
4272.971440980090847
 20
99.0502389674529127
 30
0.0
 40
0.0624691301768464
 50
328.4578321340526941
 51
50.1846141065505904
  0
ARC
  5
C10F
  8
0
 10
4272.9288541542991879
 20
99.0764107299446124
 30
0.0
 40
0.1124551130658717
 50
298.8511535383674982
 51
328.4442017874500834
  0
ARC
  5
C110
  8
0
 10
4272.05101461877166
 20
100.6698234922181996
 30
0.0
 40
1.931676507265166
 50
297.1239789907838258
 51
298.8511535383674982
  0
ARC
  5
C111
  8
0
 10
4272.5740216699014127
 20
98.0150230130062852
 30
0.0
 40
1.0416833834211401
 50
81.8727981636954354
 51
89.5813811534341227
  0
ARC
  5
C112
  8
0
 10
4271.5657885249547689
 20
99.4065794386795858
 30
0.0
 40
1.6119225279196789
 50
346.0728868166203824
 51
0.9426337384200497
  0
ARC
  5
C113
  8
0
 10
4259.5892785838159398
 20
100.1042602972199944
 30
0.0
 40
13.6047795925331698
 50
357.1722879029496767
 51
358.4882574792554806
  0
ARC
  5
C114
  8
0
 10
4272.9458034039616905
 20
99.0557330831030356
 30
0.0
 40
0.1882187359565907
 50
313.057494880922718
 51
348.6247712175215838
  0
ARC
  5
C115
  8
0
 10
4272.8968543409300764
 20
99.108119035217868
 30
0.0
 40
0.2599146127600796
 50
285.9185284456103773
 51
313.057494880922718
  0
ARC
  5
C116
  8
0
 10
4272.7685165684915773
 20
99.5776049961127825
 30
0.0
 40
0.7466154328727025
 50
269.678104441075277
 51
285.5079888025778132
  0
ARC
  5
C117
  8
0
 10
4272.7549491817298986
 20
96.5114447221026523
 30
0.0
 40
2.3195755606739921
 50
89.7684815519229318
 51
91.1678966034073284
  0
ARC
  5
C118
  8
0
 10
4272.6895772800826308
 20
99.7180773045182463
 30
0.0
 40
0.8877233035004145
 50
268.0261339324509891
 51
271.1678966034074278
  0
LINE
  5
C119
  8
0
 10
4272.5619827843256644
 20
99.0478237724317268
 30
0.0
 11
4272.5718253040404306
 21
99.033497903155876
 31
0.0
  0
LINE
  5
C11A
  8
0
 10
4272.5718253040404306
 20
99.033497903155876
 30
0.0
 11
4272.5915103435218043
 21
99.0334979032034823
 31
0.0
  0
LINE
  5
C11B
  8
0
 10
4272.5915103435218043
 20
99.0334979032034823
 30
0.0
 11
4272.6013528630901419
 21
99.047823772418738
 31
0.0
  0
LINE
  5
C11C
  8
0
 10
4272.6013528630901419
 20
99.047823772418738
 30
0.0
 11
4272.6000510065523486
 21
99.0496858240177147
 31
0.0
  0
LINE
  5
C11D
  8
0
 10
4272.5915103435218043
 20
99.0334979032034965
 30
0.0
 11
4272.5915103435218043
 21
99.049817004284634
 31
0.0
  0
LINE
  5
C11E
  8
0
 10
4272.5718253066843317
 20
99.033497903155876
 30
0.0
 11
4272.5718253066843317
 21
99.0498445626002422
 31
0.0
  0
LINE
  5
C11F
  8
0
 10
4272.5619827843256644
 20
99.0478237724316983
 30
0.0
 11
4272.5633167188143489
 21
99.0497317274388536
 31
0.0
  0
ENDSEC
  0
EOF
