  0
SECTION
  2
HEADER
  9
$ACADVER
  1
AC1009
  9
$INSBASE
 10
2817.0453318895770281
 20
147.8907812992912909
 30
0.0
  9
$EXTMIN
 10
2807.6042989726461201
 20
140.8376389863047109
 30
0.0
  9
$EXTMAX
 10
2819.0073475409772072
 20
151.0725497426118125
 30
0.0
  9
$LIMMIN
 10
0.0
 20
0.0
  9
$LIMMAX
 10
11.6929133858000007
 20
8.2677165353999982
  9
$ORTHOMODE
 70
     0
  9
$REGENMODE
 70
     1
  9
$FILLMODE
 70
     1
  9
$QTEXTMODE
 70
     0
  9
$MIRRTEXT
 70
     0
  9
$DRAGMODE
 70
     2
  9
$LTSCALE
 40
0.6431102362
  9
$OSMODE
 70
  4095
  9
$ATTMODE
 70
     1
  9
$TEXTSIZE
 40
0.2
  9
$TRACEWID
 40
0.05
  9
$TEXTSTYLE
  7
STANDARD
  9
$CLAYER
  8
0
  9
$CELTYPE
  6
BYLAYER
  9
$CECOLOR
 62
   256
  9
$DIMSCALE
 40
1.0
  9
$DIMASZ
 40
0.1875
  9
$DIMEXO
 40
0.0625
  9
$DIMDLI
 40
0.4443307087
  9
$DIMRND
 40
0.0
  9
$DIMDLE
 40
0.0
  9
$DIMEXE
 40
0.125
  9
$DIMTP
 40
0.01
  9
$DIMTM
 40
0.01
  9
$DIMTXT
 40
2.0
  9
$DIMCEN
 40
0.1052362205
  9
$DIMTSZ
 40
0.0
  9
$DIMTOL
 70
     1
  9
$DIMLIM
 70
     0
  9
$DIMTIH
 70
     1
  9
$DIMTOH
 70
     1
  9
$DIMSE1
 70
     0
  9
$DIMSE2
 70
     0
  9
$DIMTAD
 70
     0
  9
$DIMZIN
 70
     0
  9
$DIMBLK
  1

  9
$DIMASO
 70
     1
  9
$DIMSHO
 70
     1
  9
$DIMPOST
  1
\X
  9
$DIMAPOST
  1

  9
$DIMALT
 70
     1
  9
$DIMALTD
 70
     2
  9
$DIMALTF
 40
25.3999999999999986
  9
$DIMLFAC
 40
1.0
  9
$DIMTOFL
 70
     0
  9
$DIMTVP
 40
0.0
  9
$DIMTIX
 70
     0
  9
$DIMSOXD
 70
     0
  9
$DIMSAH
 70
     0
  9
$DIMBLK1
  1

  9
$DIMBLK2
  1

  9
$DIMSTYLE
  2
STANDARD
  9
$DIMCLRD
 70
     0
  9
$DIMCLRE
 70
     0
  9
$DIMCLRT
 70
     0
  9
$DIMTFAC
 40
1.0
  9
$DIMGAP
 40
0.09
  9
$LUNITS
 70
     2
  9
$LUPREC
 70
     4
  9
$SKETCHINC
 40
0.1
  9
$FILLETRAD
 40
0.0
  9
$AUNITS
 70
     0
  9
$AUPREC
 70
     0
  9
$MENU
  1
.
  9
$ELEVATION
 40
0.0
  9
$PELEVATION
 40
0.0
  9
$THICKNESS
 40
0.0
  9
$LIMCHECK
 70
     0
  9
$BLIPMODE
 70
     0
  9
$CHAMFERA
 40
0.0
  9
$CHAMFERB
 40
0.0
  9
$SKPOLY
 70
     0
  9
$TDCREATE
 40
2458060.468368056230247
  9
$TDUPDATE
 40
2459934.475208334159106
  9
$TDINDWG
 40
0.7031320602
  9
$TDUSRTIMER
 40
0.7031320602
  9
$USRTIMER
 70
     1
  9
$ANGBASE
 50
0.0
  9
$ANGDIR
 70
     0
  9
$PDMODE
 70
     0
  9
$PDSIZE
 40
0.3125
  9
$PLINEWID
 40
0.0
  9
$COORDS
 70
     1
  9
$SPLFRAME
 70
     0
  9
$SPLINETYPE
 70
     6
  9
$SPLINESEGS
 70
     8
  9
$ATTDIA
 70
     1
  9
$ATTREQ
 70
     1
  9
$HANDLING
 70
     1
  9
$HANDSEED
  5
34FA3
  9
$SURFTAB1
 70
     6
  9
$SURFTAB2
 70
     6
  9
$SURFTYPE
 70
     6
  9
$SURFU
 70
     6
  9
$SURFV
 70
     6
  9
$UCSNAME
  2

  9
$UCSORG
 10
0.0
 20
0.0
 30
0.0
  9
$UCSXDIR
 10
1.0
 20
0.0
 30
0.0
  9
$UCSYDIR
 10
0.0
 20
1.0
 30
0.0
  9
$PUCSNAME
  2

  9
$PUCSORG
 10
0.0
 20
0.0
 30
0.0
  9
$PUCSXDIR
 10
1.0
 20
0.0
 30
0.0
  9
$PUCSYDIR
 10
0.0
 20
1.0
 30
0.0
  9
$USERI1
 70
     0
  9
$USERI2
 70
     0
  9
$USERI3
 70
     0
  9
$USERI4
 70
     0
  9
$USERI5
 70
     0
  9
$USERR1
 40
0.0
  9
$USERR2
 40
0.0
  9
$USERR3
 40
0.0
  9
$USERR4
 40
0.0
  9
$USERR5
 40
0.0
  9
$WORLDVIEW
 70
     1
  9
$SHADEDGE
 70
     3
  9
$SHADEDIF
 70
    70
  9
$TILEMODE
 70
     1
  9
$MAXACTVP
 70
    64
  9
$PLIMCHECK
 70
     0
  9
$PEXTMIN
 10
1.0000000000000000E+20
 20
1.0000000000000000E+20
 30
1.0000000000000000E+20
  9
$PEXTMAX
 10
-1.0000000000000000E+20
 20
-1.0000000000000000E+20
 30
-1.0000000000000000E+20
  9
$PLIMMIN
 10
0.0
 20
0.0
  9
$PLIMMAX
 10
12.0
 20
9.0
  9
$UNITMODE
 70
     0
  9
$VISRETAIN
 70
     1
  9
$PLINEGEN
 70
     0
  9
$PSLTSCALE
 70
     1
  0
ENDSEC
  0
SECTION
  2
TABLES
  0
TABLE
  2
VPORT
 70
     1
  0
VPORT
  2
*ACTIVE
 70
     0
 10
0.0
 20
0.0
 11
1.0
 21
1.0
 12
-487.0070463412560002
 22
-51.1788336074621384
 13
0.0
 23
0.0
 14
1.0
 24
1.0
 15
0.0
 25
0.0
 16
0.0
 26
0.0
 36
96.5995694866707311
 17
3303.693115234375
 27
195.2615115758877096
 37
0.0
 40
16.25390898602625
 41
2.8368263473053892
 42
50.0
 43
0.0
 44
0.0
 50
0.0
 51
0.0
 71
     0
 72
   100
 73
     1
 74
     1
 75
     0
 76
     0
 77
     0
 78
     0
  0
ENDTAB
  0
TABLE
  2
LTYPE
 70
     2
  0
LTYPE
  2
CONTINUOUS
 70
     0
  3
Solid line
 72
    65
 73
     0
 40
0.0
  0
LTYPE
  2
PHANTOM2
 70
     0
  3
___ _ _ ___ _ _ ___ _ _ ___ _ _
 72
    65
 73
     6
 40
1.25
 49
0.625
 49
-0.125
 49
0.125
 49
-0.125
 49
0.125
 49
-0.125
  0
ENDTAB
  0
TABLE
  2
LAYER
 70
     2
  0
LAYER
  2
0
 70
     0
 62
   255
  6
CONTINUOUS
  0
LAYER
  2
DEFPOINTS
 70
     0
 62
     7
  6
CONTINUOUS
  0
ENDTAB
  0
TABLE
  2
STYLE
 70
     1
  0
STYLE
  2
STANDARD
 70
     0
 40
0.0
 41
0.8
 50
0.0
 71
     0
 42
0.2
  3
txt
  4

  0
ENDTAB
  0
TABLE
  2
VIEW
 70
     0
  0
ENDTAB
  0
TABLE
  2
UCS
 70
     0
  0
ENDTAB
  0
TABLE
  2
APPID
 70
     9
  0
APPID
  2
ACAD
 70
     0
  0
APPID
  2
ACAD_MLEADERVER
 70
     0
  0
APPID
  2
ACAD_EXEMPT_FROM_CAD_STANDARDS
 70
     0
  0
APPID
  2
ACAD_NAV_VCDISPLAY
 70
     0
  0
APPID
  2
ACAECLAYERSTANDARD
 70
     0
  0
APPID
  2
ACCMTRANSPARENCY
 70
     0
  0
APPID
  2
ACAD_DSTYLE_DIMJAG
 70
     0
  0
APPID
  2
ACAD_DSTYLE_DIMTALN
 70
     0
  0
APPID
  2
ACDBATTR
 70
     0
  0
ENDTAB
  0
TABLE
  2
DIMSTYLE
 70
     1
  0
DIMSTYLE
  2
STANDARD
 70
     0
  3

  4

  5

  6

  7

 40
1.0
 41
0.1875
 42
0.0625
 43
0.38
 44
0.125
 45
0.0
 46
0.0
 47
0.01
 48
0.01
140
0.15625
141
0.09
142
0.0
143
25.3999999999999986
144
1.0
145
0.0
146
1.0
147
0.09
 71
     1
 72
     0
 73
     1
 74
     1
 75
     0
 76
     0
 77
     0
 78
     4
170
     0
171
     2
172
     0
173
     0
174
     0
175
     0
176
     0
177
     0
178
     0
  0
ENDTAB
  0
ENDSEC
  0
SECTION
  2
BLOCKS
  0
BLOCK
  8
0
  2
$MODEL_SPACE
 70
     0
 10
0.0
 20
0.0
 30
0.0
  3
$MODEL_SPACE
  1

  0
ENDBLK
  5
21
  8
0
  0
BLOCK
 67
     1
  8
0
  2
$PAPER_SPACE
 70
     0
 10
0.0
 20
0.0
 30
0.0
  3
$PAPER_SPACE
  1

  0
ENDBLK
  5
1D
 67
     1
  8
0
  0
BLOCK
  8
0
  2
_FILLED
 70
     0
 10
0.0
 20
0.0
 30
0.0
  3
_FILLED
  1

  0
SOLID
  5
2ABDA
  8
0
  6
BYBLOCK
 62
     0
 10
0.0
 20
0.0
 30
0.0
 11
-1.0
 21
0.1666666667
 31
0.0
 12
-1.0
 22
-0.1666666667
 32
0.0
 13
-1.0
 23
-0.1666666667
 33
0.0
  0
ENDBLK
  5
2ABDB
  8
0
  6
BYBLOCK
 62
     0
  0
ENDSEC
  0
SECTION
  2
ENTITIES
  0
ATTDEF
  5
340AF
  8
DEFPOINTS
 10
2817.0362467833101618
 20
147.8952007677897882
 30
0.0
 40
0.001
  1
K-33063T-4
  3

  2
MODELNUMBER
 70
     0
1001
ACDBATTR
1070
     0
1070
     1
  0
ATTDEF
  5
340B0
  8
DEFPOINTS
 10
2817.0362467833101618
 20
147.8935341011232083
 30
0.0
 40
0.001
  1
ACCLIV
  3

  2
TRADENAME
 70
     0
1001
ACDBATTR
1070
     0
1070
     1
  0
ATTDEF
  5
340B1
  8
DEFPOINTS
 10
2817.0362467833101618
 20
147.8918674344564863
 30
0.0
 40
0.001
  1
BATHROOM SINK FAUCET
  3

  2
PRODUCT
 70
     0
1001
ACDBATTR
1070
     0
1070
     1
  0
ARC
  5
34E2F
  8
0
 10
2817.0548957479741148
 20
147.914134478876889
 30
0.0
 40
0.8625016717417983
 50
90.5877344171243948
 51
102.9917391217005047
  0
ARC
  5
34E30
  8
0
 10
2817.0543312815539139
 20
147.9297928331903904
 30
0.0
 40
0.8471224412427837
 50
103.1926276509546057
 51
131.408912752774512
  0
ARC
  5
34E31
  8
0
 10
2817.1694737349189381
 20
147.7992303046611084
 30
0.0
 40
1.02120391189059
 50
131.408912752774512
 51
165.3883281773211138
  0
ARC
  5
34E32
  8
0
 10
2817.3251139728217822
 20
147.7586552005573992
 30
0.0
 40
1.1820461411947381
 50
165.3883281773211138
 51
188.3288856208912136
  0
ARC
  5
34E33
  8
0
 10
2818.6532448698048938
 20
148.0317753024511092
 30
0.0
 40
2.5369267716327708
 50
190.0874499713794137
 51
195.6536594069330022
  0
ARC
  5
34E34
  8
0
 10
2805.8873736948671649
 20
144.4830052558926923
 30
0.0
 40
10.7130322092778805
 50
13.3603902991647701
 51
15.5073191914409296
  0
ARC
  5
34E35
  8
0
 10
2811.9147477075780444
 20
146.0754574795537906
 30
0.0
 40
4.4835423005196997
 50
0.5381048774896935
 51
11.3590739308350201
  0
ARC
  5
34E36
  8
0
 10
-175936.789479100407334
 20
-1442.5310106576239377
 30
0.0
 40
178760.2468985331943259
 50
0.5082909588834214
 51
0.509196302247042
  0
LINE
  5
34E37
  8
0
 10
2816.4231725504791939
 20
143.2930458546387058
 30
0.0
 11
2816.4376760644267961
 21
142.2944148325807134
 31
0.0
  0
ARC
  5
34E38
  8
0
 10
2817.1780802140151536
 20
142.2926807490223098
 30
0.0
 40
0.7404061802637923
 50
179.8658091157209071
 51
219.9528310897518111
  0
ARC
  5
34E39
  8
0
 10
2817.0492113107861769
 20
142.2055122326239029
 30
0.0
 40
0.5858595572233379
 50
221.5112330162471892
 51
269.6906773208527852
  0
ARC
  5
34E3A
  8
0
 10
2817.0458567133068755
 20
144.2424547862640054
 30
0.0
 40
0.4575239958364683
 50
259.6606038317578964
 51
270.0240107851632274
  0
ARC
  5
34E3B
  8
0
 10
2817.0528580652121491
 20
144.2808307248029109
 30
0.0
 40
0.4965333740326338
 50
227.0644462310443998
 51
259.6606038317578964
  0
ARC
  5
34E3C
  8
0
 10
2817.2417099728559151
 20
144.483806851639514
 30
0.0
 40
0.7737775824236904
 50
208.5084213134481956
 51
227.0644462310443998
  0
ARC
  5
34E3D
  8
0
 10
2817.2414300221580561
 20
144.4836547975309884
 30
0.0
 40
0.773459003006197
 50
185.7579108286585097
 51
208.5084213134481956
  0
ARC
  5
34E3E
  8
0
 10
2807.9023197695178169
 20
143.5419533005442077
 30
0.0
 40
8.6130090239138681
 50
5.7579108286585452
 51
6.4016619124451264
  0
ARC
  5
34E3F
  8
0
 10
2199.2634206998282025
 20
130.4406541712297098
 30
0.0
 40
617.3583655958889267
 50
1.305144296645899
 51
1.4007619683259791
  0
ARC
  5
34E40
  8
0
 10
2812.8423617650128108
 20
145.5854262915644881
 30
0.0
 40
3.5953290563382101
 50
359.1528845028173009
 51
8.5115241570858
  0
ARC
  5
34E41
  8
0
 10
2817.0477662994221646
 20
147.9980709623959001
 30
0.0
 40
0.9554814174776112
 50
90.1030117030098268
 51
115.9135493537798993
  0
ARC
  5
34E42
  8
0
 10
2817.0890956478460794
 20
147.9383293046305994
 30
0.0
 40
1.0273374421339989
 50
116.5307189012190037
 51
179.5505703059685914
  0
ARC
  5
34E43
  8
0
 10
2817.2645214907010995
 20
147.9264089490941103
 30
0.0
 40
1.202731679744897
 50
180.0
 51
208.7853899394349071
  0
ARC
  5
34E44
  8
0
 10
2817.0372011452800507
 20
147.9141344788770027
 30
0.0
 40
0.862501671741784
 50
77.0082608782994669
 51
89.4122655828756052
  0
ARC
  5
34E45
  8
0
 10
2817.0377656116988874
 20
147.9297928331903904
 30
0.0
 40
0.8471224412427837
 50
48.5910872472255093
 51
76.8073723490453943
  0
ARC
  5
34E46
  8
0
 10
2816.9226231583352273
 20
147.7992303046611084
 30
0.0
 40
1.02120391189059
 50
14.6116718226788809
 51
48.5910872472255093
  0
ARC
  5
34E47
  8
0
 10
2816.7669829204319285
 20
147.7586552005573992
 30
0.0
 40
1.1820461411947381
 50
351.6711143791088148
 51
14.6116718226788809
  0
ARC
  5
34E48
  8
0
 10
2815.4388520234479074
 20
148.0317753024511092
 30
0.0
 40
2.5369267716327708
 50
344.3463405930669978
 51
349.9125500286206147
  0
ARC
  5
34E49
  8
0
 10
2828.2047231983870006
 20
144.4830052558926923
 30
0.0
 40
10.7130322092778805
 50
164.4926808085591006
 51
166.6396097008351944
  0
ARC
  5
34E4A
  8
0
 10
2822.1773491856752116
 20
146.0754574795537906
 30
0.0
 40
4.4835423005196997
 50
168.6409260691650047
 51
179.461895122510299
  0
ARC
  5
34E4B
  8
0
 10
181570.8815781814046204
 20
-1442.5310106881670436
 30
0.0
 40
178760.2469007211038843
 50
179.4908036977496977
 51
179.4917090411132961
  0
LINE
  5
34E4C
  8
0
 10
2817.6689243427240399
 20
143.2930458536908134
 30
0.0
 11
2817.6544208288269147
 21
142.2944148325807134
 31
0.0
  0
ARC
  5
34E4D
  8
0
 10
2816.9140166792390119
 20
142.2926807490223098
 30
0.0
 40
0.7404061802637992
 50
320.0471689102482173
 51
0.1341908842790487
  0
ARC
  5
34E4E
  8
0
 10
2817.0428855824670791
 20
142.2055122326239029
 30
0.0
 40
0.585859557223334
 50
270.3093226791472148
 51
318.4887669837527824
  0
ARC
  5
34E4F
  8
0
 10
2817.0462401799468353
 20
144.2424547862640054
 30
0.0
 40
0.4575239958364683
 50
269.9759892148367726
 51
280.3393961682421036
  0
ARC
  5
34E50
  8
0
 10
2817.0392388280420164
 20
144.2808307248029109
 30
0.0
 40
0.4965333740326338
 50
280.3393961682421036
 51
312.9355537689555717
  0
ARC
  5
34E51
  8
0
 10
2816.8503869203977956
 20
144.483806851639514
 30
0.0
 40
0.7737775824236904
 50
312.9355537689555717
 51
331.4915786865518044
  0
ARC
  5
34E52
  8
0
 10
2816.8506668710961094
 20
144.4836547975309884
 30
0.0
 40
0.773459003006197
 50
331.4915786865518044
 51
354.2420891713414903
  0
ARC
  5
34E53
  8
0
 10
2826.1897771237349843
 20
143.5419533005442077
 30
0.0
 40
8.6130090239138681
 50
173.5983380875549074
 51
174.2420891713414903
  0
ARC
  5
34E54
  8
0
 10
3434.828676234186787
 20
130.4406541702767015
 30
0.0
 40
617.3583656366622563
 50
178.5992380316772881
 51
178.6948557033508109
  0
ARC
  5
34E55
  8
0
 10
2824.5234026996367902
 20
145.3661413091357986
 30
0.0
 40
6.8706124663886667
 50
173.7211277560084
 51
178.6144635840842056
  0
ARC
  5
34E56
  8
0
 10
2817.0443305938301819
 20
147.9980709623914095
 30
0.0
 40
0.9554814174821077
 50
64.0864506462775836
 51
89.8969882969120562
  0
ARC
  5
34E57
  8
0
 10
2817.0030012454080861
 20
147.9383293046305994
 30
0.0
 40
1.0273374421339989
 50
0.4494296940313666
 51
63.4692810987809608
  0
ARC
  5
34E58
  8
0
 10
2816.8275754025521564
 20
147.9264089490941103
 30
0.0
 40
1.202731679744897
 50
331.2146100605651213
 51
0.0
  0
LINE
  5
34E5A
  8
0
 10
2816.0617898109571797
 20
147.9264089490941103
 30
0.0
 11
2816.0617898109571797
 21
147.9463876855693059
 31
0.0
  0
LINE
  5
34E5B
  8
0
 10
2818.0303070822969858
 20
147.9463876855693059
 30
0.0
 11
2818.0303070822969858
 21
147.9264089490941103
 31
0.0
  0
ENDSEC
  0
EOF
