  0
SECTION
  2
HEADER
  9
$ACADVER
  1
AC1009
  9
$INSBASE
 10
5006.1383965051099949
 20
292.2222421932187899
 30
0.0
  9
$EXTMIN
 10
4989.1494544687584494
 20
289.1879048145311231
 30
0.0
  9
$EXTMAX
 10
5012.8447341833343671
 20
345.7818964284089134
 30
0.0
  9
$LIMMIN
 10
0.0
 20
0.0
  9
$LIMMAX
 10
11.6929133858000007
 20
8.2677165353999982
  9
$ORTHOMODE
 70
     0
  9
$REGENMODE
 70
     1
  9
$FILLMODE
 70
     1
  9
$QTEXTMODE
 70
     0
  9
$MIRRTEXT
 70
     0
  9
$DRAGMODE
 70
     2
  9
$LTSCALE
 40
0.6431102362
  9
$OSMODE
 70
  4095
  9
$ATTMODE
 70
     1
  9
$TEXTSIZE
 40
0.2
  9
$TRACEWID
 40
0.05
  9
$TEXTSTYLE
  7
STANDARD
  9
$CLAYER
  8
0
  9
$CELTYPE
  6
BYLAYER
  9
$CECOLOR
 62
   256
  9
$DIMSCALE
 40
1.0
  9
$DIMASZ
 40
0.1875
  9
$DIMEXO
 40
0.0625
  9
$DIMDLI
 40
0.4443307087
  9
$DIMRND
 40
0.0
  9
$DIMDLE
 40
0.0
  9
$DIMEXE
 40
0.125
  9
$DIMTP
 40
0.01
  9
$DIMTM
 40
0.01
  9
$DIMTXT
 40
2.0
  9
$DIMCEN
 40
0.1052362205
  9
$DIMTSZ
 40
0.0
  9
$DIMTOL
 70
     1
  9
$DIMLIM
 70
     0
  9
$DIMTIH
 70
     1
  9
$DIMTOH
 70
     1
  9
$DIMSE1
 70
     0
  9
$DIMSE2
 70
     0
  9
$DIMTAD
 70
     0
  9
$DIMZIN
 70
     0
  9
$DIMBLK
  1

  9
$DIMASO
 70
     1
  9
$DIMSHO
 70
     1
  9
$DIMPOST
  1
\X
  9
$DIMAPOST
  1

  9
$DIMALT
 70
     1
  9
$DIMALTD
 70
     2
  9
$DIMALTF
 40
25.3999999999999986
  9
$DIMLFAC
 40
1.0
  9
$DIMTOFL
 70
     0
  9
$DIMTVP
 40
0.0
  9
$DIMTIX
 70
     0
  9
$DIMSOXD
 70
     0
  9
$DIMSAH
 70
     0
  9
$DIMBLK1
  1

  9
$DIMBLK2
  1

  9
$DIMSTYLE
  2
STANDARD
  9
$DIMCLRD
 70
     0
  9
$DIMCLRE
 70
     0
  9
$DIMCLRT
 70
     0
  9
$DIMTFAC
 40
1.0
  9
$DIMGAP
 40
0.09
  9
$LUNITS
 70
     2
  9
$LUPREC
 70
     4
  9
$SKETCHINC
 40
0.1
  9
$FILLETRAD
 40
0.0
  9
$AUNITS
 70
     0
  9
$AUPREC
 70
     0
  9
$MENU
  1
.
  9
$ELEVATION
 40
0.0
  9
$PELEVATION
 40
0.0
  9
$THICKNESS
 40
0.0
  9
$LIMCHECK
 70
     0
  9
$BLIPMODE
 70
     0
  9
$CHAMFERA
 40
0.0
  9
$CHAMFERB
 40
0.0
  9
$SKPOLY
 70
     0
  9
$TDCREATE
 40
2458060.468368056230247
  9
$TDUPDATE
 40
2459929.4881018521264195
  9
$TDINDWG
 40
0.576847338
  9
$TDUSRTIMER
 40
0.576847338
  9
$USRTIMER
 70
     1
  9
$ANGBASE
 50
0.0
  9
$ANGDIR
 70
     0
  9
$PDMODE
 70
     0
  9
$PDSIZE
 40
0.3125
  9
$PLINEWID
 40
0.0
  9
$COORDS
 70
     1
  9
$SPLFRAME
 70
     0
  9
$SPLINETYPE
 70
     6
  9
$SPLINESEGS
 70
     8
  9
$ATTDIA
 70
     1
  9
$ATTREQ
 70
     1
  9
$HANDLING
 70
     1
  9
$HANDSEED
  5
28EB1
  9
$SURFTAB1
 70
     6
  9
$SURFTAB2
 70
     6
  9
$SURFTYPE
 70
     6
  9
$SURFU
 70
     6
  9
$SURFV
 70
     6
  9
$UCSNAME
  2

  9
$UCSORG
 10
0.0
 20
0.0
 30
0.0
  9
$UCSXDIR
 10
1.0
 20
0.0
 30
0.0
  9
$UCSYDIR
 10
0.0
 20
1.0
 30
0.0
  9
$PUCSNAME
  2

  9
$PUCSORG
 10
0.0
 20
0.0
 30
0.0
  9
$PUCSXDIR
 10
1.0
 20
0.0
 30
0.0
  9
$PUCSYDIR
 10
0.0
 20
1.0
 30
0.0
  9
$USERI1
 70
     0
  9
$USERI2
 70
     0
  9
$USERI3
 70
     0
  9
$USERI4
 70
     0
  9
$USERI5
 70
     0
  9
$USERR1
 40
0.0
  9
$USERR2
 40
0.0
  9
$USERR3
 40
0.0
  9
$USERR4
 40
0.0
  9
$USERR5
 40
0.0
  9
$WORLDVIEW
 70
     1
  9
$SHADEDGE
 70
     3
  9
$SHADEDIF
 70
    70
  9
$TILEMODE
 70
     1
  9
$MAXACTVP
 70
    64
  9
$PLIMCHECK
 70
     0
  9
$PEXTMIN
 10
1.0000000000000000E+20
 20
1.0000000000000000E+20
 30
1.0000000000000000E+20
  9
$PEXTMAX
 10
-1.0000000000000000E+20
 20
-1.0000000000000000E+20
 30
-1.0000000000000000E+20
  9
$PLIMMIN
 10
0.0
 20
0.0
  9
$PLIMMAX
 10
12.0
 20
9.0
  9
$UNITMODE
 70
     0
  9
$VISRETAIN
 70
     1
  9
$PLINEGEN
 70
     0
  9
$PSLTSCALE
 70
     1
  0
ENDSEC
  0
SECTION
  2
TABLES
  0
TABLE
  2
VPORT
 70
     1
  0
VPORT
  2
*ACTIVE
 70
     0
 10
0.0
 20
0.0
 11
1.0
 21
1.0
 12
1098.1229678925349162
 22
157.446039610510411
 13
0.0
 23
0.0
 14
1.0
 24
1.0
 15
0.0
 25
0.0
 16
0.0
 26
0.0
 36
60.4960186965801583
 17
3911.3653564453120453
 27
132.5796051025390057
 37
0.0
 40
48.5928943771631268
 41
2.7227011494252871
 42
50.0
 43
0.0
 44
0.0
 50
0.0
 51
0.0
 71
     0
 72
   100
 73
     1
 74
     1
 75
     0
 76
     0
 77
     0
 78
     0
  0
ENDTAB
  0
TABLE
  2
LTYPE
 70
     2
  0
LTYPE
  2
CONTINUOUS
 70
     0
  3
Solid line
 72
    65
 73
     0
 40
0.0
  0
LTYPE
  2
PHANTOM2
 70
     0
  3
___ _ _ ___ _ _ ___ _ _ ___ _ _
 72
    65
 73
     6
 40
1.25
 49
0.625
 49
-0.125
 49
0.125
 49
-0.125
 49
0.125
 49
-0.125
  0
ENDTAB
  0
TABLE
  2
LAYER
 70
     2
  0
LAYER
  2
0
 70
     0
 62
   255
  6
CONTINUOUS
  0
LAYER
  2
DEFPOINTS
 70
     0
 62
     7
  6
CONTINUOUS
  0
ENDTAB
  0
TABLE
  2
STYLE
 70
     1
  0
STYLE
  2
STANDARD
 70
     0
 40
0.0
 41
0.8
 50
0.0
 71
     0
 42
0.2
  3
txt
  4

  0
ENDTAB
  0
TABLE
  2
VIEW
 70
     0
  0
ENDTAB
  0
TABLE
  2
UCS
 70
     0
  0
ENDTAB
  0
TABLE
  2
APPID
 70
    11
  0
APPID
  2
ACAD
 70
     0
  0
APPID
  2
ACAD_MLEADERVER
 70
     0
  0
APPID
  2
ACAD_EXEMPT_FROM_CAD_STANDARDS
 70
     0
  0
APPID
  2
ACAD_NAV_VCDISPLAY
 70
     0
  0
APPID
  2
ACAECLAYERSTANDARD
 70
     0
  0
APPID
  2
ACCMTRANSPARENCY
 70
     0
  0
APPID
  2
ACAD_DSTYLE_DIMJAG
 70
     0
  0
APPID
  2
ACAD_DSTYLE_DIMTALN
 70
     0
  0
APPID
  2
ACDBATTR
 70
     0
  0
APPID
  2
ACADANNOTATIVE
 70
     0
  0
APPID
  2
DCO15
 70
     0
  0
ENDTAB
  0
TABLE
  2
DIMSTYLE
 70
     1
  0
DIMSTYLE
  2
STANDARD
 70
     0
  3

  4

  5

  6

  7

 40
1.0
 41
0.1875
 42
0.0625
 43
0.38
 44
0.125
 45
0.0
 46
0.0
 47
0.01
 48
0.01
140
0.15625
141
0.09
142
0.0
143
25.3999999999999986
144
1.0
145
0.0
146
1.0
147
0.09
 71
     1
 72
     0
 73
     1
 74
     1
 75
     0
 76
     0
 77
     0
 78
     4
170
     0
171
     2
172
     0
173
     0
174
     0
175
     0
176
     0
177
     0
178
     0
  0
ENDTAB
  0
ENDSEC
  0
SECTION
  2
BLOCKS
  0
BLOCK
  8
0
  2
$MODEL_SPACE
 70
     0
 10
0.0
 20
0.0
 30
0.0
  3
$MODEL_SPACE
  1

  0
ENDBLK
  5
21
  8
0
  0
BLOCK
 67
     1
  8
0
  2
$PAPER_SPACE
 70
     0
 10
0.0
 20
0.0
 30
0.0
  3
$PAPER_SPACE
  1

  0
ENDBLK
  5
1D
 67
     1
  8
0
  0
BLOCK
  8
0
  2
_FILLED
 70
     0
 10
0.0
 20
0.0
 30
0.0
  3
_FILLED
  1

  0
SOLID
  5
26C2A
  8
0
  6
BYBLOCK
 62
     0
 10
0.0
 20
0.0
 30
0.0
 11
-1.0
 21
0.1666666667
 31
0.0
 12
-1.0
 22
-0.1666666667
 32
0.0
 13
-1.0
 23
-0.1666666667
 33
0.0
  0
ENDBLK
  5
26C2B
  8
0
  6
BYBLOCK
 62
     0
  0
ENDSEC
  0
SECTION
  2
ENTITIES
  0
ATTDEF
  5
26A5B
  8
DEFPOINTS
 10
5006.1389025192638655
 20
292.2207838604775247
 30
0.0
 40
0.001
  1
K-33064K-4
  3

  2
MODELNUMBER
 70
     0
1001
ACDBATTR
1070
     0
1070
     1
  0
ATTDEF
  5
26A5C
  8
DEFPOINTS
 10
5006.138776709605736
 20
292.219117020098281
 30
0.0
 40
0.001
  1
ACCLIV
  3

  2
TRADENAME
 70
     0
1001
ACDBATTR
1070
     0
1070
     1
  0
ATTDEF
  5
26A5D
  8
DEFPOINTS
 10
5006.1389025192638655
 20
292.2174505271441944
 30
0.0
 40
0.001
  1
BATHROOM SINK FAUCET
  3

  2
PRODUCT
 70
     0
1001
ACDBATTR
1070
     0
1070
     1
  0
LINE
  5
28B3E
  8
0
 10
5007.1815043678097936
 20
292.2222421932187899
 30
0.0
 11
5005.0952886424111057
 21
292.2222421932187899
 31
0.0
  0
LINE
  5
28B3F
  8
0
 10
5005.0756118582103227
 20
292.2413572018188006
 30
0.0
 11
5004.9827580126511748
 21
298.2194452345506193
 31
0.0
  0
LINE
  5
28B40
  8
0
 10
5004.9817409450433843
 20
298.2546230717704816
 30
0.0
 11
5004.913028343960832
 21
300.6291106265728104
 31
0.0
  0
ARC
  5
28B41
  8
0
 10
5000.916094287593296
 20
300.572495108958492
 30
0.0
 40
3.9973350082003551
 50
0.811525346056684
 51
6.2172401854959514
  0
ARC
  5
28B42
  8
0
 10
5004.1240758811145497
 20
300.9585002689163957
 30
0.0
 40
0.7672775164106695
 50
3.5044146948994861
 51
41.8975520798899126
  0
ARC
  5
28B43
  8
0
 10
5004.2361183441826142
 20
300.9047699878565822
 30
0.0
 40
0.7288610614136282
 50
50.960963164407822
 51
78.2075463040188339
  0
ARC
  5
28B44
  8
0
 10
5003.9354003150401695
 20
299.4439889752276258
 30
0.0
 40
2.2202720734237569
 50
78.3150130524820156
 51
84.9160615597426442
  0
LINE
  5
28B45
  8
0
 10
5004.1321498937277283
 20
301.6555263778756171
 30
0.0
 11
5000.9252546660682128
 21
301.9495063617728192
 31
0.0
  0
LINE
  5
28B46
  8
0
 10
5000.9252546660682128
 20
301.9495063617728192
 30
0.0
 11
5000.9207593491673833
 21
301.9502488145727739
 31
0.0
  0
LINE
  5
28B47
  8
0
 10
5000.9207593491673833
 20
301.9502488145727739
 30
0.0
 11
4999.9221219349683452
 21
302.3134016575727969
 31
0.0
  0
ARC
  5
28B48
  8
0
 10
4999.9355697180053539
 20
302.3503818424671863
 30
0.0
 40
0.0393494211322275
 50
194.4768682640674058
 51
250.0162871682935872
  0
ARC
  5
28B49
  8
0
 10
5001.9352773333739606
 20
302.6928491280270919
 30
0.0
 40
2.068037289861314
 50
173.116160615843512
 51
189.8085647381481067
  0
ARC
  5
28B4A
  8
0
 10
4999.9215761147606827
 20
302.9373562588268101
 30
0.0
 40
0.0395709927597511
 50
85.2891471893456128
 51
175.1273029669202117
  0
LINE
  5
28B4B
  8
0
 10
4999.9248259730611608
 20
302.9767935747727847
 30
0.0
 11
5006.8182645504775792
 21
302.3735264352756076
 31
0.0
  0
ARC
  5
28B4C
  8
0
 10
5006.812819945078445
 20
302.3349257511218866
 30
0.0
 40
0.0389827724142372
 50
6.0138686487800754
 51
81.9714247515692591
  0
LINE
  5
28B4D
  8
0
 10
5006.8515881783278019
 20
302.3390099445256283
 30
0.0
 11
5007.0464642752958753
 21
298.2535882895826944
 31
0.0
  0
LINE
  5
28B4E
  8
0
 10
5007.0480589467997561
 20
298.2201468056273939
 30
0.0
 11
5007.2011670926103761
 21
292.242864295718789
 31
0.0
  0
LINE
  5
28B4F
  8
0
 10
5004.8597058712293801
 20
302.6403341610756002
 30
0.0
 11
5005.8161593527202058
 21
302.5566553245486716
 31
0.0
  0
ARC
  5
28B50
  8
0
 10
5005.833321254666771
 20
302.7528167621102853
 30
0.0
 40
0.1969107423801115
 50
265.0000000174454158
 51
284.6631131535834811
  0
LINE
  5
28B51
  8
0
 10
5005.8831662885286278
 20
302.5623192212755725
 30
0.0
 11
5006.8510160128280404
 21
302.8580539315756255
 31
0.0
  0
ARC
  5
28B52
  8
0
 10
5006.8447477040563172
 20
302.8823774241466253
 30
0.0
 40
0.0251182002882582
 50
284.4510308986114069
 51
2.552704211798563
  0
LINE
  5
28B53
  8
0
 10
5006.8698409789285506
 20
302.8834961474756255
 30
0.0
 11
5006.8698409789285506
 21
303.306380508602615
 31
0.0
  0
ARC
  5
28B54
  8
0
 10
5006.8403135604339695
 20
303.3063805108885731
 30
0.0
 40
0.0295274184948245
 50
359.9999955641966949
 51
71.9789604116644739
  0
ARC
  5
28B55
  8
0
 10
5001.8753888588144036
 20
301.3620096661451271
 30
0.0
 40
3.0400233931520511
 50
82.110096611793864
 51
86.3051867602324165
  0
LINE
  5
28B56
  8
0
 10
5002.2926928614779172
 20
304.3732551892255742
 30
0.0
 11
5005.9505519092281247
 21
303.5720450121256135
 31
0.0
  0
ARC
  5
28B57
  8
0
 10
5003.4336685736725485
 20
292.0107956176520929
 30
0.0
 40
11.83204079125872
 50
74.9377134761123642
 51
77.7183416562453147
  0
ARC
  5
28B58
  8
0
 10
5004.8220511591453032
 20
297.1698696026221
 30
0.0
 40
6.489414977481597
 50
71.7951085638551092
 51
74.9377134761123642
  0
ARC
  5
28B59
  8
0
 10
5002.0712940940129556
 20
304.3666207937021113
 30
0.0
 40
0.0290934433265893
 50
90.0002697350988683
 51
173.3726001687556959
  0
ARC
  5
28B5A
  8
0
 10
5002.1503130563260129
 20
304.3439648438082941
 30
0.0
 40
0.1110090330210585
 50
166.4473685049019878
 51
199.1046041275371863
  0
ARC
  5
28B5B
  8
0
 10
5002.1460198842341924
 20
304.3500427312687862
 30
0.0
 40
0.1091758394138771
 50
202.8587171740605868
 51
241.1628521160272953
  0
ARC
  5
28B5C
  8
0
 10
5002.3080864899538938
 20
304.6626523682048173
 30
0.0
 40
0.4612724194920911
 50
242.2571088919956992
 51
259.5697569451813251
  0
LINE
  5
28B5D
  8
0
 10
5002.2245785202230763
 20
304.2090019918405801
 30
0.0
 11
5004.2322409160278767
 21
303.7110862130755891
 31
0.0
  0
ARC
  5
28B5E
  8
0
 10
5003.7805911288232892
 20
301.7053623299116794
 30
0.0
 40
2.0559464549876409
 50
70.7386410613183756
 51
77.3097765842097431
  0
ARC
  5
28B5F
  8
0
 10
5004.2345918493410863
 20
303.0045931544282212
 30
0.0
 40
0.6796770810623757
 50
45.4864463804289372
 51
70.7386410613183756
  0
ARC
  5
28B60
  8
0
 10
5004.3434765549573058
 20
303.1684031054675188
 30
0.0
 40
0.4879501003034095
 50
8.1759730245261526
 51
41.114182627325583
  0
ARC
  5
28B61
  8
0
 10
5061.5248138996212219
 20
307.1730841588978933
 30
0.0
 40
56.8347518583197981
 50
183.9703866002357131
 51
184.1994783446776012
  0
LINE
  5
28B62
  8
0
 10
5004.8426551665279476
 20
303.0111254669756136
 30
0.0
 11
5004.8426347968279515
 21
302.7936997011756262
 31
0.0
  0
LINE
  5
28B63
  8
0
 10
5004.8426438698279526
 20
302.7937692466755948
 30
0.0
 11
5004.8400980658279877
 21
302.7765081076756246
 31
0.0
  0
LINE
  5
28B64
  8
0
 10
5004.8400980658279877
 20
302.7765081076756246
 30
0.0
 11
5004.8400980666292526
 21
302.6617342868756282
 31
0.0
  0
ARC
  5
28B65
  8
0
 10
5004.8610298743942622
 20
302.6612301358139234
 30
0.0
 40
0.0209378782270021
 50
178.6202747161102877
 51
266.374492205449485
  0
LINE
  5
28B66
  8
0
 10
5005.185706501300956
 20
302.5163968784266899
 30
0.0
 11
5005.1894523809523889
 21
302.6114850797412146
 31
0.0
  0
ARC
  5
28B67
  8
0
 10
5004.6680208397692695
 20
302.4780358360011974
 30
0.0
 40
2.0761980154319342
 50
359.975998113505625
 51
9.3938670284699342
  0
LINE
  5
28B68
  8
0
 10
5006.7442186730286267
 20
302.4771660918755742
 30
0.0
 11
5006.7441779731680072
 21
302.3800099755519
 31
0.0
  0
LINE
  5
28B69
  8
0
 10
5000.0789018431851218
 20
302.2563889034091744
 30
0.0
 11
5000.07234437729403
 21
302.2383724139444894
 31
0.0
  0
ARC
  5
28B6A
  8
0
 10
5000.109351399211846
 20
302.2249029595088246
 30
0.0
 40
0.0393820501502474
 50
160.0000000018524986
 51
204.9825857715229063
  0
LINE
  5
28B6B
  8
0
 10
5000.0736540835650885
 20
302.208270234847987
 30
0.0
 11
5000.0785273915671496
 21
302.1978191683602972
 31
0.0
  0
LINE
  5
28B6C
  8
0
 10
5000.7074514602672934
 20
301.9689097514727791
 30
0.0
 11
5000.717906366267016
 21
301.9737815805727905
 31
0.0
  0
ARC
  5
28B6D
  8
0
 10
5000.7012879459016403
 20
302.0094445767942943
 30
0.0
 40
0.0393449004945107
 50
294.9848118303153228
 51
340.0151883440735219
  0
ARC
  5
28B6E
  8
0
 10
5028.8606879433273207
 20
291.7687139060129198
 30
0.0
 40
29.924372707413621
 50
159.9780928441178958
 51
160.0151883440734935
  0
LINE
  5
28B6F
  8
0
 10
5000.0785273915671496
 20
302.1978191683602972
 30
0.0
 11
5000.7074514602672934
 21
301.9689097514727791
 31
0.0
  0
LINE
  5
28B70
  8
0
 10
5000.344896953350144
 20
302.100868800326225
 30
0.0
 11
5000.3254588917252477
 21
302.0474631650790798
 31
0.0
  0
ARC
  5
28B71
  8
0
 10
5000.5733487042971319
 20
302.5790755749563914
 30
0.0
 40
0.5865763332589066
 50
235.958111769368486
 51
245.0005315407919966
  0
ARC
  5
28B72
  8
0
 10
5000.5790456513241224
 20
302.5875083411665969
 30
0.0
 40
0.5967531083562427
 50
225.8380798686617936
 51
235.958111769368486
  0
ARC
  5
28B73
  8
0
 10
5000.6117519503195581
 20
302.6211857202820852
 30
0.0
 40
0.6436984793543191
 50
224.3381720731393898
 51
225.8380798686617936
  0
LINE
  5
28B74
  8
0
 10
5000.3109758965074434
 20
302.0997597902955931
 30
0.0
 11
5000.3102962895191013
 21
302.1003467788070793
 31
0.0
  0
LINE
  5
28B75
  8
0
 10
5000.3102962895191013
 20
302.1003467788070793
 30
0.0
 11
5000.2939660576657843
 21
302.1053241049727944
 31
0.0
  0
LINE
  5
28B76
  8
0
 10
5000.2939660576657843
 20
302.1053241049727944
 30
0.0
 11
5000.2915728712669079
 21
302.0987488793728062
 31
0.0
  0
LINE
  5
28B77
  8
0
 10
5000.2915728712669079
 20
302.0987488793728062
 30
0.0
 11
5000.30553214576139
 21
302.0872574018997057
 31
0.0
  0
LINE
  5
28B78
  8
0
 10
5000.30553214576139
 20
302.0872574018997057
 30
0.0
 11
5000.306320908487578
 21
302.0869703157450203
 31
0.0
  0
LINE
  5
28B79
  8
0
 10
5000.306320908487578
 20
302.0869703157450203
 30
0.0
 11
5000.3109758965310903
 21
302.0997597902739926
 31
0.0
  0
LINE
  5
28B7A
  8
0
 10
5000.3102962894890879
 20
302.1003467788327725
 30
0.0
 11
5000.3055321459141851
 21
302.0872574018495129
 31
0.0
  0
LINE
  5
28B7B
  8
0
 10
5000.2878820912301308
 20
302.0886085444872151
 30
0.0
 11
5000.2862232484258129
 21
302.0840509115345753
 31
0.0
  0
LINE
  5
28B7C
  8
0
 10
5000.2862232484258129
 20
302.0840509115345753
 30
0.0
 11
5000.3005659813989041
 21
302.0736129771225933
 31
0.0
  0
LINE
  5
28B7D
  8
0
 10
5000.3005659813989041
 20
302.0736129771225933
 30
0.0
 11
5000.3013547439877584
 21
302.073325891015827
 31
0.0
  0
LINE
  5
28B7E
  8
0
 10
5000.3013547439877584
 20
302.073325891015827
 30
0.0
 11
5000.3045687001658735
 21
302.082156162972808
 31
0.0
  0
LINE
  5
28B7F
  8
0
 10
5000.3045687001658735
 20
302.082156162972808
 30
0.0
 11
5000.3038690544672136
 21
302.0826880957728235
 31
0.0
  0
LINE
  5
28B80
  8
0
 10
5000.3038690544672136
 20
302.0826880957728235
 30
0.0
 11
5000.2878820912301308
 21
302.0886085444872151
 31
0.0
  0
LINE
  5
28B81
  8
0
 10
5000.2838220179619384
 20
302.0774535849013773
 30
0.0
 11
5000.2828455070130076
 21
302.0747706432890141
 31
0.0
  0
LINE
  5
28B82
  8
0
 10
5000.2828455070130076
 20
302.0747706432890141
 30
0.0
 11
5000.297538960863676
 21
302.0652963064175083
 31
0.0
  0
LINE
  5
28B83
  8
0
 10
5000.297538960863676
 20
302.0652963064175083
 30
0.0
 11
5000.2983049484682851
 21
302.064946646572821
 31
0.0
  0
LINE
  5
28B84
  8
0
 10
5000.2983049484682851
 20
302.064946646572821
 30
0.0
 11
5000.3002013289669776
 21
302.0701569091727947
 31
0.0
  0
LINE
  5
28B85
  8
0
 10
5000.3002013289669776
 20
302.0701569091727947
 30
0.0
 11
5000.2994836674079124
 21
302.070639343645496
 31
0.0
  0
LINE
  5
28B86
  8
0
 10
5000.2994836674079124
 20
302.070639343645496
 30
0.0
 11
5000.2838220179619384
 21
302.0774535849013773
 31
0.0
  0
LINE
  5
28B87
  8
0
 10
5000.281339179266979
 20
302.070632041672809
 30
0.0
 11
5000.2816616806658203
 21
302.0715181070727908
 31
0.0
  0
LINE
  5
28B88
  8
0
 10
5000.2816616806658203
 20
302.0715181070727908
 30
0.0
 11
5000.2970052886830672
 21
302.0638300541472177
 31
0.0
  0
LINE
  5
28B89
  8
0
 10
5000.2970052886830672
 20
302.0638300541472177
 30
0.0
 11
5000.2977396672667965
 21
302.0633935492728028
 31
0.0
  0
LINE
  5
28B8A
  8
0
 10
5000.2977396672667965
 20
302.0633935492728028
 30
0.0
 11
5000.297113323666963
 21
302.0616726844727964
 31
0.0
  0
LINE
  5
28B8B
  8
0
 10
5000.297113323666963
 20
302.0616726844727964
 30
0.0
 11
5000.2963629869682336
 21
302.0620653445727726
 31
0.0
  0
LINE
  5
28B8C
  8
0
 10
5000.2963629869682336
 20
302.0620653445727726
 30
0.0
 11
5000.2813391792587936
 21
302.0706320416899189
 31
0.0
  0
LINE
  5
28B8D
  8
0
 10
5000.3033165004635521
 20
302.1127210477661151
 30
0.0
 11
5000.300532796668449
 21
302.1050728843728166
 31
0.0
  0
LINE
  5
28B8E
  8
0
 10
5000.300532796668449
 20
302.1050728843728166
 30
0.0
 11
5000.2843281749583184
 21
302.110395321304793
 31
0.0
  0
LINE
  5
28B8F
  8
0
 10
5000.2843281749583184
 20
302.110395321304793
 30
0.0
 11
5000.2709018224668398
 21
302.123350990572817
 31
0.0
  0
LINE
  5
28B90
  8
0
 10
5000.2709018224668398
 20
302.123350990572817
 30
0.0
 11
5000.2723319717742925
 21
302.1272802936888979
 31
0.0
  0
LINE
  5
28B91
  8
0
 10
5000.3033165004635521
 20
302.1127210477661151
 30
0.0
 11
5000.2976841821591734
 21
302.1180528437321868
 31
0.0
  0
LINE
  5
28B92
  8
0
 10
5000.2843281748282607
 20
302.1103953213504951
 30
0.0
 11
5000.2883516112042344
 21
302.1214496217701253
 31
0.0
  0
LINE
  5
28B93
  8
0
 10
5000.2664769728680767
 20
302.1111938164727917
 30
0.0
 11
5000.2644381953668926
 21
302.1055923210727769
 31
0.0
  0
LINE
  5
28B94
  8
0
 10
5000.2644381953668926
 20
302.1055923210727769
 30
0.0
 11
5000.2782856003668712
 21
302.0937934843727817
 31
0.0
  0
LINE
  5
28B95
  8
0
 10
5000.2782856003668712
 20
302.0937934843727817
 30
0.0
 11
5000.2941502259709523
 21
302.0875369154053942
 31
0.0
  0
LINE
  5
28B96
  8
0
 10
5000.2941502259709523
 20
302.0875369154053942
 30
0.0
 11
5000.2961640281673681
 21
302.0930697916728036
 31
0.0
  0
LINE
  5
28B97
  8
0
 10
5000.2961640281673681
 20
302.0930697916728036
 30
0.0
 11
5000.2823381225298363
 21
302.1049276973972724
 31
0.0
  0
LINE
  5
28B98
  8
0
 10
5000.2823381225298363
 20
302.1049276973972724
 30
0.0
 11
5000.2664769729171894
 21
302.1111938165286119
 31
0.0
  0
LINE
  5
28B99
  8
0
 10
5000.2399592469673735
 20
302.1197323143728113
 30
0.0
 11
5000.2382619482668815
 21
302.1150690244728025
 31
0.0
  0
LINE
  5
28B9A
  8
0
 10
5000.2382619482668815
 20
302.1150690244728025
 30
0.0
 11
5000.2519872822331308
 21
302.1029347993098213
 31
0.0
  0
LINE
  5
28B9B
  8
0
 10
5000.2519872822331308
 20
302.1029347993098213
 30
0.0
 11
5000.2673968067665555
 21
302.09542785137279
 31
0.0
  0
LINE
  5
28B9C
  8
0
 10
5000.2673968067665555
 20
302.09542785137279
 30
0.0
 11
5000.2690682837674103
 21
302.1000201969728209
 31
0.0
  0
LINE
  5
28B9D
  8
0
 10
5000.2690682837674103
 20
302.1000201969728209
 30
0.0
 11
5000.2553558598674499
 21
302.1121898910727737
 31
0.0
  0
LINE
  5
28B9E
  8
0
 10
5000.2553558598674499
 20
302.1121898910727737
 30
0.0
 11
5000.2399592469328127
 21
302.1197323144035067
 31
0.0
  0
LINE
  5
28B9F
  8
0
 10
5000.2460194008262988
 20
302.1180892623980867
 30
0.0
 11
5000.2480786121523124
 21
302.1237468992288768
 31
0.0
  0
LINE
  5
28BA0
  8
0
 10
5000.2480786121523124
 20
302.1237468992288768
 30
0.0
 11
5000.2349093690718291
 21
302.1374089704916059
 31
0.0
  0
LINE
  5
28BA1
  8
0
 10
5000.2349093690718291
 20
302.1374089704916059
 30
0.0
 11
5000.219661068726964
 21
302.1453588789335072
 31
0.0
  0
LINE
  5
28BA2
  8
0
 10
5000.219661068726964
 20
302.1453588789335072
 30
0.0
 11
5000.2175613719009561
 21
302.1395900095715774
 31
0.0
  0
LINE
  5
28BA3
  8
0
 10
5000.2175613719009561
 20
302.1395900095715774
 30
0.0
 11
5000.2307508549092745
 21
302.1259835470286816
 31
0.0
  0
LINE
  5
28BA4
  8
0
 10
5000.2307508549092745
 20
302.1259835470286816
 30
0.0
 11
5000.2460194008262988
 21
302.1180892623980867
 31
0.0
  0
LINE
  5
28BA5
  8
0
 10
5000.24617201023284
 20
302.1368017410223956
 30
0.0
 11
5000.2437381016197833
 21
302.130114632214827
 31
0.0
  0
LINE
  5
28BA6
  8
0
 10
5000.2437381016197833
 20
302.130114632214827
 30
0.0
 11
5000.2570528176665903
 21
302.1168522444727955
 31
0.0
  0
LINE
  5
28BA7
  8
0
 10
5000.2570528176665903
 20
302.1168522444727955
 30
0.0
 11
5000.273072457121998
 21
302.1110215726732235
 31
0.0
  0
LINE
  5
28BA8
  8
0
 10
5000.273072457121998
 20
302.1110215726732235
 30
0.0
 11
5000.2752005367392485
 21
302.1168684234672241
 31
0.0
  0
LINE
  5
28BA9
  8
0
 10
5000.2752005367392485
 20
302.1168684234672241
 30
0.0
 11
5000.2619174361416299
 21
302.1302176736916181
 31
0.0
  0
LINE
  5
28BAA
  8
0
 10
5000.2619174361416299
 20
302.1302176736916181
 30
0.0
 11
5000.2466311543439588
 21
302.1366346262324782
 31
0.0
  0
LINE
  5
28BAB
  8
0
 10
5000.1938520869944114
 20
302.1558446357469734
 30
0.0
 11
5000.1923713624692027
 21
302.1517763784780186
 31
0.0
  0
LINE
  5
28BAC
  8
0
 10
5000.1923713624692027
 20
302.1517763784780186
 30
0.0
 11
5000.2048714974271206
 21
302.1383492379451923
 31
0.0
  0
LINE
  5
28BAD
  8
0
 10
5000.2048714974271206
 20
302.1383492379451923
 30
0.0
 11
5000.2202175486672786
 21
302.1285946073728041
 31
0.0
  0
LINE
  5
28BAE
  8
0
 10
5000.2202175486672786
 20
302.1285946073728041
 30
0.0
 11
5000.2219352812671787
 21
302.1333140389727987
 31
0.0
  0
LINE
  5
28BAF
  8
0
 10
5000.2219352812671787
 20
302.1333140389727987
 30
0.0
 11
5000.2088946396061147
 21
302.1473294399692122
 31
0.0
  0
LINE
  5
28BB0
  8
0
 10
5000.2088946396061147
 20
302.1473294399692122
 30
0.0
 11
5000.1968186211661305
 21
302.1547649056093974
 31
0.0
  0
LINE
  5
28BB1
  8
0
 10
5000.1898306617213166
 20
302.1447958604164796
 30
0.0
 11
5000.1887984874665563
 21
302.1419599849728002
 31
0.0
  0
LINE
  5
28BB2
  8
0
 10
5000.1887984874665563
 20
302.1419599849728002
 30
0.0
 11
5000.2022412555288611
 21
302.1290494175182744
 31
0.0
  0
LINE
  5
28BB3
  8
0
 10
5000.2022412555288611
 20
302.1290494175182744
 30
0.0
 11
5000.2167231144303514
 21
302.1189937282219944
 31
0.0
  0
LINE
  5
28BB4
  8
0
 10
5000.2167231144303514
 20
302.1189937282219944
 30
0.0
 11
5000.2177329275673401
 21
302.1217681669727995
 31
0.0
  0
LINE
  5
28BB5
  8
0
 10
5000.2177329275673401
 20
302.1217681669727995
 30
0.0
 11
5000.2042828981675484
 21
302.1346587844727765
 31
0.0
  0
LINE
  5
28BB6
  8
0
 10
5000.2042828981675484
 20
302.1346587844727765
 30
0.0
 11
5000.1898306616667469
 21
302.1447958603728239
 31
0.0
  0
LINE
  5
28BB7
  8
0
 10
5000.2144073161680353
 20
302.1309243124728141
 30
0.0
 11
5000.2130438820668132
 21
302.1271783079728266
 31
0.0
  0
LINE
  5
28BB8
  8
0
 10
5000.2130438820668132
 20
302.1271783079728266
 30
0.0
 11
5000.2266351323269191
 21
302.1146756906168207
 31
0.0
  0
LINE
  5
28BB9
  8
0
 10
5000.2266351323269191
 20
302.1146756906168207
 30
0.0
 11
5000.2415860457122108
 21
302.1059087194266226
 31
0.0
  0
LINE
  5
28BBA
  8
0
 10
5000.2415860457122108
 20
302.1059087194266226
 30
0.0
 11
5000.242924502533242
 21
302.1095860992331836
 31
0.0
  0
LINE
  5
28BBB
  8
0
 10
5000.242924502533242
 20
302.1095860992331836
 30
0.0
 11
5000.2293367280035454
 21
302.1220982645056097
 31
0.0
  0
LINE
  5
28BBC
  8
0
 10
5000.2293367280035454
 20
302.1220982645056097
 30
0.0
 11
5000.2144073161680353
 21
302.1309243124728141
 31
0.0
  0
LINE
  5
28BBD
  8
0
 10
5000.211190033866842
 20
302.1220849021727872
 30
0.0
 11
5000.2105185682930824
 21
302.1202400656430882
 31
0.0
  0
LINE
  5
28BBE
  8
0
 10
5000.2105185682930824
 20
302.1202400656430882
 30
0.0
 11
5000.22447275896684
 21
302.1087346200728234
 31
0.0
  0
LINE
  5
28BBF
  8
0
 10
5000.22447275896684
 20
302.1087346200728234
 30
0.0
 11
5000.2391060788668256
 21
302.0990950663727972
 31
0.0
  0
LINE
  5
28BC0
  8
0
 10
5000.2391060788668256
 20
302.0990950663727972
 30
0.0
 11
5000.239765601126237
 21
302.1009070889584223
 31
0.0
  0
LINE
  5
28BC1
  8
0
 10
5000.239765601126237
 20
302.1009070889584223
 30
0.0
 11
5000.225803592160446
 21
302.1123910539496933
 31
0.0
  0
LINE
  5
28BC2
  8
0
 10
5000.225803592160446
 20
302.1123910539496933
 30
0.0
 11
5000.2111900338977648
 21
302.1220849021519257
 31
0.0
  0
LINE
  5
28BC3
  8
0
 10
5000.2358062412558866
 20
302.108322025099028
 30
0.0
 11
5000.2348079682669777
 21
302.1055792924727825
 31
0.0
  0
LINE
  5
28BC4
  8
0
 10
5000.2348079682669777
 20
302.1055792924727825
 30
0.0
 11
5000.2489021989040339
 21
302.0944586018442806
 31
0.0
  0
LINE
  5
28BC5
  8
0
 10
5000.2489021989040339
 20
302.0944586018442806
 30
0.0
 11
5000.2639940028666388
 21
302.0860787245728147
 31
0.0
  0
LINE
  5
28BC6
  8
0
 10
5000.2639940028666388
 20
302.0860787245728147
 30
0.0
 11
5000.2649776697671768
 21
302.088781327272784
 31
0.0
  0
LINE
  5
28BC7
  8
0
 10
5000.2649776697671768
 20
302.088781327272784
 30
0.0
 11
5000.2508839965003062
 21
302.0999035470809986
 31
0.0
  0
LINE
  5
28BC8
  8
0
 10
5000.2508839965003062
 20
302.0999035470809986
 30
0.0
 11
5000.2358062412558866
 21
302.108322025099028
 31
0.0
  0
LINE
  5
28BC9
  8
0
 10
5000.2613731910150818
 20
302.0971712908013274
 30
0.0
 11
5000.260047368558844
 21
302.093528623690986
 31
0.0
  0
LINE
  5
28BCA
  8
0
 10
5000.260047368558844
 20
302.093528623690986
 30
0.0
 11
5000.2742704034926646
 21
302.0827618215968187
 31
0.0
  0
LINE
  5
28BCB
  8
0
 10
5000.2742704034926646
 20
302.0827618215968187
 30
0.0
 11
5000.289811436868149
 21
302.0756161903727843
 31
0.0
  0
LINE
  5
28BCC
  8
0
 10
5000.289811436868149
 20
302.0756161903727843
 30
0.0
 11
5000.2911217918399416
 21
302.0792163610425973
 31
0.0
  0
LINE
  5
28BCD
  8
0
 10
5000.2911217918399416
 20
302.0792163610425973
 30
0.0
 11
5000.2769064903977778
 21
302.0900044100739024
 31
0.0
  0
LINE
  5
28BCE
  8
0
 10
5000.2769064903977778
 20
302.0900044100739024
 30
0.0
 11
5000.2613731909523267
 21
302.0971712908317954
 31
0.0
  0
LINE
  5
28BCF
  8
0
 10
5000.2880286107074426
 20
302.0707179158812892
 30
0.0
 11
5000.2873825488059083
 21
302.0689428753557877
 31
0.0
  0
LINE
  5
28BD0
  8
0
 10
5000.2873825488059083
 20
302.0689428753557877
 30
0.0
 11
5000.2721591918698323
 21
302.0769613154142803
 31
0.0
  0
LINE
  5
28BD1
  8
0
 10
5000.2721591918698323
 20
302.0769613154142803
 30
0.0
 11
5000.2575903586212007
 21
302.0867780444364143
 31
0.0
  0
LINE
  5
28BD2
  8
0
 10
5000.2575903586212007
 20
302.0867780444364143
 30
0.0
 11
5000.2582438322097005
 21
302.0885734483945839
 31
0.0
  0
LINE
  5
28BD3
  8
0
 10
5000.2582438322097005
 20
302.0885734483945839
 30
0.0
 11
5000.2734586688093259
 21
302.0805316006010912
 31
0.0
  0
LINE
  5
28BD4
  8
0
 10
5000.2734586688093259
 20
302.0805316006010912
 30
0.0
 11
5000.2880286107074426
 21
302.0707179158812892
 31
0.0
  0
LINE
  5
28BD5
  8
0
 10
5000.2624767756669826
 20
302.0819101771728015
 30
0.0
 11
5000.2628015965674422
 21
302.082802615272783
 31
0.0
  0
LINE
  5
28BD6
  8
0
 10
5000.2628015965674422
 20
302.082802615272783
 30
0.0
 11
5000.2483584778483419
 21
302.0929647415337058
 31
0.0
  0
LINE
  5
28BD7
  8
0
 10
5000.2483584778483419
 20
302.0929647415337058
 30
0.0
 11
5000.2335980561665565
 21
302.1022550860727733
 31
0.0
  0
LINE
  5
28BD8
  8
0
 10
5000.2335980561665565
 20
302.1022550860727733
 30
0.0
 11
5000.2332685038672935
 21
302.1013496487727821
 31
0.0
  0
LINE
  5
28BD9
  8
0
 10
5000.2332685038672935
 20
302.1013496487727821
 30
0.0
 11
5000.2373821747787588
 21
302.098243238049406
 31
0.0
  0
LINE
  5
28BDA
  8
0
 10
5000.2624767756669826
 20
302.0819101771728015
 30
0.0
 11
5000.2578516395024053
 21
302.0845723931213911
 31
0.0
  0
LINE
  5
28BDB
  8
0
 10
5000.1844673152127143
 20
302.1592604133321061
 30
0.0
 11
5000.1967708083675461
 21
302.1455705689728006
 31
0.0
  0
LINE
  5
28BDC
  8
0
 10
5000.1967708083675461
 20
302.1455705689728006
 30
0.0
 11
5000.1953880040628064
 21
302.1417713452783005
 31
0.0
  0
LINE
  5
28BDD
  8
0
 10
5000.1953880040628064
 20
302.1417713452783005
 30
0.0
 11
5000.1810735319422747
 21
302.1522869259421213
 31
0.0
  0
LINE
  5
28BDE
  8
0
 10
5000.1810735319422747
 20
302.1522869259421213
 30
0.0
 11
5000.1699471687888945
 21
302.1645453144291764
 31
0.0
  0
LINE
  5
28BDF
  8
0
 10
5000.1586269197978254
 20
302.1686655481076968
 30
0.0
 11
5000.1715518792680086
 21
302.1576774818746003
 31
0.0
  0
LINE
  5
28BE0
  8
0
 10
5000.1715518792680086
 20
302.1576774818746003
 30
0.0
 11
5000.1726011888149515
 21
302.1605604359680228
 31
0.0
  0
LINE
  5
28BE1
  8
0
 10
5000.1726011888149515
 20
302.1605604359680228
 30
0.0
 11
5000.1686515762048657
 21
302.1650168715657969
 31
0.0
  0
LINE
  5
28BE2
  8
0
 10
5000.1662545655672147
 20
302.1614164197728201
 30
0.0
 11
5000.1655561381739972
 21
302.159497506192622
 31
0.0
  0
LINE
  5
28BE3
  8
0
 10
5000.1655561381739972
 20
302.159497506192622
 30
0.0
 11
5000.178832851513107
 21
302.146130705048904
 31
0.0
  0
LINE
  5
28BE4
  8
0
 10
5000.178832851513107
 20
302.146130705048904
 30
0.0
 11
5000.1928275579894034
 21
302.1347365777349978
 31
0.0
  0
LINE
  5
28BE5
  8
0
 10
5000.1928275579894034
 20
302.1347365777349978
 30
0.0
 11
5000.1928275579894034
 21
302.1366068248727856
 31
0.0
  0
LINE
  5
28BE6
  8
0
 10
5000.1928275579894034
 20
302.1366068248727856
 30
0.0
 11
5000.1802116587350611
 21
302.1499189482527754
 31
0.0
  0
LINE
  5
28BE7
  8
0
 10
5000.1802116587350611
 20
302.1499189482527754
 30
0.0
 11
5000.1662545655399299
 21
302.1614164196976731
 31
0.0
  0
LINE
  5
28BE8
  8
0
 10
5000.167494665212871
 20
302.1553740354652859
 30
0.0
 11
5000.1699348149668367
 21
302.1532346341728044
 31
0.0
  0
LINE
  5
28BE9
  8
0
 10
5000.1699348149668367
 20
302.1532346341728044
 30
0.0
 11
5000.1702808676163841
 21
302.1541854061422896
 31
0.0
  0
LINE
  5
28BEA
  8
0
 10
5000.1702808676163841
 20
302.1541854061422896
 30
0.0
 11
5000.1553664820121412
 21
302.1698522504129869
 31
0.0
  0
LINE
  5
28BEB
  8
0
 10
5000.1872074591447017
 20
302.1375886706234155
 30
0.0
 11
5000.1875479773971165
 21
302.1385242369885873
 31
0.0
  0
LINE
  5
28BEC
  8
0
 10
5000.1875479773971165
 20
302.1385242369885873
 30
0.0
 11
5000.2016813375521451
 21
302.1275110555308174
 31
0.0
  0
LINE
  5
28BED
  8
0
 10
5000.2016813375521451
 20
302.1275110555308174
 30
0.0
 11
5000.2154993772683156
 21
302.1156315379727744
 31
0.0
  0
LINE
  5
28BEE
  8
0
 10
5000.2154993772683156
 20
302.1156315379727744
 30
0.0
 11
5000.2151660897216061
 21
302.1147158380035762
 31
0.0
  0
LINE
  5
28BEF
  8
0
 10
5000.2151660897216061
 20
302.1147158380035762
 30
0.0
 11
5000.2132316892393646
 21
302.1160272519625778
 31
0.0
  0
LINE
  5
28BF0
  8
0
 10
5000.1872074591447017
 20
302.1375886706234155
 30
0.0
 11
5000.1887426815746949
 21
302.1360907250526111
 31
0.0
  0
LINE
  5
28BF1
  8
0
 10
5000.3153003353827444
 20
302.1116410883145136
 30
0.0
 11
5000.3134103245683946
 21
302.1064483263727993
 31
0.0
  0
LINE
  5
28BF2
  8
0
 10
5000.3134103245683946
 20
302.1064483263727993
 30
0.0
 11
5000.3125946566788116
 21
302.1066614905698202
 31
0.0
  0
LINE
  5
28BF3
  8
0
 10
5000.3125946566788116
 20
302.1066614905698202
 30
0.0
 11
5000.3018239416396682
 21
302.1165460945035193
 31
0.0
  0
LINE
  5
28BF4
  8
0
 10
5000.3125946566669882
 20
302.1066614905727761
 30
0.0
 11
5000.3145115727847951
 21
302.1119281744220189
 31
0.0
  0
LINE
  5
28BF5
  8
0
 10
5000.2782856003668712
 20
302.0937934843727817
 30
0.0
 11
5000.282637558116221
 21
302.1048094021223278
 31
0.0
  0
LINE
  5
28BF6
  8
0
 10
5000.2769064903977778
 20
302.0900044100739024
 30
0.0
 11
5000.2742704034926646
 21
302.0827618215968187
 31
0.0
  0
LINE
  5
28BF7
  8
0
 10
5000.3038690544672136
 20
302.0826880957728235
 30
0.0
 11
5000.3005659813989041
 21
302.0736129771225933
 31
0.0
  0
LINE
  5
28BF8
  8
0
 10
5000.2994836674079124
 20
302.070639343645496
 30
0.0
 11
5000.297538960863676
 21
302.0652963064175083
 31
0.0
  0
LINE
  5
28BF9
  8
0
 10
5000.2970052886830672
 20
302.0638300541472177
 30
0.0
 11
5000.2963629869682336
 21
302.0620653445727726
 31
0.0
  0
LINE
  5
28BFA
  8
0
 10
5000.2721591918698323
 20
302.0769613154142803
 30
0.0
 11
5000.2734586688093259
 21
302.0805316006010912
 31
0.0
  0
LINE
  5
28BFB
  8
0
 10
5000.2483584778483419
 20
302.0929647415337058
 30
0.0
 11
5000.2473385953962861
 21
302.0914392313219992
 31
0.0
  0
LINE
  5
28BFC
  8
0
 10
5000.2489021989040339
 20
302.0944586018442806
 30
0.0
 11
5000.2508839965003062
 21
302.0999035470809986
 31
0.0
  0
LINE
  5
28BFD
  8
0
 10
5000.2519872822331308
 20
302.1029347993098213
 30
0.0
 11
5000.2553558598674499
 21
302.1121898910727737
 31
0.0
  0
LINE
  5
28BFE
  8
0
 10
5000.2570528176665903
 20
302.1168522444727955
 30
0.0
 11
5000.2625516620519193
 21
302.1299514351372864
 31
0.0
  0
LINE
  5
28BFF
  8
0
 10
5000.2307508549092745
 20
302.1259835470286816
 30
0.0
 11
5000.2349093690718291
 21
302.1374089704916059
 31
0.0
  0
LINE
  5
28C00
  8
0
 10
5000.2293367280035454
 20
302.1220982645056097
 30
0.0
 11
5000.2266351323269191
 21
302.1146756906168207
 31
0.0
  0
LINE
  5
28C01
  8
0
 10
5000.225803592160446
 20
302.1123910539496933
 30
0.0
 11
5000.22447275896684
 21
302.1087346200728234
 31
0.0
  0
LINE
  5
28C02
  8
0
 10
5000.2088946396061147
 20
302.1473294399692122
 30
0.0
 11
5000.2048714974271206
 21
302.1383492379451923
 31
0.0
  0
LINE
  5
28C03
  8
0
 10
5000.2042828981675484
 20
302.1346587844727765
 30
0.0
 11
5000.2022412555288611
 21
302.1290494175182744
 31
0.0
  0
LINE
  5
28C04
  8
0
 10
5000.2016813375521451
 20
302.1275110555308174
 30
0.0
 11
5000.2005568170634433
 21
302.1261402942964764
 31
0.0
  0
LINE
  5
28C05
  8
0
 10
5000.178832851513107
 20
302.146130705048904
 30
0.0
 11
5000.1794767256687919
 21
302.1505243660005817
 31
0.0
  0
LINE
  5
28C06
  8
0
 10
5000.1810735319422747
 20
302.1522869259421213
 30
0.0
 11
5000.1837117648146886
 21
302.1595354111869938
 31
0.0
  0
LINE
  5
28C07
  8
0
 10
5000.441085961767385
 20
302.0658588643727853
 30
0.0
 11
5000.4216479001197513
 21
302.0124532291338255
 31
0.0
  0
ARC
  5
28C08
  8
0
 10
5000.5734671581540169
 20
302.5790324613711846
 30
0.0
 40
0.5865763332589066
 50
254.9994683342260089
 51
264.0418881056149871
  0
ARC
  5
28C09
  8
0
 10
5000.579117719322312
 20
302.6469658358212769
 30
0.0
 40
0.654730835841503
 50
264.1671628224054871
 51
269.5457170379578997
  0
ARC
  5
28C0A
  8
0
 10
5000.5642666805852059
 20
302.8004562564416915
 30
0.0
 40
0.8082584040928708
 50
270.6847872760777136
 51
273.7999975926942966
  0
ARC
  5
28C0B
  8
0
 10
5000.5711164447211559
 20
302.6359758349177014
 30
0.0
 40
0.6436984793543191
 50
274.1619200063714175
 51
275.6618278019132049
  0
LINE
  5
28C0C
  8
0
 10
5000.4663581409113249
 20
302.0432052782995243
 30
0.0
 11
5000.4672560590097419
 21
302.0432180946340281
 31
0.0
  0
LINE
  5
28C0D
  8
0
 10
5000.4672560590097419
 20
302.0432180946340281
 30
0.0
 11
5000.4829651059480966
 21
302.0365340769531031
 31
0.0
  0
LINE
  5
28C0E
  8
0
 10
5000.4829651059480966
 20
302.0365340769531031
 30
0.0
 11
5000.4805719195310303
 21
302.029958851359595
 31
0.0
  0
LINE
  5
28C0F
  8
0
 10
5000.4805719195310303
 20
302.029958851359595
 30
0.0
 11
5000.4624919155394309
 21
302.0301287176221763
 31
0.0
  0
LINE
  5
28C10
  8
0
 10
5000.4624919155394309
 20
302.0301287176221763
 30
0.0
 11
5000.4617031528123334
 21
302.0304158037783964
 31
0.0
  0
LINE
  5
28C11
  8
0
 10
5000.4617031528123334
 20
302.0304158037783964
 30
0.0
 11
5000.4663581408776736
 21
302.0432052782991263
 31
0.0
  0
LINE
  5
28C12
  8
0
 10
5000.4672560590488501
 20
302.0432180946344829
 30
0.0
 11
5000.4624919153893643
 21
302.0301287176819187
 31
0.0
  0
LINE
  5
28C13
  8
0
 10
5000.4768811394242221
 20
302.0198185164991855
 30
0.0
 11
5000.4752222967335911
 21
302.0152608835055048
 31
0.0
  0
LINE
  5
28C14
  8
0
 10
5000.4752222967335911
 20
302.0152608835055048
 30
0.0
 11
5000.4575257509350195
 21
302.0164842929333986
 31
0.0
  0
LINE
  5
28C15
  8
0
 10
5000.4575257509350195
 20
302.0164842929333986
 30
0.0
 11
5000.4567369883434367
 21
302.0167713790376069
 31
0.0
  0
LINE
  5
28C16
  8
0
 10
5000.4567369883434367
 20
302.0167713790376069
 30
0.0
 11
5000.4599509444951764
 21
302.0256016510045924
 31
0.0
  0
LINE
  5
28C17
  8
0
 10
5000.4599509444951764
 20
302.0256016510045924
 30
0.0
 11
5000.4608288240087859
 21
302.0255594115811277
 31
0.0
  0
LINE
  5
28C18
  8
0
 10
5000.4608288240087859
 20
302.0255594115811277
 30
0.0
 11
5000.4768811394242221
 21
302.0198185164991855
 31
0.0
  0
LINE
  5
28C19
  8
0
 10
5000.4728210661560297
 20
302.0086635569139162
 30
0.0
 11
5000.4718445553116908
 21
302.0059806152631836
 31
0.0
  0
LINE
  5
28C1A
  8
0
 10
5000.4718445553116908
 20
302.0059806152631836
 30
0.0
 11
5000.4544987302933805
 21
302.0081676222667966
 31
0.0
  0
LINE
  5
28C1B
  8
0
 10
5000.4544987302933805
 20
302.0081676222667966
 30
0.0
 11
5000.453687192731195
 21
302.0083921346284228
 31
0.0
  0
LINE
  5
28C1C
  8
0
 10
5000.453687192731195
 20
302.0083921346284228
 30
0.0
 11
5000.4555835732398918
 21
302.0136023972248154
 31
0.0
  0
LINE
  5
28C1D
  8
0
 10
5000.4555835732398918
 20
302.0136023972248154
 30
0.0
 11
5000.4564434367912327
 21
302.0135106595116099
 31
0.0
  0
LINE
  5
28C1E
  8
0
 10
5000.4564434367912327
 20
302.0135106595116099
 30
0.0
 11
5000.4728210661560297
 21
302.0086635569139162
 31
0.0
  0
LINE
  5
28C1F
  8
0
 10
5000.4703382274619798
 20
302.0018420136847794
 30
0.0
 11
5000.4706607289181193
 21
302.0027280790640134
 31
0.0
  0
LINE
  5
28C20
  8
0
 10
5000.4706607289181193
 20
302.0027280790640134
 30
0.0
 11
5000.4539650581064052
 21
302.0067013699995755
 31
0.0
  0
LINE
  5
28C21
  8
0
 10
5000.4539650581064052
 20
302.0067013699995755
 30
0.0
 11
5000.4531219115469867
 21
302.0068390373219813
 31
0.0
  0
LINE
  5
28C22
  8
0
 10
5000.4531219115469867
 20
302.0068390373219813
 30
0.0
 11
5000.4524955680080893
 21
302.0051181725003744
 31
0.0
  0
LINE
  5
28C23
  8
0
 10
5000.4524955680080893
 20
302.0051181725003744
 30
0.0
 11
5000.4533227563142646
 21
302.0049366604524153
 31
0.0
  0
LINE
  5
28C24
  8
0
 10
5000.4533227563142646
 20
302.0049366604524153
 30
0.0
 11
5000.4703382274792602
 21
302.0018420136922259
 31
0.0
  0
LINE
  5
28C25
  8
0
 10
5000.4805569144045876
 20
302.0482108126565777
 30
0.0
 11
5000.4777732105476389
 21
302.0405626492849933
 31
0.0
  0
LINE
  5
28C26
  8
0
 10
5000.4777732105476389
 20
302.0405626492849933
 30
0.0
 11
5000.4936078674609234
 21
302.0342237424312088
 31
0.0
  0
LINE
  5
28C27
  8
0
 10
5000.4936078674609234
 20
302.0342237424312088
 30
0.0
 11
5000.5122207938611609
 21
302.0355180678163833
 31
0.0
  0
LINE
  5
28C28
  8
0
 10
5000.5122207938611609
 20
302.0355180678163833
 30
0.0
 11
5000.5136509432986713
 21
302.0394473708844885
 31
0.0
  0
LINE
  5
28C29
  8
0
 10
5000.4805569144045876
 20
302.0482108126565777
 30
0.0
 11
5000.4882987329301613
 21
302.0486748208908807
 31
0.0
  0
LINE
  5
28C2A
  8
0
 10
5000.4936078675900717
 20
302.0342237423827783
 30
0.0
 11
5000.4976313038787339
 21
302.0452780428345818
 31
0.0
  0
LINE
  5
28C2B
  8
0
 10
5000.507795944400641
 20
302.0233608936650853
 30
0.0
 11
5000.5057571667257434
 21
302.0177593983293036
 31
0.0
  0
LINE
  5
28C2C
  8
0
 10
5000.5057571667257434
 20
302.0177593983293036
 30
0.0
 11
5000.4875652930350043
 21
302.0176219054400235
 31
0.0
  0
LINE
  5
28C2D
  8
0
 10
5000.4875652930350043
 20
302.0176219054400235
 30
0.0
 11
5000.4713906397491883
 21
302.0230266803550876
 31
0.0
  0
LINE
  5
28C2E
  8
0
 10
5000.4713906397491883
 20
302.0230266803550876
 30
0.0
 11
5000.4734044420893042
 21
302.0285595565700874
 31
0.0
  0
LINE
  5
28C2F
  8
0
 10
5000.4734044420893042
 20
302.0285595565700874
 30
0.0
 11
5000.4916178151506756
 21
302.0287561184812262
 31
0.0
  0
LINE
  5
28C30
  8
0
 10
5000.4916178151506756
 20
302.0287561184812262
 30
0.0
 11
5000.507795944398822
 21
302.0233608937406871
 31
0.0
  0
LINE
  5
28C31
  8
0
 10
5000.5335981416037612
 20
302.012856496832228
 30
0.0
 11
5000.5319008428632515
 21
302.0081932069469985
 31
0.0
  0
LINE
  5
28C32
  8
0
 10
5000.5319008428632515
 20
302.0081932069469985
 30
0.0
 11
5000.5135868974612094
 21
302.0077203258408076
 31
0.0
  0
LINE
  5
28C33
  8
0
 10
5000.5135868974612094
 20
302.0077203258408076
 30
0.0
 11
5000.496957143707732
 21
302.0118747215673807
 31
0.0
  0
LINE
  5
28C34
  8
0
 10
5000.496957143707732
 20
302.0118747215673807
 30
0.0
 11
5000.4986286209023092
 21
302.0164670670969826
 31
0.0
  0
LINE
  5
28C35
  8
0
 10
5000.4986286209023092
 20
302.0164670670969826
 30
0.0
 11
5000.5169554756139405
 21
302.0169754174150967
 31
0.0
  0
LINE
  5
28C36
  8
0
 10
5000.5169554756139405
 20
302.0169754174150967
 30
0.0
 11
5000.5335981416492359
 21
302.0128564968342744
 31
0.0
  0
LINE
  5
28C37
  8
0
 10
5000.5278996609722526
 20
302.0154932378223975
 30
0.0
 11
5000.5299588724437854
 21
302.0211508745993001
 31
0.0
  0
LINE
  5
28C38
  8
0
 10
5000.5299588724437854
 20
302.0211508745993001
 30
0.0
 11
5000.5488289080603863
 21
302.023151602049893
 31
0.0
  0
LINE
  5
28C39
  8
0
 10
5000.5488289080603863
 20
302.023151602049893
 30
0.0
 11
5000.5656198864444377
 21
302.0194401666681188
 31
0.0
  0
LINE
  5
28C3A
  8
0
 10
5000.5656198864444377
 20
302.0194401666681188
 30
0.0
 11
5000.563520189767587
 21
302.0136712972519035
 31
0.0
  0
LINE
  5
28C3B
  8
0
 10
5000.563520189767587
 20
302.0136712972519035
 30
0.0
 11
5000.5446703940642692
 21
302.0117261785268852
 31
0.0
  0
LINE
  5
28C3C
  8
0
 10
5000.5446703940642692
 20
302.0117261785268852
 30
0.0
 11
5000.5278996609722526
 21
302.0154932378223975
 31
0.0
  0
LINE
  5
28C3D
  8
0
 10
5000.539810904820115
 20
302.0299259234997749
 30
0.0
 11
5000.5373769962870938
 21
302.0232388146624203
 31
0.0
  0
LINE
  5
28C3E
  8
0
 10
5000.5373769962870938
 20
302.0232388146624203
 30
0.0
 11
5000.5186524335276772
 21
302.0216377707732818
 31
0.0
  0
LINE
  5
28C3F
  8
0
 10
5000.5186524335276772
 20
302.0216377707732818
 30
0.0
 11
5000.5026327941677664
 21
302.0274684428292744
 31
0.0
  0
LINE
  5
28C40
  8
0
 10
5000.5026327941677664
 20
302.0274684428292744
 30
0.0
 11
5000.5047608738614144
 21
302.0333152935958765
 31
0.0
  0
LINE
  5
28C41
  8
0
 10
5000.5047608738614144
 20
302.0333152935958765
 30
0.0
 11
5000.5235170519090389
 21
302.035003200026722
 31
0.0
  0
LINE
  5
28C42
  8
0
 10
5000.5235170519090389
 20
302.035003200026722
 30
0.0
 11
5000.5393517607089962
 21
302.0300930382906017
 31
0.0
  0
LINE
  5
28C43
  8
0
 10
5000.5921308280212543
 20
302.0108830286728221
 30
0.0
 11
5000.5906501034423854
 21
302.0068147714238194
 31
0.0
  0
LINE
  5
28C44
  8
0
 10
5000.5906501034423854
 20
302.0068147714238194
 30
0.0
 11
5000.5724436449454515
 21
302.0045639169417768
 31
0.0
  0
LINE
  5
28C45
  8
0
 10
5000.5724436449454515
 20
302.0045639169417768
 30
0.0
 11
5000.5544177320052768
 21
302.0069556880313257
 31
0.0
  0
LINE
  5
28C46
  8
0
 10
5000.5544177320052768
 20
302.0069556880313257
 30
0.0
 11
5000.5561354646597465
 21
302.0116751196114251
 31
0.0
  0
LINE
  5
28C47
  8
0
 10
5000.5561354646597465
 20
302.0116751196114251
 30
0.0
 11
5000.5751341018503808
 21
302.0140291767392
 31
0.0
  0
LINE
  5
28C48
  8
0
 10
5000.5751341018503808
 20
302.0140291767392
 30
0.0
 11
5000.5891642938522637
 21
302.0119627588161961
 31
0.0
  0
LINE
  5
28C49
  8
0
 10
5000.5881094025962739
 20
301.999834253397978
 30
0.0
 11
5000.587077228344242
 21
301.9969983779533891
 31
0.0
  0
LINE
  5
28C4A
  8
0
 10
5000.587077228344242
 20
301.9969983779533891
 30
0.0
 11
5000.5684807177740367
 21
301.9957491542879211
 31
0.0
  0
LINE
  5
28C4B
  8
0
 10
5000.5684807177740367
 20
301.9957491542879211
 30
0.0
 11
5000.5509232977537977
 21
301.9973548088858024
 31
0.0
  0
LINE
  5
28C4C
  8
0
 10
5000.5509232977537977
 20
301.9973548088858024
 30
0.0
 11
5000.551933110869868
 21
302.0001292476442245
 31
0.0
  0
LINE
  5
28C4D
  8
0
 10
5000.551933110869868
 20
302.0001292476442245
 30
0.0
 11
5000.5705223603654304
 21
302.0013585212597036
 31
0.0
  0
LINE
  5
28C4E
  8
0
 10
5000.5705223603654304
 20
302.0013585212597036
 30
0.0
 11
5000.5881094026099163
 21
301.9998342533294817
 31
0.0
  0
LINE
  5
28C4F
  8
0
 10
5000.560366133892785
 20
302.0050056002039014
 30
0.0
 11
5000.5590026997233508
 21
302.0012595957296071
 31
0.0
  0
LINE
  5
28C50
  8
0
 10
5000.5590026997233508
 20
302.0012595957296071
 30
0.0
 11
5000.5405546704587323
 21
302.0004183224871781
 31
0.0
  0
LINE
  5
28C51
  8
0
 10
5000.5405546704587323
 20
302.0004183224871781
 30
0.0
 11
5000.5234663058918159
 21
302.0033126948384279
 31
0.0
  0
LINE
  5
28C52
  8
0
 10
5000.5234663058918159
 20
302.0033126948384279
 30
0.0
 11
5000.5248047626646439
 21
302.0069900746627241
 31
0.0
  0
LINE
  5
28C53
  8
0
 10
5000.5248047626646439
 20
302.0069900746627241
 30
0.0
 11
5000.5432562666483136
 21
302.0078408961895207
 31
0.0
  0
LINE
  5
28C54
  8
0
 10
5000.5432562666483136
 20
302.0078408961895207
 30
0.0
 11
5000.560366133892785
 21
302.0050056002039014
 31
0.0
  0
LINE
  5
28C55
  8
0
 10
5000.5571488516843601
 20
301.9961661898709053
 30
0.0
 11
5000.5564773860896821
 21
301.9943213533485959
 31
0.0
  0
LINE
  5
28C56
  8
0
 10
5000.5564773860896821
 20
301.9943213533485959
 30
0.0
 11
5000.5383922980090574
 21
301.9944772516121247
 31
0.0
  0
LINE
  5
28C57
  8
0
 10
5000.5383922980090574
 20
301.9944772516121247
 30
0.0
 11
5000.5209863389382008
 21
301.9964990418242792
 31
0.0
  0
LINE
  5
28C58
  8
0
 10
5000.5209863389382008
 20
301.9964990418242792
 30
0.0
 11
5000.5216458612476345
 21
301.9983110643913733
 31
0.0
  0
LINE
  5
28C59
  8
0
 10
5000.5216458612476345
 20
301.9983110643913733
 30
0.0
 11
5000.5397231310371353
 21
301.9981336855489076
 31
0.0
  0
LINE
  5
28C5A
  8
0
 10
5000.5397231310371353
 20
301.9981336855489076
 30
0.0
 11
5000.5571488516479803
 21
301.9961661898743159
 31
0.0
  0
LINE
  5
28C5B
  8
0
 10
5000.5294451359577579
 20
302.0014462075350821
 30
0.0
 11
5000.5284468628797185
 21
301.9987034749411805
 31
0.0
  0
LINE
  5
28C5C
  8
0
 10
5000.5284468628797185
 20
301.9987034749411805
 30
0.0
 11
5000.5105018136737272
 21
301.999244128542216
 31
0.0
  0
LINE
  5
28C5D
  8
0
 10
5000.5105018136737272
 20
301.999244128542216
 30
0.0
 11
5000.4935543398378286
 21
302.0025255947566052
 31
0.0
  0
LINE
  5
28C5E
  8
0
 10
5000.4935543398378286
 20
302.0025255947566052
 30
0.0
 11
5000.4945380068102168
 21
302.0052281974300854
 31
0.0
  0
LINE
  5
28C5F
  8
0
 10
5000.4945380068102168
 20
302.0052281974300854
 30
0.0
 11
5000.5124836119839529
 21
302.0046890735189891
 31
0.0
  0
LINE
  5
28C60
  8
0
 10
5000.5124836119839529
 20
302.0046890735189891
 30
0.0
 11
5000.5294451359577579
 21
302.0014462075350821
 31
0.0
  0
LINE
  5
28C61
  8
0
 10
5000.5026921623393719
 20
302.0093383680700754
 30
0.0
 11
5000.501366339971355
 21
302.0056957009280154
 31
0.0
  0
LINE
  5
28C62
  8
0
 10
5000.501366339971355
 20
302.0056957009280154
 30
0.0
 11
5000.4835500961171419
 21
302.0065902426792945
 31
0.0
  0
LINE
  5
28C63
  8
0
 10
5000.4835500961171419
 20
302.0065902426792945
 30
0.0
 11
5000.4670518506545704
 21
302.0111059553186124
 31
0.0
  0
LINE
  5
28C64
  8
0
 10
5000.4670518506545704
 20
302.0111059553186124
 30
0.0
 11
5000.4683622056181775
 21
302.0147061259925749
 31
0.0
  0
LINE
  5
28C65
  8
0
 10
5000.4683622056181775
 20
302.0147061259925749
 30
0.0
 11
5000.4861861825411324
 21
302.013832831331797
 31
0.0
  0
LINE
  5
28C66
  8
0
 10
5000.4861861825411324
 20
302.013832831331797
 30
0.0
 11
5000.502692162407584
 21
302.0093383680530792
 31
0.0
  0
LINE
  5
28C67
  8
0
 10
5000.4652690245657141
 20
302.0062076808017082
 30
0.0
 11
5000.464622962635076
 21
302.0044326402867796
 31
0.0
  0
LINE
  5
28C68
  8
0
 10
5000.464622962635076
 20
302.0044326402867796
 30
0.0
 11
5000.4814388845315989
 21
302.0007897364830001
 31
0.0
  0
LINE
  5
28C69
  8
0
 10
5000.4814388845315989
 20
302.0007897364830001
 30
0.0
 11
5000.4989093300628156
 21
301.9989451216629277
 31
0.0
  0
LINE
  5
28C6A
  8
0
 10
5000.4989093300628156
 20
301.9989451216629277
 30
0.0
 11
5000.4995628036749622
 21
302.0007405256125139
 31
0.0
  0
LINE
  5
28C6B
  8
0
 10
5000.4995628036749622
 20
302.0007405256125139
 30
0.0
 11
5000.4827383625315633
 21
302.0043600212840147
 31
0.0
  0
LINE
  5
28C6C
  8
0
 10
5000.4827383625315633
 20
302.0043600212840147
 30
0.0
 11
5000.4652690245657141
 21
302.0062076808017082
 31
0.0
  0
LINE
  5
28C6D
  8
0
 10
5000.4920371126745522
 20
301.9983570473430063
 30
0.0
 11
5000.4923619335841067
 21
301.9992494854395204
 31
0.0
  0
LINE
  5
28C6E
  8
0
 10
5000.4923619335841067
 20
301.9992494854395204
 30
0.0
 11
5000.5099580932674144
 21
301.9977502679956842
 31
0.0
  0
LINE
  5
28C6F
  8
0
 10
5000.5099580932674144
 20
301.9977502679956842
 30
0.0
 11
5000.5272369506274117
 21
301.9953792685965936
 31
0.0
  0
LINE
  5
28C70
  8
0
 10
5000.5272369506274117
 20
301.9953792685965936
 30
0.0
 11
5000.5269073984545685
 21
301.9944738312498771
 31
0.0
  0
LINE
  5
28C71
  8
0
 10
5000.5269073984545685
 20
301.9944738312498771
 30
0.0
 11
5000.5221429562698177
 21
301.9947186865160234
 31
0.0
  0
LINE
  5
28C72
  8
0
 10
5000.4920371126745522
 20
301.9983570473430063
 30
0.0
 11
5000.497291411956212
 21
301.9974234428449904
 31
0.0
  0
LINE
  5
28C73
  8
0
 10
5000.6015155997965849
 20
302.0074672510693858
 30
0.0
 11
5000.5832909148957697
 21
302.0048887548662151
 31
0.0
  0
LINE
  5
28C74
  8
0
 10
5000.5832909148957697
 20
302.0048887548662151
 30
0.0
 11
5000.5819081105237274
 21
302.0010895311962145
 31
0.0
  0
LINE
  5
28C75
  8
0
 10
5000.5819081105237274
 20
302.0010895311962145
 30
0.0
 11
5000.5996329173049162
 21
301.9999437679730931
 31
0.0
  0
LINE
  5
28C76
  8
0
 10
5000.5996329173049162
 20
301.9999437679730931
 30
0.0
 11
5000.6160357462085813
 21
302.0021823499437801
 31
0.0
  0
LINE
  5
28C77
  8
0
 10
5000.6273559951923744
 20
301.9980621162432044
 30
0.0
 11
5000.6103919089837291
 21
301.9979527730042719
 31
0.0
  0
LINE
  5
28C78
  8
0
 10
5000.6103919089837291
 20
301.9979527730042719
 30
0.0
 11
5000.6114412184133471
 21
302.0008357271407817
 31
0.0
  0
LINE
  5
28C79
  8
0
 10
5000.6114412184133471
 20
302.0008357271407817
 30
0.0
 11
5000.6173313387917005
 21
302.0017107928047153
 31
0.0
  0
LINE
  5
28C7A
  8
0
 10
5000.6168532296605918
 20
301.997411917978809
 30
0.0
 11
5000.616154802206438
 21
301.995493004421121
 31
0.0
  0
LINE
  5
28C7B
  8
0
 10
5000.616154802206438
 20
301.995493004421121
 30
0.0
 11
5000.5973922355706236
 21
301.9937875475549731
 31
0.0
  0
LINE
  5
28C7C
  8
0
 10
5000.5973922355706236
 20
301.9937875475549731
 30
0.0
 11
5000.5793476645803821
 21
301.9940547636057886
 31
0.0
  0
LINE
  5
28C7D
  8
0
 10
5000.5793476645803821
 20
301.9940547636057886
 30
0.0
 11
5000.5805498362706203
 21
301.9954874560303892
 31
0.0
  0
LINE
  5
28C7E
  8
0
 10
5000.5805498362706203
 20
301.9954874560303892
 30
0.0
 11
5000.598771043762099
 21
301.99757579040579
 31
0.0
  0
LINE
  5
28C7F
  8
0
 10
5000.598771043762099
 20
301.99757579040579
 30
0.0
 11
5000.6168532296333069
 21
301.9974119179037189
 31
0.0
  0
LINE
  5
28C80
  8
0
 10
5000.6112242573135518
 20
301.9935630579485064
 30
0.0
 11
5000.6087748446416299
 21
301.99350992531771
 31
0.0
  0
LINE
  5
28C81
  8
0
 10
5000.6087748446416299
 20
301.99350992531771
 30
0.0
 11
5000.6091208973766697
 21
301.9944606972555903
 31
0.0
  0
LINE
  5
28C82
  8
0
 10
5000.6091208973766697
 20
301.9944606972555903
 30
0.0
 11
5000.6306164329762396
 21
301.9968754139313774
 31
0.0
  0
LINE
  5
28C83
  8
0
 10
5000.5854862000369394
 20
301.9926270635980927
 30
0.0
 11
5000.5858267183930366
 21
301.9935626299254068
 31
0.0
  0
LINE
  5
28C84
  8
0
 10
5000.5858267183930366
 20
301.9935626299254068
 30
0.0
 11
5000.5679207998009588
 21
301.9942107922989862
 31
0.0
  0
LINE
  5
28C85
  8
0
 10
5000.5679207998009588
 20
301.9942107922989862
 30
0.0
 11
5000.549699560566296
 21
301.9939926186456205
 31
0.0
  0
LINE
  5
28C86
  8
0
 10
5000.549699560566296
 20
301.9939926186456205
 30
0.0
 11
5000.5493662730423239
 21
301.9930769186686916
 31
0.0
  0
LINE
  5
28C87
  8
0
 10
5000.5493662730423239
 20
301.9930769186686916
 30
0.0
 11
5000.5521556366011282
 21
301.992790390319783
 31
0.0
  0
LINE
  5
28C88
  8
0
 10
5000.5854862000369394
 20
301.9926270635980927
 30
0.0
 11
5000.5825150999489779
 21
301.9924038800592143
 31
0.0
  0
LINE
  5
28C89
  8
0
 10
5000.4706825797202328
 20
302.0550865763430011
 30
0.0
 11
5000.4687925689549957
 21
302.0498938143829832
 31
0.0
  0
LINE
  5
28C8A
  8
0
 10
5000.4687925689549957
 20
302.0498938143829832
 30
0.0
 11
5000.469554426112154
 21
302.0495328064176874
 31
0.0
  0
LINE
  5
28C8B
  8
0
 10
5000.469554426112154
 20
302.0495328064176874
 30
0.0
 11
5000.4841589734533045
 21
302.05018157012762
 31
0.0
  0
LINE
  5
28C8C
  8
0
 10
5000.469554426123068
 20
302.0495328064125147
 30
0.0
 11
5000.471471342316363
 21
302.0547994902340179
 31
0.0
  0
LINE
  5
28C8D
  8
0
 10
5000.4875652930350043
 20
302.0176219054400235
 30
0.0
 11
5000.4913123954456751
 21
302.028857972528499
 31
0.0
  0
LINE
  5
28C8E
  8
0
 10
5000.4861861825411324
 20
302.013832831331797
 30
0.0
 11
5000.4835500961171419
 21
302.0065902426792945
 31
0.0
  0
LINE
  5
28C8F
  8
0
 10
5000.4608288240087859
 20
302.0255594115811277
 30
0.0
 11
5000.4575257509350195
 21
302.0164842929333986
 31
0.0
  0
LINE
  5
28C90
  8
0
 10
5000.4564434367912327
 20
302.0135106595116099
 30
0.0
 11
5000.4544987302933805
 21
302.0081676222667966
 31
0.0
  0
LINE
  5
28C91
  8
0
 10
5000.4539650581064052
 20
302.0067013699995755
 30
0.0
 11
5000.4533227563142646
 21
302.0049366604524153
 31
0.0
  0
LINE
  5
28C92
  8
0
 10
5000.4814388845315989
 20
302.0007897364830001
 30
0.0
 11
5000.4827383625315633
 21
302.0043600212840147
 31
0.0
  0
LINE
  5
28C93
  8
0
 10
5000.5099580932674144
 20
301.9977502679956842
 30
0.0
 11
5000.509758789485204
 21
301.9959260915713912
 31
0.0
  0
LINE
  5
28C94
  8
0
 10
5000.5105018136737272
 20
301.999244128542216
 30
0.0
 11
5000.5124836119839529
 21
302.0046890735189891
 31
0.0
  0
LINE
  5
28C95
  8
0
 10
5000.5135868974612094
 20
302.0077203258408076
 30
0.0
 11
5000.5169554756139405
 21
302.0169754174150967
 31
0.0
  0
LINE
  5
28C96
  8
0
 10
5000.5186524335276772
 20
302.0216377707732818
 30
0.0
 11
5000.5228600718301095
 21
302.0352069220198814
 31
0.0
  0
LINE
  5
28C97
  8
0
 10
5000.5446703940642692
 20
302.0117261785268852
 30
0.0
 11
5000.5488289080603863
 21
302.023151602049893
 31
0.0
  0
LINE
  5
28C98
  8
0
 10
5000.5432562666483136
 20
302.0078408961895207
 30
0.0
 11
5000.5405546704587323
 21
302.0004183224871781
 31
0.0
  0
LINE
  5
28C99
  8
0
 10
5000.5397231310371353
 20
301.9981336855489076
 30
0.0
 11
5000.5383922980090574
 21
301.9944772516121247
 31
0.0
  0
LINE
  5
28C9A
  8
0
 10
5000.5751341018503808
 20
302.0140291767392
 30
0.0
 11
5000.5724436449454515
 21
302.0045639169417768
 31
0.0
  0
LINE
  5
28C9B
  8
0
 10
5000.5705223603654304
 20
302.0013585212597036
 30
0.0
 11
5000.5684807177740367
 21
301.9957491542879211
 31
0.0
  0
LINE
  5
28C9C
  8
0
 10
5000.5679207998009588
 20
301.9942107922989862
 30
0.0
 11
5000.5678999389256205
 21
301.9923311065221014
 31
0.0
  0
LINE
  5
28C9D
  8
0
 10
5000.5973922355706236
 20
301.9937875475549731
 30
0.0
 11
5000.599723190180157
 21
301.9975671614370754
 31
0.0
  0
LINE
  5
28C9E
  8
0
 10
5000.5996329173049162
 20
301.9999437679730931
 30
0.0
 11
5000.602271150191882
 21
302.0071922532129065
 31
0.0
  0
ARC
  5
28C9F
  8
0
 10
5005.095288642100968
 20
292.241927232179421
 30
0.0
 40
0.0196850389605796
 50
181.6593769582937057
 51
270.0000009012459827
  0
ARC
  5
28CA0
  8
0
 10
5007.1815043671122112
 20
292.2419272345862282
 30
0.0
 40
0.0196850414673631
 50
270.0000020313079858
 51
2.7284649505448231
  0
ARC
  5
28CA1
  8
0
 10
5007.0270220049105774
 20
298.2566937832302187
 30
0.0
 40
0.0196887269400934
 50
270.0409504371521052
 51
350.9248654823525158
  0
ARC
  5
28CA2
  8
0
 10
5007.0285778463348834
 20
298.2173199268547137
 30
0.0
 40
0.0196851344649502
 50
8.2564915740998632
 51
89.999479558574194
  0
LINE
  5
28CA3
  8
0
 10
5007.0285779641435511
 20
298.2370050613188823
 30
0.0
 11
5005.0015109904434212
 21
298.2370050613188823
 31
0.0
  0
ARC
  5
28CA4
  8
0
 10
5005.001569559739437
 20
298.2569722654657767
 30
0.0
 40
0.0199672900466335
 50
186.75661814851901
 51
269.8319362191705864
  0
ARC
  5
28CA5
  8
0
 10
5005.0023483301001761
 20
298.2173043419464875
 30
0.0
 40
0.0197069520444803
 50
91.4410414950638852
 51
173.7632832084385086
  0
ENDSEC
  0
EOF
