  0
SECTION
  2
HEADER
  9
$ACADVER
  1
AC1009
  9
$INSBASE
 10
3691.9652338470477844
 20
168.5938273490556014
 30
0.0
  9
$EXTMIN
 10
3685.3491489974771866
 20
168.5892331881325958
 30
0.0
  9
$EXTMAX
 10
3698.5815681922031217
 20
173.2353262099032065
 30
0.0
  9
$LIMMIN
 10
0.0
 20
0.0
  9
$LIMMAX
 10
11.6929133858000007
 20
8.2677165353999982
  9
$ORTHOMODE
 70
     0
  9
$REGENMODE
 70
     1
  9
$FILLMODE
 70
     1
  9
$QTEXTMODE
 70
     0
  9
$MIRRTEXT
 70
     0
  9
$DRAGMODE
 70
     2
  9
$LTSCALE
 40
0.6431102362
  9
$OSMODE
 70
  4095
  9
$ATTMODE
 70
     1
  9
$TEXTSIZE
 40
0.2
  9
$TRACEWID
 40
0.05
  9
$TEXTSTYLE
  7
STANDARD
  9
$CLAYER
  8
0
  9
$CELTYPE
  6
BYLAYER
  9
$CECOLOR
 62
   256
  9
$DIMSCALE
 40
1.0
  9
$DIMASZ
 40
0.1875
  9
$DIMEXO
 40
0.0625
  9
$DIMDLI
 40
0.4443307087
  9
$DIMRND
 40
0.0
  9
$DIMDLE
 40
0.0
  9
$DIMEXE
 40
0.125
  9
$DIMTP
 40
0.01
  9
$DIMTM
 40
0.01
  9
$DIMTXT
 40
2.0
  9
$DIMCEN
 40
0.1052362205
  9
$DIMTSZ
 40
0.0
  9
$DIMTOL
 70
     1
  9
$DIMLIM
 70
     0
  9
$DIMTIH
 70
     1
  9
$DIMTOH
 70
     1
  9
$DIMSE1
 70
     0
  9
$DIMSE2
 70
     0
  9
$DIMTAD
 70
     0
  9
$DIMZIN
 70
     0
  9
$DIMBLK
  1

  9
$DIMASO
 70
     1
  9
$DIMSHO
 70
     1
  9
$DIMPOST
  1
\X
  9
$DIMAPOST
  1

  9
$DIMALT
 70
     1
  9
$DIMALTD
 70
     2
  9
$DIMALTF
 40
25.3999999999999986
  9
$DIMLFAC
 40
1.0
  9
$DIMTOFL
 70
     0
  9
$DIMTVP
 40
0.0
  9
$DIMTIX
 70
     0
  9
$DIMSOXD
 70
     0
  9
$DIMSAH
 70
     0
  9
$DIMBLK1
  1

  9
$DIMBLK2
  1

  9
$DIMSTYLE
  2
STANDARD
  9
$DIMCLRD
 70
     0
  9
$DIMCLRE
 70
     0
  9
$DIMCLRT
 70
     0
  9
$DIMTFAC
 40
1.0
  9
$DIMGAP
 40
0.09
  9
$LUNITS
 70
     2
  9
$LUPREC
 70
     4
  9
$SKETCHINC
 40
0.1
  9
$FILLETRAD
 40
0.0
  9
$AUNITS
 70
     0
  9
$AUPREC
 70
     0
  9
$MENU
  1
.
  9
$ELEVATION
 40
0.0
  9
$PELEVATION
 40
0.0
  9
$THICKNESS
 40
0.0
  9
$LIMCHECK
 70
     0
  9
$BLIPMODE
 70
     0
  9
$CHAMFERA
 40
0.0
  9
$CHAMFERB
 40
0.0
  9
$SKPOLY
 70
     0
  9
$TDCREATE
 40
2458060.468368056230247
  9
$TDUPDATE
 40
2459934.6218634261749685
  9
$TDINDWG
 40
0.6275417824
  9
$TDUSRTIMER
 40
0.6275417824
  9
$USRTIMER
 70
     1
  9
$ANGBASE
 50
0.0
  9
$ANGDIR
 70
     0
  9
$PDMODE
 70
     0
  9
$PDSIZE
 40
0.3125
  9
$PLINEWID
 40
0.0
  9
$COORDS
 70
     1
  9
$SPLFRAME
 70
     0
  9
$SPLINETYPE
 70
     6
  9
$SPLINESEGS
 70
     8
  9
$ATTDIA
 70
     1
  9
$ATTREQ
 70
     1
  9
$HANDLING
 70
     1
  9
$HANDSEED
  5
182B8
  9
$SURFTAB1
 70
     6
  9
$SURFTAB2
 70
     6
  9
$SURFTYPE
 70
     6
  9
$SURFU
 70
     6
  9
$SURFV
 70
     6
  9
$UCSNAME
  2

  9
$UCSORG
 10
0.0
 20
0.0
 30
0.0
  9
$UCSXDIR
 10
1.0
 20
0.0
 30
0.0
  9
$UCSYDIR
 10
0.0
 20
1.0
 30
0.0
  9
$PUCSNAME
  2

  9
$PUCSORG
 10
0.0
 20
0.0
 30
0.0
  9
$PUCSXDIR
 10
1.0
 20
0.0
 30
0.0
  9
$PUCSYDIR
 10
0.0
 20
1.0
 30
0.0
  9
$USERI1
 70
     0
  9
$USERI2
 70
     0
  9
$USERI3
 70
     0
  9
$USERI4
 70
     0
  9
$USERI5
 70
     0
  9
$USERR1
 40
0.0
  9
$USERR2
 40
0.0
  9
$USERR3
 40
0.0
  9
$USERR4
 40
0.0
  9
$USERR5
 40
0.0
  9
$WORLDVIEW
 70
     1
  9
$SHADEDGE
 70
     3
  9
$SHADEDIF
 70
    70
  9
$TILEMODE
 70
     1
  9
$MAXACTVP
 70
    64
  9
$PLIMCHECK
 70
     0
  9
$PEXTMIN
 10
1.0000000000000000E+20
 20
1.0000000000000000E+20
 30
1.0000000000000000E+20
  9
$PEXTMAX
 10
-1.0000000000000000E+20
 20
-1.0000000000000000E+20
 30
-1.0000000000000000E+20
  9
$PLIMMIN
 10
0.0
 20
0.0
  9
$PLIMMAX
 10
12.0
 20
9.0
  9
$UNITMODE
 70
     0
  9
$VISRETAIN
 70
     1
  9
$PLINEGEN
 70
     0
  9
$PSLTSCALE
 70
     1
  0
ENDSEC
  0
SECTION
  2
TABLES
  0
TABLE
  2
VPORT
 70
     1
  0
VPORT
  2
*ACTIVE
 70
     0
 10
0.0
 20
0.0
 11
1.0
 21
1.0
 12
187.0586490724016926
 22
3.255984747494002
 13
0.0
 23
0.0
 14
1.0
 24
1.0
 15
0.0
 25
0.0
 16
0.0
 26
0.0
 36
55.1646131379725801
 17
3505.1573486328120453
 27
167.4376618068031917
 37
0.0
 40
11.7463866956149197
 41
2.7227011494252871
 42
50.0
 43
0.0
 44
0.0
 50
0.0
 51
0.0
 71
     0
 72
   100
 73
     1
 74
     1
 75
     0
 76
     0
 77
     0
 78
     0
  0
ENDTAB
  0
TABLE
  2
LTYPE
 70
     2
  0
LTYPE
  2
CONTINUOUS
 70
     0
  3
Solid line
 72
    65
 73
     0
 40
0.0
  0
LTYPE
  2
PHANTOM2
 70
     0
  3
___ _ _ ___ _ _ ___ _ _ ___ _ _
 72
    65
 73
     6
 40
1.25
 49
0.625
 49
-0.125
 49
0.125
 49
-0.125
 49
0.125
 49
-0.125
  0
ENDTAB
  0
TABLE
  2
LAYER
 70
     2
  0
LAYER
  2
0
 70
     0
 62
   255
  6
CONTINUOUS
  0
LAYER
  2
DEFPOINTS
 70
     0
 62
     7
  6
CONTINUOUS
  0
ENDTAB
  0
TABLE
  2
STYLE
 70
     1
  0
STYLE
  2
STANDARD
 70
     0
 40
0.0
 41
0.8
 50
0.0
 71
     0
 42
0.2
  3
txt
  4

  0
ENDTAB
  0
TABLE
  2
VIEW
 70
     0
  0
ENDTAB
  0
TABLE
  2
UCS
 70
     0
  0
ENDTAB
  0
TABLE
  2
APPID
 70
    11
  0
APPID
  2
ACAD
 70
     0
  0
APPID
  2
ACAD_MLEADERVER
 70
     0
  0
APPID
  2
ACAD_EXEMPT_FROM_CAD_STANDARDS
 70
     0
  0
APPID
  2
ACAD_NAV_VCDISPLAY
 70
     0
  0
APPID
  2
ACAECLAYERSTANDARD
 70
     0
  0
APPID
  2
ACCMTRANSPARENCY
 70
     0
  0
APPID
  2
ACAD_DSTYLE_DIMJAG
 70
     0
  0
APPID
  2
ACAD_DSTYLE_DIMTALN
 70
     0
  0
APPID
  2
ACDBATTR
 70
     0
  0
APPID
  2
ACAD_PSEXT
 70
     0
  0
APPID
  2
ACADANNOTATIVE
 70
     0
  0
ENDTAB
  0
TABLE
  2
DIMSTYLE
 70
     3
  0
DIMSTYLE
  2
STANDARD
 70
     0
  3

  4

  5

  6

  7

 40
1.0
 41
0.1875
 42
0.0625
 43
0.38
 44
0.125
 45
0.0
 46
0.0
 47
0.01
 48
0.01
140
0.15625
141
0.09
142
0.0
143
25.3999999999999986
144
1.0
145
0.0
146
1.0
147
0.09
 71
     1
 72
     0
 73
     1
 74
     1
 75
     0
 76
     0
 77
     0
 78
     4
170
     0
171
     2
172
     0
173
     0
174
     0
175
     0
176
     0
177
     0
178
     0
  0
DIMSTYLE
  2
ANNOTATIVE
 70
     0
  3

  4

  5

  6

  7

 40
0.0
 41
2.5
 42
0.625
 43
3.75
 44
1.25
 45
0.0
 46
0.0
 47
0.0
 48
0.0
140
2.5
141
2.5
142
0.0
143
0.03937007874016
144
1.0
145
0.0
146
1.0
147
0.625
 71
     0
 72
     0
 73
     0
 74
     0
 75
     0
 76
     0
 77
     1
 78
     8
170
     0
171
     3
172
     1
173
     0
174
     0
175
     0
176
     0
177
     0
178
     0
  0
DIMSTYLE
  2
ISO-25
 70
     0
  3

  4

  5

  6

  7

 40
1.0
 41
2.5
 42
0.625
 43
3.75
 44
1.25
 45
0.0
 46
0.0
 47
0.0
 48
0.0
140
2.5
141
2.5
142
0.0
143
0.03937007874016
144
1.0
145
0.0
146
1.0
147
0.625
 71
     0
 72
     0
 73
     0
 74
     0
 75
     0
 76
     0
 77
     1
 78
     8
170
     0
171
     3
172
     1
173
     0
174
     0
175
     0
176
     0
177
     0
178
     0
  0
ENDTAB
  0
ENDSEC
  0
SECTION
  2
BLOCKS
  0
BLOCK
  8
0
  2
$MODEL_SPACE
 70
     0
 10
0.0
 20
0.0
 30
0.0
  3
$MODEL_SPACE
  1

  0
ENDBLK
  5
21
  8
0
  0
BLOCK
 67
     1
  8
0
  2
$PAPER_SPACE
 70
     0
 10
0.0
 20
0.0
 30
0.0
  3
$PAPER_SPACE
  1

  0
ENDBLK
  5
1D
 67
     1
  8
0
  0
BLOCK
  8
0
  2
_FILLED
 70
     0
 10
0.0
 20
0.0
 30
0.0
  3
_FILLED
  1

  0
SOLID
  5
13356
  8
0
  6
BYBLOCK
 62
     0
 10
0.0
 20
0.0
 30
0.0
 11
-1.0
 21
0.1666666667
 31
0.0
 12
-1.0
 22
-0.1666666667
 32
0.0
 13
-1.0
 23
-0.1666666667
 33
0.0
  0
ENDBLK
  5
13357
  8
0
  6
BYBLOCK
 62
     0
  0
BLOCK
  8
0
  2
A$CA6C50B21
 70
     0
 10
0.0
 20
0.0
 30
0.0
  3
A$CA6C50B21
  1

  0
LINE
  5
13C91
  8
0
 10
1.6930071429726521
 20
2.4198254328769031
 30
0.0
 11
1.6930071429726521
 21
0.453387696419723
 31
0.0
  0
ARC
  5
13C92
  8
0
 10
1.141732324476612
 20
2.1934474800769101
 30
0.0
 40
1.141732283499999
 50
298.8710977576511141
 51
241.1289022423488859
  0
ARC
  5
13C93
  8
0
 10
1.141732324476612
 20
2.4198254328769031
 30
0.0
 40
0.5512748184958216
 50
0.0
 51
180.0
  0
ARC
  5
13C94
  8
0
 10
1.141732324476612
 20
2.4198254328769031
 30
0.0
 40
0.5610236219999987
 50
0.0
 51
180.0
  0
ARC
  5
13C95
  8
0
 10
1.141732324476612
 20
1.967069527276917
 30
0.0
 40
0.5610236219999987
 50
349.3032064022597183
 51
0.0
  0
LINE
  5
13C96
  8
0
 10
1.702755946476606
 20
2.4198254328769031
 30
0.0
 11
1.702755946476606
 21
1.967069527276917
 31
0.0
  0
ARC
  5
13C97
  8
0
 10
1.171382349383072
 20
0.7365850714958793
 30
0.0
 40
0.5600253011141878
 50
42.9656875204986974
 51
75.4299994340822764
  0
ARC
  5
13C98
  8
0
 10
1.274646244313095
 20
0.8331920338790137
 30
0.0
 40
0.4186173581462491
 50
2.005675053372002
 51
42.9228834806205768
  0
ARC
  5
13C99
  8
0
 10
1.171382349383072
 20
0.5646456319485349
 30
0.0
 40
0.5600253011141878
 50
284.5700005659177236
 51
317.0343124795012955
  0
ARC
  5
13C9A
  8
0
 10
1.274646244313095
 20
0.4680386695654005
 30
0.0
 40
0.4186173581462491
 50
317.0771165193793877
 51
357.9943249466280122
  0
ARC
  5
13C9B
  8
0
 10
1.149629361491185
 20
0.6382337873700106
 30
0.0
 40
0.5296542849773741
 50
46.4326575645346509
 51
87.5275202086599649
  0
ARC
  5
13C9C
  8
0
 10
1.274009072514906
 20
0.7688866061897084
 30
0.0
 40
0.3492645314080925
 50
0.3762082144772436
 51
46.4448574871849686
  0
ARC
  5
13C9D
  8
0
 10
1.2162834394446289
 20
0.7835615706835295
 30
0.0
 40
0.4071709367643228
 50
319.9999761394657867
 51
358.2574206449169196
  0
ARC
  5
13C9E
  8
0
 10
1.1531508366099441
 20
0.8609385721753124
 30
0.0
 40
0.5056159792715393
 50
272.1903482074355907
 51
317.8811885699017239
  0
ARC
  5
13C9F
  8
0
 10
1.149982673887513
 20
0.6352425388310206
 30
0.0
 40
0.5179134740379333
 50
47.3254988489164319
 51
87.5107038975980771
  0
ARC
  5
13CA0
  8
0
 10
1.2550518504169821
 20
0.7492066377866973
 30
0.0
 40
0.3629059009734586
 50
11.4232589540081708
 51
47.3254988489164319
  0
ARC
  5
13CA1
  8
0
 10
1.2804713558919101
 20
0.7543428485064095
 30
0.0
 40
0.3369726805957953
 50
341.5944292572374934
 51
11.4232589540081708
  0
LINE
  5
13CA2
  8
0
 10
1.6173588911135599
 20
0.7619175485196746
 30
0.0
 11
1.617371728232007
 21
0.8328225081445435
 31
0.0
  0
LINE
  5
13CA3
  8
0
 10
1.1724783937768339
 20
1.1673949946769231
 30
0.0
 11
1.1724747726764291
 21
1.1268530056769039
 31
0.0
  0
ARC
  5
13CA4
  8
0
 10
1.158011542636592
 20
0.6776573718568937
 30
0.0
 40
0.405234333166696
 50
34.7487934585086933
 51
83.278379743157231
  0
ARC
  5
13CA5
  8
0
 10
1.2541475266205051
 20
0.7546251085583702
 30
0.0
 40
0.2824995890884069
 50
327.0783969145350056
 51
33.035606315330341
  0
ARC
  5
13CA6
  8
0
 10
1.1753466283109959
 20
0.8087186817018316
 30
0.0
 40
0.3780544141834458
 50
281.9262214676294889
 51
326.6874778528983825
  0
ARC
  5
13CA7
  8
0
 10
1.149591737646239
 20
0.5862639130380938
 30
0.0
 40
0.2955651956863322
 50
45.2934732137387215
 51
84.002551360547713
  0
ARC
  5
13CA8
  8
0
 10
1.2099696552375061
 20
0.6472635408170202
 30
0.0
 40
0.209737184397311
 50
26.9768522778092503
 51
45.2934732137387215
  0
ARC
  5
13CA9
  8
0
 10
1.212071559355314
 20
0.6483334450395244
 30
0.0
 40
0.2073786475702442
 50
335.5456572236503234
 51
26.9768522778092503
  0
ARC
  5
13CAA
  8
0
 10
1.188820989738139
 20
0.6649495986663095
 30
0.0
 40
0.2354862481953425
 50
309.5080372481891118
 51
334.2072053479315059
  0
LINE
  5
13CAB
  8
0
 10
1.1803489737765229
 20
0.8800825478769223
 30
0.0
 11
1.180348007776735
 21
0.8347186001768971
 31
0.0
  0
ARC
  5
13CAC
  8
0
 10
1.3461438761626201
 20
0.7967870372634973
 30
0.0
 40
0.0118472665320165
 50
292.2064181816000996
 51
355.6510438432662795
  0
LINE
  5
13CAD
  8
0
 10
1.350621485376684
 20
0.7858185031768965
 30
0.0
 11
1.316085280774365
 21
0.7691357265758807
 31
0.0
  0
ARC
  5
13CAE
  8
0
 10
1.1849892718366899
 20
0.6365728266865727
 30
0.0
 40
0.1864378877442054
 50
23.8889901585991886
 51
45.3187671288164182
  0
LINE
  5
13CAF
  8
0
 10
1.355455359376498
 20
0.7120738133378079
 30
0.0
 11
1.389991563997006
 21
0.7287565900601276
 31
0.0
  0
ARC
  5
13CB0
  8
0
 10
1.385513863627472
 20
0.7397252062355318
 30
0.0
 40
0.0118473769841788
 50
292.2066762861264237
 51
10.3087681339854598
  0
ARC
  5
13CB1
  8
0
 10
1.20259625560289
 20
0.6628609838130597
 30
0.0
 40
0.1656471469921197
 50
22.8112465107665514
 51
42.0251977470346816
  0
LINE
  5
13CB2
  8
0
 10
1.3552876537039591
 20
0.7270818079480234
 30
0.0
 11
1.35551821781815
 21
0.7121041772228393
 31
0.0
  0
LINE
  5
13CB3
  8
0
 10
1.3552876537039591
 20
0.7270818079480234
 30
0.0
 11
1.3948972960081449
 21
0.7462153179509965
 31
0.0
  0
ARC
  5
13CB4
  8
0
 10
1.2193318768384021
 20
0.6505466992145994
 30
0.0
 40
0.1972185357284392
 50
334.065636047477426
 51
25.8048097931729998
  0
ARC
  5
13CB5
  8
0
 10
1.3933017713968701
 20
0.5687024147275093
 30
0.0
 40
0.005559124443349
 50
233.4549367130188102
 51
307.5480054766555895
  0
LINE
  5
13CB6
  8
0
 10
1.3899915638505771
 20
0.5642362765103411
 30
0.0
 11
1.355455359456988
 21
0.5809228025379963
 31
0.0
  0
ARC
  5
13CB7
  8
0
 10
1.185016122261692
 20
0.6564151928209565
 30
0.0
 40
0.186409856408939
 50
314.678146530077413
 51
336.1100835857164952
  0
LINE
  5
13CB8
  8
0
 10
1.316085280776639
 20
0.5238651635769127
 30
0.0
 11
1.3506214853171119
 21
0.507178637605561
 31
0.0
  0
ARC
  5
13CB9
  8
0
 10
1.3534916782548461
 20
0.5117148342214916
 30
0.0
 40
0.005367968632353
 50
237.6771880213653105
 51
318.5337226310148253
  0
ARC
  5
13CBA
  8
0
 10
1.1509475383552461
 20
0.7053969573046271
 30
0.0
 40
0.2856082449087893
 50
275.9085571833007862
 51
316.3235904165284182
  0
ARC
  5
13CBB
  8
0
 10
1.1903997568472331
 20
0.6767879733359035
 30
0.0
 40
0.2298785392017888
 50
316.6335333947782829
 51
330.5702928243653105
  0
LINE
  5
13CBC
  8
0
 10
1.3575160933767221
 20
0.5189390808769172
 30
0.0
 11
1.325818482466053
 21
0.5342541109359314
 31
0.0
  0
LINE
  5
13CBD
  8
0
 10
1.3575160933767221
 20
0.5189390808769172
 30
0.0
 11
1.357514141876669
 21
0.5081602774769163
 31
0.0
  0
LINE
  5
13CBE
  8
0
 10
1.338635392016164
 20
0.4901172807255403
 30
0.0
 11
1.338634151076582
 21
0.4832636339769163
 31
0.0
  0
LINE
  5
13CBF
  8
0
 10
1.338634151076582
 20
0.4832636339769163
 30
0.0
 11
1.3497012445766421
 21
0.4740024842769213
 31
0.0
  0
ARC
  5
13CC0
  8
0
 10
1.2160435508442391
 20
0.6490003031088049
 30
0.0
 40
0.2202013071935337
 50
307.3714248442972234
 51
54.6226993067380207
  0
LINE
  5
13CC1
  8
0
 10
1.180348363976697
 20
0.4213060193769121
 30
0.0
 11
1.1803480077912869
 21
0.4582970262198654
 31
0.0
  0
ARC
  5
13CC2
  8
0
 10
1.206926862641245
 20
0.7992218189063163
 30
0.0
 40
0.0103165194602044
 50
304.5301668728341724
 51
54.4589288166078518
  0
ARC
  5
13CC3
  8
0
 10
1.203452228750626
 20
0.8042717445141516
 30
0.0
 40
0.0164463505605584
 50
236.5641174124550901
 51
304.5301668728341724
  0
ARC
  5
13CC4
  8
0
 10
1.200088934185948
 20
0.7991779848893527
 30
0.0
 40
0.0103424061437357
 50
137.5589197623949076
 51
236.564117412454209
  0
ARC
  5
13CC5
  8
0
 10
1.2035253077663191
 20
0.7951706465923661
 30
0.0
 40
0.015595700161746
 50
52.9416455838060998
 51
135.2131612868923014
  0
ARC
  5
13CC6
  8
0
 10
1.2195530402302719
 20
0.7399421266844666
 30
0.0
 40
0.0131430672641373
 50
38.3876683730437307
 51
135.9792358741067915
  0
ARC
  5
13CC7
  8
0
 10
1.2228759730803691
 20
0.7431921686980713
 30
0.0
 40
0.0085339901043492
 50
320.9782236590227171
 51
35.136433876668292
  0
ARC
  5
13CC8
  8
0
 10
1.2194672967764351
 20
0.7469449906432128
 30
0.0
 40
0.0135668858997472
 50
237.3486735603096918
 51
317.7269891626575031
  0
ARC
  5
13CC9
  8
0
 10
1.2170645096414381
 20
0.7431952619911595
 30
0.0
 40
0.0091133647106656
 50
139.8169483647004938
 51
237.3486735603096918
  0
ARC
  5
13CCA
  8
0
 10
1.1443255958117851
 20
0.8078952302985822
 30
0.0
 40
0.0103165194602044
 50
304.5301668728341724
 51
54.4589288166078518
  0
ARC
  5
13CCB
  8
0
 10
1.140850961921166
 20
0.812945155906389
 30
0.0
 40
0.0164463505605584
 50
236.5641174124550901
 51
304.5301668728341724
  0
ARC
  5
13CCC
  8
0
 10
1.1374876673564871
 20
0.80785139628159
 30
0.0
 40
0.0103424061437357
 50
137.5589197623949076
 51
236.564117412454209
  0
ARC
  5
13CCD
  8
0
 10
1.140924040936403
 20
0.8038440579846035
 30
0.0
 40
0.015595700161746
 50
52.9416455838060998
 51
135.2131612868923014
  0
ARC
  5
13CCE
  8
0
 10
1.2629757088982441
 20
0.7735422231816341
 30
0.0
 40
0.0103165194602044
 50
304.5301668728341724
 51
54.4589288166078518
  0
ARC
  5
13CCF
  8
0
 10
1.2595010750076261
 20
0.7785921487894694
 30
0.0
 40
0.0164463505605584
 50
236.5641174124550901
 51
304.5301668728341724
  0
ARC
  5
13CD0
  8
0
 10
1.256137780442947
 20
0.7734983891646703
 30
0.0
 40
0.0103424061437357
 50
137.5589197623949076
 51
236.564117412454209
  0
ARC
  5
13CD1
  8
0
 10
1.2595741540233181
 20
0.7694910508676838
 30
0.0
 40
0.015595700161746
 50
52.9416455838060998
 51
135.2131612868923014
  0
ARC
  5
13CD2
  8
0
 10
1.305651737371369
 20
0.7347632675468088
 30
0.0
 40
0.0103165194602044
 50
304.5301668728341724
 51
54.4589288166078518
  0
ARC
  5
13CD3
  8
0
 10
1.3021771034807501
 20
0.7398131931546157
 30
0.0
 40
0.0164463505605584
 50
236.5641174124550901
 51
304.5301668728341724
  0
ARC
  5
13CD4
  8
0
 10
1.298813808916071
 20
0.7347194335298167
 30
0.0
 40
0.0103424061437357
 50
137.5589197623949076
 51
236.564117412454209
  0
ARC
  5
13CD5
  8
0
 10
1.3022501824964421
 20
0.7307120952328586
 30
0.0
 40
0.015595700161746
 50
52.9416455838060998
 51
135.2131612868923014
  0
ARC
  5
13CD6
  8
0
 10
1.3312681155200661
 20
0.6862857193435996
 30
0.0
 40
0.0103165194602044
 50
304.5301668728341724
 51
54.4589288166078518
  0
ARC
  5
13CD7
  8
0
 10
1.3277934816294481
 20
0.691335644951435
 30
0.0
 40
0.0164463505605584
 50
236.5641174124550901
 51
304.5301668728341724
  0
ARC
  5
13CD8
  8
0
 10
1.324430187064769
 20
0.6862418853266359
 30
0.0
 40
0.0103424061437357
 50
137.5589197623949076
 51
236.564117412454209
  0
ARC
  5
13CD9
  8
0
 10
1.3278665606446849
 20
0.6822345470296494
 30
0.0
 40
0.015595700161746
 50
52.9416455838060998
 51
135.2131612868923014
  0
ARC
  5
13CDA
  8
0
 10
1.3367137390457691
 20
0.6330098127852734
 30
0.0
 40
0.0103165194602044
 50
304.5301668728341724
 51
54.4589288166078518
  0
ARC
  5
13CDB
  8
0
 10
1.333239105154695
 20
0.6380597383930802
 30
0.0
 40
0.0164463505605584
 50
236.5641174124550901
 51
304.5301668728341724
  0
ARC
  5
13CDC
  8
0
 10
1.3298758105900159
 20
0.6329659787682811
 30
0.0
 40
0.0103424061437357
 50
137.5589197623949076
 51
236.564117412454209
  0
ARC
  5
13CDD
  8
0
 10
1.333312184170387
 20
0.628958640471323
 30
0.0
 40
0.015595700161746
 50
52.9416455838060998
 51
135.2131612868923014
  0
ARC
  5
13CDE
  8
0
 10
1.321212201208942
 20
0.5816106303231816
 30
0.0
 40
0.0103165194602044
 50
304.5301668728341724
 51
54.4589288166078518
  0
ARC
  5
13CDF
  8
0
 10
1.3177375673178691
 20
0.586660555931017
 30
0.0
 40
0.0164463505605584
 50
236.5641174124550901
 51
304.5301668728341724
  0
ARC
  5
13CE0
  8
0
 10
1.31437427275319
 20
0.5815667963062179
 30
0.0
 40
0.0103424061437357
 50
137.5589197623949076
 51
236.564117412454209
  0
ARC
  5
13CE1
  8
0
 10
1.317810646333561
 20
0.5775594580092314
 30
0.0
 40
0.015595700161746
 50
52.9416455838060998
 51
135.2131612868923014
  0
ARC
  5
13CE2
  8
0
 10
1.2865767057389861
 20
0.5371571513185796
 30
0.0
 40
0.0103165194602044
 50
304.5301668728341724
 51
54.4589288166078518
  0
ARC
  5
13CE3
  8
0
 10
1.283102071848367
 20
0.5422070769263865
 30
0.0
 40
0.0164463505605584
 50
236.5641174124550901
 51
304.5301668728341724
  0
ARC
  5
13CE4
  8
0
 10
1.279738777283689
 20
0.5371133173015874
 30
0.0
 40
0.0103424061437357
 50
137.5589197623949076
 51
236.564117412454209
  0
ARC
  5
13CE5
  8
0
 10
1.2831751508636049
 20
0.5331059790046293
 30
0.0
 40
0.015595700161746
 50
52.9416455838060998
 51
135.2131612868923014
  0
ARC
  5
13CE6
  8
0
 10
1.2362097514840169
 20
0.5046068519243346
 30
0.0
 40
0.0103165194602044
 50
304.5301668728341724
 51
54.4589288166078518
  0
ARC
  5
13CE7
  8
0
 10
1.232735117593398
 20
0.5096567775321699
 30
0.0
 40
0.0164463505605584
 50
236.5641174124550901
 51
304.5301668728341724
  0
ARC
  5
13CE8
  8
0
 10
1.2293718230287201
 20
0.5045630179073708
 30
0.0
 40
0.0103424061437357
 50
137.5589197623949076
 51
236.564117412454209
  0
ARC
  5
13CE9
  8
0
 10
1.2328081966086359
 20
0.5005556796103843
 30
0.0
 40
0.015595700161746
 50
52.9416455838060998
 51
135.2131612868923014
  0
ARC
  5
13CEA
  8
0
 10
1.1762666725269411
 20
0.4871537497000116
 30
0.0
 40
0.0103165194602044
 50
304.5301668728341724
 51
54.4589288166078518
  0
ARC
  5
13CEB
  8
0
 10
1.1727920386358679
 20
0.492203675307847
 30
0.0
 40
0.0164463505605584
 50
236.5641174124550901
 51
304.5301668728341724
  0
ARC
  5
13CEC
  8
0
 10
1.169428744071644
 20
0.4871099156830479
 30
0.0
 40
0.0103424061437357
 50
137.5589197623949076
 51
236.564117412454209
  0
ARC
  5
13CED
  8
0
 10
1.1728651176515601
 20
0.4831025773860614
 30
0.0
 40
0.015595700161746
 50
52.9416455838060998
 51
135.2131612868923014
  0
ARC
  5
13CEE
  8
0
 10
1.172344107440273
 20
0.757065954524391
 30
0.0
 40
0.0131430672641373
 50
38.3876683730437307
 51
135.9792358741067915
  0
ARC
  5
13CEF
  8
0
 10
1.1756670402903691
 20
0.760315996538024
 30
0.0
 40
0.0085339901043492
 50
320.9782236590227171
 51
35.136433876668292
  0
ARC
  5
13CF0
  8
0
 10
1.172258363986435
 20
0.7640688184831657
 30
0.0
 40
0.0135668858997472
 50
237.3486735603096918
 51
317.7269891626575031
  0
ARC
  5
13CF1
  8
0
 10
1.169855576851438
 20
0.7603190898310839
 30
0.0
 40
0.0091133647106656
 50
139.8169483647004938
 51
237.3486735603096918
  0
ARC
  5
13CF2
  8
0
 10
1.145556673753396
 20
0.7171020515757487
 30
0.0
 40
0.0131430672641373
 50
38.3876683730437307
 51
135.9792358741067915
  0
ARC
  5
13CF3
  8
0
 10
1.1488796066034921
 20
0.7203520935893533
 30
0.0
 40
0.0085339901043492
 50
320.9782236590227171
 51
35.136433876668292
  0
ARC
  5
13CF4
  8
0
 10
1.145470930299558
 20
0.724104915534495
 30
0.0
 40
0.0135668858997472
 50
237.3486735603096918
 51
317.7269891626575031
  0
ARC
  5
13CF5
  8
0
 10
1.1430681431645611
 20
0.7203551868824416
 30
0.0
 40
0.0091133647106656
 50
139.8169483647004938
 51
237.3486735603096918
  0
ARC
  5
13CF6
  8
0
 10
1.1965407842378739
 20
0.7008067007608059
 30
0.0
 40
0.0131430672641373
 50
38.3876683730437307
 51
135.9792358741067915
  0
ARC
  5
13CF7
  8
0
 10
1.199863717088425
 20
0.7040567427744105
 30
0.0
 40
0.0085339901043492
 50
320.9782236590227171
 51
35.136433876668292
  0
ARC
  5
13CF8
  8
0
 10
1.1964550407844909
 20
0.7078095647195523
 30
0.0
 40
0.0135668858997472
 50
237.3486735603096918
 51
317.7269891626575031
  0
ARC
  5
13CF9
  8
0
 10
1.194052253649039
 20
0.7040598360674988
 30
0.0
 40
0.0091133647106656
 50
139.8169483647004938
 51
237.3486735603096918
  0
ARC
  5
13CFA
  8
0
 10
1.256179679691519
 20
0.7097173953420093
 30
0.0
 40
0.0131430672641373
 50
38.3876683730437307
 51
135.9792358741067915
  0
ARC
  5
13CFB
  8
0
 10
1.2595026125416151
 20
0.7129674373556423
 30
0.0
 40
0.0085339901043492
 50
320.9782236590227171
 51
35.136433876668292
  0
ARC
  5
13CFC
  8
0
 10
1.2560939362376811
 20
0.716720259300784
 30
0.0
 40
0.0135668858997472
 50
237.3486735603096918
 51
317.7269891626575031
  0
ARC
  5
13CFD
  8
0
 10
1.2536911491026841
 20
0.7129705306487022
 30
0.0
 40
0.0091133647106656
 50
139.8169483647004938
 51
237.3486735603096918
  0
ARC
  5
13CFE
  8
0
 10
1.2765489433479671
 20
0.6703757455656483
 30
0.0
 40
0.0131430672641373
 50
38.3876683730437307
 51
135.9792358741067915
  0
ARC
  5
13CFF
  8
0
 10
1.2798718761985191
 20
0.6736257875792813
 30
0.0
 40
0.0085339901043492
 50
320.9782236590227171
 51
35.136433876668292
  0
ARC
  5
13D00
  8
0
 10
1.276463199894585
 20
0.677378609524423
 30
0.0
 40
0.0135668858997472
 50
237.3486735603096918
 51
317.7269891626575031
  0
ARC
  5
13D01
  8
0
 10
1.2740604127591331
 20
0.6736288808723412
 30
0.0
 40
0.0091133647106656
 50
139.8169483647004938
 51
237.3486735603096918
  0
ARC
  5
13D02
  8
0
 10
1.226413999074117
 20
0.6624615306803872
 30
0.0
 40
0.0131430672641373
 50
38.3876683730437307
 51
135.9792358741067915
  0
ARC
  5
13D03
  8
0
 10
1.229736931924214
 20
0.6657115726939918
 30
0.0
 40
0.0085339901043492
 50
320.9782236590227171
 51
35.136433876668292
  0
ARC
  5
13D04
  8
0
 10
1.2263282556202799
 20
0.6694643946391335
 30
0.0
 40
0.0135668858997472
 50
237.3486735603096918
 51
317.7269891626575031
  0
ARC
  5
13D05
  8
0
 10
1.2239254684852821
 20
0.6657146659870801
 30
0.0
 40
0.0091133647106656
 50
139.8169483647004938
 51
237.3486735603096918
  0
ARC
  5
13D06
  8
0
 10
1.173400266194454
 20
0.6583316694134549
 30
0.0
 40
0.0131430672641373
 50
38.3876683730437307
 51
135.9792358741067915
  0
ARC
  5
13D07
  8
0
 10
1.176723199044551
 20
0.6615817114270879
 30
0.0
 40
0.0085339901043492
 50
320.9782236590227171
 51
35.136433876668292
  0
ARC
  5
13D08
  8
0
 10
1.173314522740617
 20
0.6653345333722296
 30
0.0
 40
0.0135668858997472
 50
237.3486735603096918
 51
317.7269891626575031
  0
ARC
  5
13D09
  8
0
 10
1.17091173560562
 20
0.6615848047201478
 30
0.0
 40
0.0091133647106656
 50
139.8169483647004938
 51
237.3486735603096918
  0
ARC
  5
13D0A
  8
0
 10
1.159010526707567
 20
0.6156147033001087
 30
0.0
 40
0.0131430672641373
 50
38.3876683730437307
 51
135.9792358741067915
  0
ARC
  5
13D0B
  8
0
 10
1.162333459557664
 20
0.6188647453137417
 30
0.0
 40
0.0085339901043492
 50
320.9782236590227171
 51
35.136433876668292
  0
ARC
  5
13D0C
  8
0
 10
1.1589247832537299
 20
0.622617567258855
 30
0.0
 40
0.0135668858997472
 50
237.3486735603096918
 51
317.7269891626575031
  0
ARC
  5
13D0D
  8
0
 10
1.1565219961187321
 20
0.6188678386068017
 30
0.0
 40
0.0091133647106656
 50
139.8169483647004938
 51
237.3486735603096918
  0
ARC
  5
13D0E
  8
0
 10
1.1361056617131511
 20
0.5693627591338934
 30
0.0
 40
0.0131430672641373
 50
38.3876683730437307
 51
135.9792358741067915
  0
ARC
  5
13D0F
  8
0
 10
1.1394285945637019
 20
0.5726128011474981
 30
0.0
 40
0.0085339901043492
 50
320.9782236590227171
 51
35.136433876668292
  0
ARC
  5
13D10
  8
0
 10
1.1360199182597679
 20
0.5763656230926398
 30
0.0
 40
0.0135668858997472
 50
237.3486735603096918
 51
317.7269891626575031
  0
ARC
  5
13D11
  8
0
 10
1.1336171311243159
 20
0.5726158944405864
 30
0.0
 40
0.0091133647106656
 50
139.8169483647004938
 51
237.3486735603096918
  0
ARC
  5
13D12
  8
0
 10
1.223484003697882
 20
0.6163856745563105
 30
0.0
 40
0.0131430672641373
 50
38.3876683730437307
 51
135.9792358741067915
  0
ARC
  5
13D13
  8
0
 10
1.226806936547979
 20
0.6196357165699437
 30
0.0
 40
0.0085339901043492
 50
320.9782236590227171
 51
35.136433876668292
  0
ARC
  5
13D14
  8
0
 10
1.223398260244045
 20
0.6233885385150854
 30
0.0
 40
0.0135668858997472
 50
237.3486735603096918
 51
317.7269891626575031
  0
ARC
  5
13D15
  8
0
 10
1.220995473109048
 20
0.6196388098630035
 30
0.0
 40
0.0091133647106656
 50
139.8169483647004938
 51
237.3486735603096918
  0
ARC
  5
13D16
  8
0
 10
1.2794604686207609
 20
0.6269780768421338
 30
0.0
 40
0.0131430672641373
 50
38.3876683730437307
 51
135.9792358741067915
  0
ARC
  5
13D17
  8
0
 10
1.282783401470857
 20
0.6302281188557668
 30
0.0
 40
0.0085339901043492
 50
320.9782236590227171
 51
35.136433876668292
  0
ARC
  5
13D18
  8
0
 10
1.279374725166923
 20
0.6339809408009085
 30
0.0
 40
0.0135668858997472
 50
237.3486735603096918
 51
317.7269891626575031
  0
ARC
  5
13D19
  8
0
 10
1.276971938031926
 20
0.6302312121488268
 30
0.0
 40
0.0091133647106656
 50
139.8169483647004938
 51
237.3486735603096918
  0
ARC
  5
13D1A
  8
0
 10
1.1891638247464069
 20
0.5809862451845031
 30
0.0
 40
0.0131430672641373
 50
38.3876683730437307
 51
135.9792358741067915
  0
ARC
  5
13D1B
  8
0
 10
1.1924867575965039
 20
0.5842362871981078
 30
0.0
 40
0.0085339901043492
 50
320.9782236590227171
 51
35.136433876668292
  0
ARC
  5
13D1C
  8
0
 10
1.1890780812925701
 20
0.5879891091432495
 30
0.0
 40
0.0135668858997472
 50
237.3486735603096918
 51
317.7269891626575031
  0
ARC
  5
13D1D
  8
0
 10
1.1866752941575729
 20
0.5842393804911961
 30
0.0
 40
0.0091133647106656
 50
139.8169483647004938
 51
237.3486735603096918
  0
ARC
  5
13D1E
  8
0
 10
1.2631540673462549
 20
0.5865475139297569
 30
0.0
 40
0.0131430672641373
 50
38.3876683730437307
 51
135.9792358741067915
  0
ARC
  5
13D1F
  8
0
 10
1.2664770001968071
 20
0.5897975559433899
 30
0.0
 40
0.0085339901043492
 50
320.9782236590227171
 51
35.136433876668292
  0
ARC
  5
13D20
  8
0
 10
1.263068323892873
 20
0.5935503778885316
 30
0.0
 40
0.0135668858997472
 50
237.3486735603096918
 51
317.7269891626575031
  0
ARC
  5
13D21
  8
0
 10
1.260665536757875
 20
0.5898006492364499
 30
0.0
 40
0.0091133647106656
 50
139.8169483647004938
 51
237.3486735603096918
  0
ARC
  5
13D22
  8
0
 10
1.230832098875231
 20
0.5532974639139053
 30
0.0
 40
0.0131430672641373
 50
38.3876683730437307
 51
135.9792358741067915
  0
ARC
  5
13D23
  8
0
 10
1.234155031725783
 20
0.5565475059275382
 30
0.0
 40
0.0085339901043492
 50
320.9782236590227171
 51
35.136433876668292
  0
ARC
  5
13D24
  8
0
 10
1.230746355421849
 20
0.5603003278726515
 30
0.0
 40
0.0135668858997472
 50
237.3486735603096918
 51
317.7269891626575031
  0
ARC
  5
13D25
  8
0
 10
1.228343568286397
 20
0.5565505992205982
 30
0.0
 40
0.0091133647106656
 50
139.8169483647004938
 51
237.3486735603096918
  0
ARC
  5
13D26
  8
0
 10
1.185540448932221
 20
0.5323026390524018
 30
0.0
 40
0.0131430672641373
 50
38.3876683730437307
 51
135.9792358741067915
  0
ARC
  5
13D27
  8
0
 10
1.188863381782318
 20
0.5355526810660347
 30
0.0
 40
0.0085339901043492
 50
320.9782236590227171
 51
35.136433876668292
  0
ARC
  5
13D28
  8
0
 10
1.1854547054783839
 20
0.5393055030111765
 30
0.0
 40
0.0135668858997472
 50
237.3486735603096918
 51
317.7269891626575031
  0
ARC
  5
13D29
  8
0
 10
1.1830519183433861
 20
0.535555774359123
 30
0.0
 40
0.0091133647106656
 50
139.8169483647004938
 51
237.3486735603096918
  0
ARC
  5
13D2A
  8
0
 10
1.1348076592401011
 20
0.5263818078151683
 30
0.0
 40
0.0131430672641373
 50
38.3876683730437307
 51
135.9792358741067915
  0
ARC
  5
13D2B
  8
0
 10
1.138130592090653
 20
0.5296318498287729
 30
0.0
 40
0.0085339901043492
 50
320.9782236590227171
 51
35.136433876668292
  0
ARC
  5
13D2C
  8
0
 10
1.134721915786719
 20
0.5333846717739146
 30
0.0
 40
0.0135668858997472
 50
237.3486735603096918
 51
317.7269891626575031
  0
ARC
  5
13D2D
  8
0
 10
1.132319128651267
 20
0.5296349431218613
 30
0.0
 40
0.0091133647106656
 50
139.8169483647004938
 51
237.3486735603096918
  0
LINE
  5
13D2E
  8
0
 10
0.5904575059805728
 20
2.4198254328769031
 30
0.0
 11
0.5904575059805728
 21
0.453387696419723
 31
0.0
  0
ARC
  5
13D2F
  8
0
 10
1.141732324476612
 20
1.967069527276917
 30
0.0
 40
0.5610236219999987
 50
180.0
 51
190.6967935977401964
  0
LINE
  5
13D30
  8
0
 10
0.5807087024766197
 20
2.4198254328769031
 30
0.0
 11
0.5807087024766197
 21
1.967069527276917
 31
0.0
  0
ARC
  5
13D31
  8
0
 10
1.1120822995701529
 20
0.7365850714958793
 30
0.0
 40
0.5600253011141878
 50
104.5700005659176952
 51
137.0343124795012955
  0
ARC
  5
13D32
  8
0
 10
1.0088184046401301
 20
0.8331920338790137
 30
0.0
 40
0.4186173581462491
 50
137.0771165193793877
 51
177.9943249466280122
  0
ARC
  5
13D33
  8
0
 10
1.1120822995701529
 20
0.5646456319485349
 30
0.0
 40
0.5600253011141878
 50
222.9656875204985909
 51
255.4299994340823048
  0
ARC
  5
13D34
  8
0
 10
1.0088184046401301
 20
0.4680386695654005
 30
0.0
 40
0.4186173581462491
 50
182.0056750533719025
 51
222.9228834806204986
  0
ARC
  5
13D35
  8
0
 10
1.1338352874620401
 20
0.6382337873700106
 30
0.0
 40
0.5296542849773741
 50
92.4724797913400494
 51
133.5673424354652923
  0
ARC
  5
13D36
  8
0
 10
1.0094555764383191
 20
0.7688866061897084
 30
0.0
 40
0.3492645314080925
 50
133.5551425128149958
 51
179.6237917855227124
  0
ARC
  5
13D37
  8
0
 10
1.0671812095085951
 20
0.7835615706835295
 30
0.0
 40
0.4071709367643228
 50
181.7425793550829951
 51
220.0000238605342133
  0
ARC
  5
13D38
  8
0
 10
1.1303138123432801
 20
0.8609385721753124
 30
0.0
 40
0.5056159792715393
 50
222.1188114300983045
 51
267.8096517925644093
  0
ARC
  5
13D39
  8
0
 10
1.1334819750657119
 20
0.6352425388310206
 30
0.0
 40
0.5179134740379333
 50
92.4892961024019087
 51
132.67450115108349
  0
ARC
  5
13D3A
  8
0
 10
1.028412798536243
 20
0.7492066377866973
 30
0.0
 40
0.3629059009734586
 50
132.67450115108349
 51
168.5767410459918096
  0
ARC
  5
13D3B
  8
0
 10
1.0029932930613139
 20
0.7543428485064095
 30
0.0
 40
0.3369726805957953
 50
168.5767410459918096
 51
198.4055707427625066
  0
LINE
  5
13D3C
  8
0
 10
0.6661057578396657
 20
0.7619175485196746
 30
0.0
 11
0.6660929207212183
 21
0.8328225081445435
 31
0.0
  0
LINE
  5
13D3D
  8
0
 10
1.1109862551763909
 20
1.1673949946769231
 30
0.0
 11
1.110989876276796
 21
1.1268530056769039
 31
0.0
  0
ARC
  5
13D3E
  8
0
 10
1.1254531063166331
 20
0.6776573718568937
 30
0.0
 40
0.405234333166696
 50
96.721620256842769
 51
145.2512065414913138
  0
ARC
  5
13D3F
  8
0
 10
1.0293171223327191
 20
0.7546251085583702
 30
0.0
 40
0.2824995890884069
 50
146.9643936846696022
 51
212.9216030854649091
  0
ARC
  5
13D40
  8
0
 10
1.108118020642229
 20
0.8087186817018316
 30
0.0
 40
0.3780544141834458
 50
213.3125221471015038
 51
258.0737785323705111
  0
ARC
  5
13D41
  8
0
 10
1.1338729113069861
 20
0.5862639130380938
 30
0.0
 40
0.2955651956863322
 50
95.997448639452287
 51
134.7065267862612927
  0
ARC
  5
13D42
  8
0
 10
1.0734949937157181
 20
0.6472635408170202
 30
0.0
 40
0.209737184397311
 50
134.7065267862612927
 51
153.0231477221907141
  0
ARC
  5
13D43
  8
0
 10
1.07139308959791
 20
0.6483334450395244
 30
0.0
 40
0.2073786475702442
 50
153.0231477221907141
 51
204.454342776349705
  0
ARC
  5
13D44
  8
0
 10
1.0946436592150861
 20
0.6649495986663095
 30
0.0
 40
0.2354862481953425
 50
205.7927946520684088
 51
230.4919627518098935
  0
LINE
  5
13D45
  8
0
 10
1.1031156751767011
 20
0.8800825478769223
 30
0.0
 11
1.1031166411764901
 21
0.8347186001768971
 31
0.0
  0
ARC
  5
13D46
  8
0
 10
0.9373207727906054
 20
0.7967870372634973
 30
0.0
 40
0.0118472665320165
 50
184.3489561567336068
 51
247.7935818184000141
  0
LINE
  5
13D47
  8
0
 10
0.9328431635765417
 20
0.7858185031768965
 30
0.0
 11
0.9673793681788601
 21
0.7691357265758807
 31
0.0
  0
ARC
  5
13D48
  8
0
 10
1.0984753771165341
 20
0.6365728266865727
 30
0.0
 40
0.1864378877442054
 50
134.6812328711835107
 51
156.1110098414008007
  0
LINE
  5
13D49
  8
0
 10
0.9280092895767273
 20
0.7120738133378079
 30
0.0
 11
0.8934730849562191
 21
0.7287565900601276
 31
0.0
  0
ARC
  5
13D4A
  8
0
 10
0.8979507853257535
 20
0.7397252062355318
 30
0.0
 40
0.0118473769841788
 50
169.6912318660145047
 51
247.793323713873491
  0
ARC
  5
13D4B
  8
0
 10
1.0808683933503349
 20
0.6628609838130597
 30
0.0
 40
0.1656471469921197
 50
137.9748022529653042
 51
157.1887534892333917
  0
LINE
  5
13D4C
  8
0
 10
0.9281769952492657
 20
0.7270818079480234
 30
0.0
 11
0.9279464311350755
 21
0.7121041772228393
 31
0.0
  0
LINE
  5
13D4D
  8
0
 10
0.9281769952492657
 20
0.7270818079480234
 30
0.0
 11
0.8885673529450803
 21
0.7462153179509965
 31
0.0
  0
ARC
  5
13D4E
  8
0
 10
1.064132772114823
 20
0.6505466992145994
 30
0.0
 40
0.1972185357284392
 50
154.1951902068269931
 51
205.9343639525224887
  0
ARC
  5
13D4F
  8
0
 10
0.8901628775563557
 20
0.5687024147275093
 30
0.0
 40
0.005559124443349
 50
232.4519945233444105
 51
306.5450632869811898
  0
LINE
  5
13D50
  8
0
 10
0.8934730851026477
 20
0.5642362765103411
 30
0.0
 11
0.928009289496237
 21
0.5809228025379963
 31
0.0
  0
ARC
  5
13D51
  8
0
 10
1.0984485266915329
 20
0.6564151928209565
 30
0.0
 40
0.186409856408939
 50
203.8899164142835048
 51
225.3218534699225017
  0
LINE
  5
13D52
  8
0
 10
0.9673793681765863
 20
0.5238651635769127
 30
0.0
 11
0.9328431636361136
 21
0.507178637605561
 31
0.0
  0
ARC
  5
13D53
  8
0
 10
0.9299729706983788
 20
0.5117148342214916
 30
0.0
 40
0.005367968632353
 50
221.4662773689852031
 51
302.3228119786346042
  0
ARC
  5
13D54
  8
0
 10
1.132517110597979
 20
0.7053969573046271
 30
0.0
 40
0.2856082449087893
 50
223.6764095834716102
 51
264.0914428166992138
  0
ARC
  5
13D55
  8
0
 10
1.0930648921059909
 20
0.6767879733359035
 30
0.0
 40
0.2298785392017888
 50
209.4297071756346895
 51
223.3664666052216035
  0
LINE
  5
13D56
  8
0
 10
0.925948555576503
 20
0.5189390808769172
 30
0.0
 11
0.957646166487172
 21
0.5342541109359314
 31
0.0
  0
LINE
  5
13D57
  8
0
 10
0.925948555576503
 20
0.5189390808769172
 30
0.0
 11
0.9259505070765561
 21
0.5081602774769163
 31
0.0
  0
LINE
  5
13D58
  8
0
 10
0.9448292569370613
 20
0.4901172807255403
 30
0.0
 11
0.9448304978766435
 21
0.4832636339769163
 31
0.0
  0
LINE
  5
13D59
  8
0
 10
0.9448304978766435
 20
0.4832636339769163
 30
0.0
 11
0.9337634043765836
 21
0.4740024842769213
 31
0.0
  0
ARC
  5
13D5A
  8
0
 10
1.067421098108986
 20
0.6490003031088049
 30
0.0
 40
0.2202013071935337
 50
125.3773006932620007
 51
232.6285751557028902
  0
LINE
  5
13D5B
  8
0
 10
1.1031162849765279
 20
0.4213060193769121
 30
0.0
 11
1.103116641161938
 21
0.4582970262198654
 31
0.0
  0
ARC
  5
13D5C
  8
0
 10
1.07653778631198
 20
0.7992218189063163
 30
0.0
 40
0.0103165194602044
 50
125.5410711833921056
 51
235.4698331271657992
  0
ARC
  5
13D5D
  8
0
 10
1.080012420202598
 20
0.8042717445141516
 30
0.0
 40
0.0164463505605584
 50
235.4698331271657992
 51
303.4358825875448247
  0
ARC
  5
13D5E
  8
0
 10
1.0833757147672769
 20
0.7991779848893527
 30
0.0
 40
0.0103424061437357
 50
303.4358825875456773
 51
42.4410802376050924
  0
ARC
  5
13D5F
  8
0
 10
1.079939341186906
 20
0.7951706465923661
 30
0.0
 40
0.015595700161746
 50
44.7868387131076773
 51
127.0583544161938931
  0
ARC
  5
13D60
  8
0
 10
1.0639116087229521
 20
0.7399421266844666
 30
0.0
 40
0.0131430672641373
 50
44.0207641258932227
 51
141.6123316269562906
  0
ARC
  5
13D61
  8
0
 10
1.060588675872856
 20
0.7431921686980713
 30
0.0
 40
0.0085339901043492
 50
144.863566123331708
 51
219.0217763409771976
  0
ARC
  5
13D62
  8
0
 10
1.06399735217679
 20
0.7469449906432128
 30
0.0
 40
0.0135668858997472
 50
222.2730108373424969
 51
302.6513264396903082
  0
ARC
  5
13D63
  8
0
 10
1.066400139311787
 20
0.7431952619911595
 30
0.0
 40
0.0091133647106656
 50
302.6513264396903082
 51
40.1830516352994564
  0
ARC
  5
13D64
  8
0
 10
1.0204889400549799
 20
0.7735422231816341
 30
0.0
 40
0.0103165194602044
 50
125.5410711833921056
 51
235.4698331271657992
  0
ARC
  5
13D65
  8
0
 10
1.023963573945599
 20
0.7785921487894694
 30
0.0
 40
0.0164463505605584
 50
235.4698331271657992
 51
303.4358825875448247
  0
ARC
  5
13D66
  8
0
 10
1.0273268685102781
 20
0.7734983891646703
 30
0.0
 40
0.0103424061437357
 50
303.4358825875456773
 51
42.4410802376050924
  0
ARC
  5
13D67
  8
0
 10
1.023890494929907
 20
0.7694910508676838
 30
0.0
 40
0.015595700161746
 50
44.7868387131076773
 51
127.0583544161938931
  0
ARC
  5
13D68
  8
0
 10
0.9778129115818563
 20
0.7347632675468088
 30
0.0
 40
0.0103165194602044
 50
125.5410711833921056
 51
235.4698331271657992
  0
ARC
  5
13D69
  8
0
 10
0.9812875454724752
 20
0.7398131931546157
 30
0.0
 40
0.0164463505605584
 50
235.4698331271657992
 51
303.4358825875448247
  0
ARC
  5
13D6A
  8
0
 10
0.9846508400371538
 20
0.7347194335298167
 30
0.0
 40
0.0103424061437357
 50
303.4358825875456773
 51
42.4410802376050924
  0
ARC
  5
13D6B
  8
0
 10
0.981214466456783
 20
0.7307120952328586
 30
0.0
 40
0.015595700161746
 50
44.7868387131076773
 51
127.0583544161938931
  0
ARC
  5
13D6C
  8
0
 10
0.9521965334331587
 20
0.6862857193435996
 30
0.0
 40
0.0103165194602044
 50
125.5410711833921056
 51
235.4698331271657992
  0
ARC
  5
13D6D
  8
0
 10
0.9556711673237775
 20
0.691335644951435
 30
0.0
 40
0.0164463505605584
 50
235.4698331271657992
 51
303.4358825875448247
  0
ARC
  5
13D6E
  8
0
 10
0.9590344618884563
 20
0.6862418853266359
 30
0.0
 40
0.0103424061437357
 50
303.4358825875456773
 51
42.4410802376050924
  0
ARC
  5
13D6F
  8
0
 10
0.9555980883085402
 20
0.6822345470296494
 30
0.0
 40
0.015595700161746
 50
44.7868387131076773
 51
127.0583544161938931
  0
ARC
  5
13D70
  8
0
 10
0.9467509099074566
 20
0.6330098127852734
 30
0.0
 40
0.0103165194602044
 50
125.5410711833921056
 51
235.4698331271657992
  0
ARC
  5
13D71
  8
0
 10
0.9502255437985303
 20
0.6380597383930802
 30
0.0
 40
0.0164463505605584
 50
235.4698331271657992
 51
303.4358825875448247
  0
ARC
  5
13D72
  8
0
 10
0.9535888383627542
 20
0.6329659787682811
 30
0.0
 40
0.0103424061437357
 50
303.4358825875456773
 51
42.4410802376050924
  0
ARC
  5
13D73
  8
0
 10
0.9501524647828381
 20
0.628958640471323
 30
0.0
 40
0.015595700161746
 50
44.7868387131076773
 51
127.0583544161938931
  0
ARC
  5
13D74
  8
0
 10
0.9622524477442828
 20
0.5816106303231816
 30
0.0
 40
0.0103165194602044
 50
125.5410711833921056
 51
235.4698331271657992
  0
ARC
  5
13D75
  8
0
 10
0.9657270816353564
 20
0.586660555931017
 30
0.0
 40
0.0164463505605584
 50
235.4698331271657992
 51
303.4358825875448247
  0
ARC
  5
13D76
  8
0
 10
0.9690903761995803
 20
0.5815667963062179
 30
0.0
 40
0.0103424061437357
 50
303.4358825875456773
 51
42.4410802376050924
  0
ARC
  5
13D77
  8
0
 10
0.9656540026196642
 20
0.5775594580092314
 30
0.0
 40
0.015595700161746
 50
44.7868387131076773
 51
127.0583544161938931
  0
ARC
  5
13D78
  8
0
 10
0.9968879432142392
 20
0.5371571513185796
 30
0.0
 40
0.0103165194602044
 50
125.5410711833921056
 51
235.4698331271657992
  0
ARC
  5
13D79
  8
0
 10
1.0003625771048581
 20
0.5422070769263865
 30
0.0
 40
0.0164463505605584
 50
235.4698331271657992
 51
303.4358825875448247
  0
ARC
  5
13D7A
  8
0
 10
1.0037258716695361
 20
0.5371133173015874
 30
0.0
 40
0.0103424061437357
 50
303.4358825875456773
 51
42.4410802376050924
  0
ARC
  5
13D7B
  8
0
 10
1.00028949808962
 20
0.5331059790046293
 30
0.0
 40
0.015595700161746
 50
44.7868387131076773
 51
127.0583544161938931
  0
ARC
  5
13D7C
  8
0
 10
1.0472548974692071
 20
0.5046068519243346
 30
0.0
 40
0.0103165194602044
 50
125.5410711833921056
 51
235.4698331271657992
  0
ARC
  5
13D7D
  8
0
 10
1.0507295313598259
 20
0.5096567775321699
 30
0.0
 40
0.0164463505605584
 50
235.4698331271657992
 51
303.4358825875448247
  0
ARC
  5
13D7E
  8
0
 10
1.054092825924505
 20
0.5045630179073708
 30
0.0
 40
0.0103424061437357
 50
303.4358825875456773
 51
42.4410802376050924
  0
ARC
  5
13D7F
  8
0
 10
1.0506564523445889
 20
0.5005556796103843
 30
0.0
 40
0.015595700161746
 50
44.7868387131076773
 51
127.0583544161938931
  0
ARC
  5
13D80
  8
0
 10
1.107197976426284
 20
0.4871537497000116
 30
0.0
 40
0.0103165194602044
 50
125.5410711833921056
 51
235.4698331271657992
  0
ARC
  5
13D81
  8
0
 10
1.110672610317357
 20
0.492203675307847
 30
0.0
 40
0.0164463505605584
 50
235.4698331271657992
 51
303.4358825875448247
  0
ARC
  5
13D82
  8
0
 10
1.1140359048815811
 20
0.4871099156830479
 30
0.0
 40
0.0103424061437357
 50
303.4358825875456773
 51
42.4410802376050924
  0
ARC
  5
13D83
  8
0
 10
1.110599531301665
 20
0.4831025773860614
 30
0.0
 40
0.015595700161746
 50
44.7868387131076773
 51
127.0583544161938931
  0
ARC
  5
13D84
  8
0
 10
1.1111205415129519
 20
0.757065954524391
 30
0.0
 40
0.0131430672641373
 50
44.0207641258932227
 51
141.6123316269562906
  0
ARC
  5
13D85
  8
0
 10
1.1077976086628549
 20
0.760315996538024
 30
0.0
 40
0.0085339901043492
 50
144.863566123331708
 51
219.0217763409771976
  0
ARC
  5
13D86
  8
0
 10
1.111206284966789
 20
0.7640688184831657
 30
0.0
 40
0.0135668858997472
 50
222.2730108373424969
 51
302.6513264396903082
  0
ARC
  5
13D87
  8
0
 10
1.1136090721017871
 20
0.7603190898310839
 30
0.0
 40
0.0091133647106656
 50
302.6513264396903082
 51
40.1830516352994564
  0
ARC
  5
13D88
  8
0
 10
1.086923864715351
 20
0.7008067007608059
 30
0.0
 40
0.0131430672641373
 50
44.0207641258932227
 51
141.6123316269562906
  0
ARC
  5
13D89
  8
0
 10
1.0836009318648001
 20
0.7040567427744105
 30
0.0
 40
0.0085339901043492
 50
144.863566123331708
 51
219.0217763409771976
  0
ARC
  5
13D8A
  8
0
 10
1.0870096081687339
 20
0.7078095647195523
 30
0.0
 40
0.0135668858997472
 50
222.2730108373424969
 51
302.6513264396903082
  0
ARC
  5
13D8B
  8
0
 10
1.0894123953041861
 20
0.7040598360674988
 30
0.0
 40
0.0091133647106656
 50
302.6513264396903082
 51
40.1830516352994564
  0
ARC
  5
13D8C
  8
0
 10
1.0272849692617061
 20
0.7097173953420093
 30
0.0
 40
0.0131430672641373
 50
44.0207641258932227
 51
141.6123316269562906
  0
ARC
  5
13D8D
  8
0
 10
1.0239620364116091
 20
0.7129674373556423
 30
0.0
 40
0.0085339901043492
 50
144.863566123331708
 51
219.0217763409771976
  0
ARC
  5
13D8E
  8
0
 10
1.0273707127155429
 20
0.716720259300784
 30
0.0
 40
0.0135668858997472
 50
222.2730108373424969
 51
302.6513264396903082
  0
ARC
  5
13D8F
  8
0
 10
1.029773499850541
 20
0.7129705306487022
 30
0.0
 40
0.0091133647106656
 50
302.6513264396903082
 51
40.1830516352994564
  0
ARC
  5
13D90
  8
0
 10
1.006915705605258
 20
0.6703757455656483
 30
0.0
 40
0.0131430672641373
 50
44.0207641258932227
 51
141.6123316269562906
  0
ARC
  5
13D91
  8
0
 10
1.003592772754706
 20
0.6736257875792813
 30
0.0
 40
0.0085339901043492
 50
144.863566123331708
 51
219.0217763409771976
  0
ARC
  5
13D92
  8
0
 10
1.0070014490586401
 20
0.677378609524423
 30
0.0
 40
0.0135668858997472
 50
222.2730108373424969
 51
302.6513264396903082
  0
ARC
  5
13D93
  8
0
 10
1.009404236194092
 20
0.6736288808723412
 30
0.0
 40
0.0091133647106656
 50
302.6513264396903082
 51
40.1830516352994564
  0
ARC
  5
13D94
  8
0
 10
1.0570506498791079
 20
0.6624615306803872
 30
0.0
 40
0.0131430672641373
 50
44.0207641258932227
 51
141.6123316269562906
  0
ARC
  5
13D95
  8
0
 10
1.0537277170290109
 20
0.6657115726939918
 30
0.0
 40
0.0085339901043492
 50
144.863566123331708
 51
219.0217763409771976
  0
ARC
  5
13D96
  8
0
 10
1.05713639333249
 20
0.6694643946391335
 30
0.0
 40
0.0135668858997472
 50
222.2730108373424969
 51
302.6513264396903082
  0
ARC
  5
13D97
  8
0
 10
1.0595391804679419
 20
0.6657146659870801
 30
0.0
 40
0.0091133647106656
 50
302.6513264396903082
 51
40.1830516352994564
  0
ARC
  5
13D98
  8
0
 10
1.11006438275877
 20
0.6583316694134549
 30
0.0
 40
0.0131430672641373
 50
44.0207641258932227
 51
141.6123316269562906
  0
ARC
  5
13D99
  8
0
 10
1.1067414499086741
 20
0.6615817114270879
 30
0.0
 40
0.0085339901043492
 50
144.863566123331708
 51
219.0217763409771976
  0
ARC
  5
13D9A
  8
0
 10
1.1101501262126079
 20
0.6653345333722296
 30
0.0
 40
0.0135668858997472
 50
222.2730108373424969
 51
302.6513264396903082
  0
ARC
  5
13D9B
  8
0
 10
1.1125529133476051
 20
0.6615848047201478
 30
0.0
 40
0.0091133647106656
 50
302.6513264396903082
 51
40.1830516352994564
  0
ARC
  5
13D9C
  8
0
 10
1.1244541222456581
 20
0.6156147033001087
 30
0.0
 40
0.0131430672641373
 50
44.0207641258932227
 51
141.6123316269562906
  0
ARC
  5
13D9D
  8
0
 10
1.1211311893955609
 20
0.6188647453137417
 30
0.0
 40
0.0085339901043492
 50
144.863566123331708
 51
219.0217763409771976
  0
ARC
  5
13D9E
  8
0
 10
1.1245398656994949
 20
0.622617567258855
 30
0.0
 40
0.0135668858997472
 50
222.2730108373424969
 51
302.6513264396903082
  0
ARC
  5
13D9F
  8
0
 10
1.1269426528344919
 20
0.6188678386068017
 30
0.0
 40
0.0091133647106656
 50
302.6513264396903082
 51
40.1830516352994564
  0
ARC
  5
13DA0
  8
0
 10
1.059980645255342
 20
0.6163856745563105
 30
0.0
 40
0.0131430672641373
 50
44.0207641258932227
 51
141.6123316269562906
  0
ARC
  5
13DA1
  8
0
 10
1.0566577124052461
 20
0.6196357165699437
 30
0.0
 40
0.0085339901043492
 50
144.863566123331708
 51
219.0217763409771976
  0
ARC
  5
13DA2
  8
0
 10
1.0600663887091799
 20
0.6233885385150854
 30
0.0
 40
0.0135668858997472
 50
222.2730108373424969
 51
302.6513264396903082
  0
ARC
  5
13DA3
  8
0
 10
1.0624691758441771
 20
0.6196388098630035
 30
0.0
 40
0.0091133647106656
 50
302.6513264396903082
 51
40.1830516352994564
  0
ARC
  5
13DA4
  8
0
 10
1.004004180332464
 20
0.6269780768421338
 30
0.0
 40
0.0131430672641373
 50
44.0207641258932227
 51
141.6123316269562906
  0
ARC
  5
13DA5
  8
0
 10
1.0006812474823681
 20
0.6302281188557668
 30
0.0
 40
0.0085339901043492
 50
144.863566123331708
 51
219.0217763409771976
  0
ARC
  5
13DA6
  8
0
 10
1.0040899237863019
 20
0.6339809408009085
 30
0.0
 40
0.0135668858997472
 50
222.2730108373424969
 51
302.6513264396903082
  0
ARC
  5
13DA7
  8
0
 10
1.0064927109212991
 20
0.6302312121488268
 30
0.0
 40
0.0091133647106656
 50
302.6513264396903082
 51
40.1830516352994564
  0
ARC
  5
13DA8
  8
0
 10
1.0943008242068171
 20
0.5809862451845031
 30
0.0
 40
0.0131430672641373
 50
44.0207641258932227
 51
141.6123316269562906
  0
ARC
  5
13DA9
  8
0
 10
1.090977891356721
 20
0.5842362871981078
 30
0.0
 40
0.0085339901043492
 50
144.863566123331708
 51
219.0217763409771976
  0
ARC
  5
13DAA
  8
0
 10
1.094386567660655
 20
0.5879891091432495
 30
0.0
 40
0.0135668858997472
 50
222.2730108373424969
 51
302.6513264396903082
  0
ARC
  5
13DAB
  8
0
 10
1.096789354795652
 20
0.5842393804911961
 30
0.0
 40
0.0091133647106656
 50
302.6513264396903082
 51
40.1830516352994564
  0
ARC
  5
13DAC
  8
0
 10
1.0203105816069691
 20
0.5865475139297569
 30
0.0
 40
0.0131430672641373
 50
44.0207641258932227
 51
141.6123316269562906
  0
ARC
  5
13DAD
  8
0
 10
1.016987648756418
 20
0.5897975559433899
 30
0.0
 40
0.0085339901043492
 50
144.863566123331708
 51
219.0217763409771976
  0
ARC
  5
13DAE
  8
0
 10
1.020396325060352
 20
0.5935503778885316
 30
0.0
 40
0.0135668858997472
 50
222.2730108373424969
 51
302.6513264396903082
  0
ARC
  5
13DAF
  8
0
 10
1.022799112195349
 20
0.5898006492364499
 30
0.0
 40
0.0091133647106656
 50
302.6513264396903082
 51
40.1830516352994564
  0
ARC
  5
13DB0
  8
0
 10
1.0526325500779929
 20
0.5532974639139053
 30
0.0
 40
0.0131430672641373
 50
44.0207641258932227
 51
141.6123316269562906
  0
ARC
  5
13DB1
  8
0
 10
1.0493096172274421
 20
0.5565475059275382
 30
0.0
 40
0.0085339901043492
 50
144.863566123331708
 51
219.0217763409771976
  0
ARC
  5
13DB2
  8
0
 10
1.0527182935313759
 20
0.5603003278726515
 30
0.0
 40
0.0135668858997472
 50
222.2730108373424969
 51
302.6513264396903082
  0
ARC
  5
13DB3
  8
0
 10
1.0551210806668281
 20
0.5565505992205982
 30
0.0
 40
0.0091133647106656
 50
302.6513264396903082
 51
40.1830516352994564
  0
ARC
  5
13DB4
  8
0
 10
1.0979242000210041
 20
0.5323026390524018
 30
0.0
 40
0.0131430672641373
 50
44.0207641258932227
 51
141.6123316269562906
  0
ARC
  5
13DB5
  8
0
 10
1.0946012671709071
 20
0.5355526810660347
 30
0.0
 40
0.0085339901043492
 50
144.863566123331708
 51
219.0217763409771976
  0
ARC
  5
13DB6
  8
0
 10
1.0980099434748409
 20
0.5393055030111765
 30
0.0
 40
0.0135668858997472
 50
222.2730108373424969
 51
302.6513264396903082
  0
ARC
  5
13DB7
  8
0
 10
1.1004127306098379
 20
0.535555774359123
 30
0.0
 40
0.0091133647106656
 50
302.6513264396903082
 51
40.1830516352994564
  0
ARC
  5
13DB8
  8
0
 10
1.141732324476612
 20
0.6486694171272785
 30
0.0
 40
0.6526056911496231
 50
74.8522769283164422
 51
105.147723071683501
  0
ARC
  5
13DB9
  8
0
 10
1.141732324476612
 20
0.6538416493225139
 30
0.0
 40
0.6538416539455955
 50
254.8815950984703136
 51
285.1184049015296864
  0
ARC
  5
13DBA
  8
0
 10
1.141732324476612
 20
0.7177083160688067
 30
0.0
 40
0.2622696861990634
 50
261.5331857212387945
 51
278.4668142787610918
  0
LINE
  5
13DBB
  8
0
 10
1.1724752149764359
 20
0.3556920116769202
 30
0.0
 11
1.1724747726691529
 21
0.3724479439259749
 31
0.0
  0
LINE
  5
13DBC
  8
0
 10
1.110989433976789
 20
0.3556920116769202
 30
0.0
 11
1.1109898762840711
 21
0.3724479439259749
 31
0.0
  0
ARC
  5
13DBD
  8
0
 10
1.1417322810618831
 20
0.3677072149020244
 30
0.0
 40
0.0311057866514069
 50
8.7653722682212312
 51
171.2335781711061031
  0
ARC
  5
13DBE
  8
0
 10
1.1410136497763741
 20
0.9440863507769829
 30
0.0
 40
0.5764339512000852
 50
267.0143668120276743
 51
273.1287047943426955
  0
ARC
  5
13DBF
  8
0
 10
1.141732324476612
 20
0.5597110430100809
 30
0.0
 40
0.3361447655616558
 50
53.1062958515055712
 51
126.8937041484943933
  0
ARC
  5
13DC0
  8
0
 10
1.141732324476612
 20
0.5756803387442045
 30
0.0
 40
0.2619007290612408
 50
81.5211701794930832
 51
98.478829820506931
  0
ARC
  5
13DC1
  8
0
 10
1.1410096712309099
 20
0.8952449552308774
 30
0.0
 40
0.4712855935356724
 50
266.3717476016286128
 51
273.8156896711124091
  0
ARC
  5
13DC2
  8
0
 10
1.140770248870246
 20
1.167947263451905
 30
0.0
 40
0.0351115734545109
 50
211.9812755653429974
 51
334.5594133590436741
  0
ARC
  5
13DC3
  8
0
 10
1.141732324476612
 20
1.1316169755214649
 30
0.0
 40
0.0311093800968371
 50
188.8087134444483866
 51
351.1912865555515282
  0
ARC
  5
13DC4
  8
0
 10
1.141732324476612
 20
0.6220692574634068
 30
0.0
 40
0.4624466997696033
 50
82.0813251199618321
 51
97.9186748800381821
  0
LINE
  5
13DC5
  8
0
 10
2.283464607976617
 20
11.2695426700469401
 30
0.0
 11
0.0000000409766079
 21
11.2695426700469401
 31
0.0
  0
LINE
  5
13DC6
  8
0
 10
2.283464607976617
 20
11.0333221976469193
 30
0.0
 11
2.283464607976617
 21
11.2695426700469401
 31
0.0
  0
LINE
  5
13DC7
  8
0
 10
2.2278799507760199
 20
10.9742670795469301
 30
0.0
 11
0.0555846981776602
 21
10.9742670795469301
 31
0.0
  0
LINE
  5
13DC8
  8
0
 10
1.6930071429726521
 20
5.0340593644893072
 30
0.0
 11
1.6930071429726521
 21
10.9742670795469301
 31
0.0
  0
ARC
  5
13DC9
  8
0
 10
2.2242159991612942
 20
11.0334023442254008
 30
0.0
 40
0.0592486630231374
 50
273.5454470395844169
 51
359.9224950934644198
  0
ARC
  5
13DCA
  8
0
 10
1.4888600536025991
 20
5.041830501644851
 30
0.0
 40
0.2042949452897024
 50
308.4435126952906217
 51
357.8200106369325795
  0
LINE
  5
13DCB
  8
0
 10
0.0000000409766079
 20
11.0333221976469193
 30
0.0
 11
0.0000000409766079
 21
11.2695426700469401
 31
0.0
  0
LINE
  5
13DCC
  8
0
 10
0.5904575059810276
 20
5.0340593644893072
 30
0.0
 11
0.5904575059810276
 21
10.9742670795469301
 31
0.0
  0
ARC
  5
13DCD
  8
0
 10
0.0592486497919316
 20
11.0334023442254008
 30
0.0
 40
0.0592486630231374
 50
180.0775049065354949
 51
266.4545529604155263
  0
ARC
  5
13DCE
  8
0
 10
0.794604595351081
 20
5.041830501644851
 30
0.0
 40
0.2042949452897024
 50
182.1799893630673921
 51
231.5564873047094068
  0
ARC
  5
13DCF
  8
0
 10
1.141732324476612
 20
5.5673330570233741
 30
0.0
 40
0.8335106594618192
 50
235.3295860651338103
 51
304.6704139348661897
  0
LINE
  5
13DD0
  8
0
 10
9.8952980691765404
 20
1.0517151965769049
 30
0.0
 11
9.8952980691765404
 21
3.3351797635769151
 31
0.0
  0
LINE
  5
13DD1
  8
0
 10
9.6590775967765765
 20
1.0517151965769049
 30
0.0
 11
9.8952980691765404
 21
1.0517151965769049
 31
0.0
  0
LINE
  5
13DD2
  8
0
 10
9.6000224786762445
 20
1.10729985377756
 30
0.0
 11
9.6000224786762445
 21
3.2795951063762319
 31
0.0
  0
ARC
  5
13DD3
  8
0
 10
9.6591577433550881
 20
1.110963805392257
 30
0.0
 40
0.0592486630231374
 50
183.5454470395904139
 51
269.9224950934709
  0
LINE
  5
13DD4
  8
0
 10
9.6590775967765765
 20
3.3351797635769151
 30
0.0
 11
9.8952980691765404
 21
3.3351797635769151
 31
0.0
  0
ARC
  5
13DD5
  8
0
 10
9.6591577433550881
 20
3.2759311547615351
 30
0.0
 40
0.0592486630231374
 50
90.0775049065290858
 51
176.4545529604095009
  0
LINE
  5
13DD6
  8
0
 10
9.6000224786762445
 20
2.9711002513727158
 30
0.0
 11
7.2686138246485879
 21
2.9711002513727158
 31
0.0
  0
LINE
  5
13DD7
  8
0
 10
9.6000224786762445
 20
1.415652157137314
 30
0.0
 11
7.4195927936762081
 21
1.4126483691769041
 31
0.0
  0
LINE
  5
13DD8
  8
0
 10
5.7757230563765969
 20
0.9726734528769025
 30
0.0
 11
4.2111083833765459
 21
-0.0000000046231055
 31
0.0
  0
LINE
  5
13DD9
  8
0
 10
4.2111083833765459
 20
-0.0000000046231055
 30
0.0
 11
3.359577806276326
 21
1.301275108276909
 31
0.0
  0
LINE
  5
13DDA
  8
0
 10
3.359577806276326
 20
1.301275108276909
 30
0.0
 11
4.7818179421879048
 21
2.1934474800769101
 31
0.0
  0
ARC
  5
13DDB
  8
0
 10
3.9302774962752718
 20
0.4292270924972837
 30
0.0
 40
0.007917685102959
 50
212.8886634278860868
 51
294.9014598383195107
  0
LINE
  5
13DDC
  8
0
 10
3.9236287997764578
 20
0.4249277236769143
 30
0.0
 11
3.633632909276463
 21
0.8680879028769066
 31
0.0
  0
ARC
  5
13DDD
  8
0
 10
3.6402962861529939
 20
0.8724672642312025
 30
0.0
 40
0.00797366899677
 50
153.6903280899680908
 51
213.314058728287705
  0
LINE
  5
13DDE
  8
0
 10
3.8995106082052251
 20
0.4761713049807082
 30
0.0
 11
3.8961989083222819
 21
0.474004383268861
 31
0.0
  0
LINE
  5
13DDF
  8
0
 10
3.8961989083222819
 20
0.474004383268861
 30
0.0
 11
3.6201714934763971
 21
0.8958562444769012
 31
0.0
  0
LINE
  5
13DE0
  8
0
 10
3.6201714934763971
 20
0.8958562444769012
 30
0.0
 11
3.6082928816531479
 21
0.9211986359872224
 31
0.0
  0
ARC
  5
13DE1
  8
0
 10
7.4816286111172356
 20
-2.075076185725437
 30
0.0
 40
5.0506704439687038
 50
92.4171977872311459
 51
122.3130601850461971
  0
ARC
  5
13DE2
  8
0
 10
7.4380849015910879
 20
-1.9474100839369171
 30
0.0
 40
3.3601093384586131
 50
90.3153245860596456
 51
119.6522411900763956
  0
ENDBLK
  5
13DE6
  8
0
  0
ENDSEC
  0
SECTION
  2
ENTITIES
  0
ATTDEF
  5
12BEB
  8
DEFPOINTS
 10
3691.9655264979451204
 20
168.5925665214660114
 30
0.0
 40
0.001
  1
K-33065T-4
  3

  2
MODELNUMBER
 70
     0
1001
ACDBATTR
1070
     0
1070
     1
  0
ATTDEF
  5
12BEC
  8
DEFPOINTS
 10
3691.9655264979451204
 20
168.5908998547992894
 30
0.0
 40
0.001
  1
ACCLIV
  3

  2
TRADENAME
 70
     0
1001
ACDBATTR
1070
     0
1070
     1
  0
ATTDEF
  5
12BED
  8
DEFPOINTS
 10
3691.9655264979451204
 20
168.5892331881325958
 30
0.0
 40
0.001
  1
BATHROOM SINK FAUCET
  3

  2
PRODUCT
 70
     0
1001
ACDBATTR
1070
     0
1070
     1
  0
LINE
  5
17BD5
  8
0
 10
3692.9496193259901702
 20
168.5938273490556014
 30
0.0
 11
3690.9808483681058533
 21
168.5938273490556014
 31
0.0
  0
LINE
  5
17BD6
  8
0
 10
3692.9496193259901702
 20
168.5938273490556014
 30
0.0
 11
3692.8502943821899862
 21
172.7652319340556062
 31
0.0
  0
ARC
  5
17BD7
  8
0
 10
3692.7769820345260996
 20
172.7634865518774063
 30
0.0
 40
0.0733331212952492
 50
1.363810439598178
 51
62.1567748293528979
  0
ARC
  5
17BD8
  8
0
 10
3692.2218498294350866
 20
171.4578936561759122
 30
0.0
 40
1.4918000061494501
 50
66.7289371296211158
 51
70.8565753327374779
  0
ARC
  5
17BD9
  8
0
 10
3692.8933591202790012
 20
173.356611452487499
 30
0.0
 40
0.5222621771912094
 50
241.030238636675989
 51
249.5705744087102005
  0
ARC
  5
17BDA
  8
0
 10
3692.6983317206418178
 20
173.0078033272872062
 30
0.0
 40
0.1226488974309289
 50
225.2461270514359057
 51
241.8151640989484008
  0
LINE
  5
17BDB
  8
0
 10
3692.6119792032900477
 20
172.9207057108556
 30
0.0
 11
3692.5735675232899666
 21
173.134614208955611
 31
0.0
  0
ARC
  5
17BDC
  8
0
 10
3692.5212321832977977
 20
173.1271770301831907
 30
0.0
 40
0.0528611335503707
 50
8.0879352508835698
 51
60.2602705955591205
  0
ARC
  5
17BDD
  8
0
 10
3692.4752005767841183
 20
173.0466049012624978
 30
0.0
 40
0.1456554046936956
 50
60.2602705955591205
 51
73.4071667467979552
  0
ARC
  5
17BDE
  8
0
 10
3692.1820138796510946
 20
171.6824814864843063
 30
0.0
 40
1.5405300212980171
 50
77.4485827039301569
 51
86.7054071067812941
  0
ARC
  5
17BDF
  8
0
 10
3691.9231659234351355
 20
169.242313331790001
 30
0.0
 40
3.9932903711641878
 50
85.0094519599766443
 51
88.2147975426818221
  0
ARC
  5
17BE0
  8
0
 10
3691.739906534099191
 20
160.0561717883668962
 30
0.0
 40
13.1810847870441208
 50
88.662532769661226
 51
89.0194107491910529
  0
ARC
  5
17BE1
  8
0
 10
3691.9658787623111493
 20
171.0349510013334111
 30
0.0
 40
1.5659370499011691
 50
84.4550121191289662
 51
90.019032311216435
  0
ARC
  5
17BE2
  8
0
 10
3691.9937511179869034
 20
171.3220534275226044
 30
0.0
 40
1.277484850508066
 50
77.4193891978593314
 51
84.4550121191289662
  0
ARC
  5
17BE3
  8
0
 10
3692.1089768189967799
 20
171.8383642369788902
 30
0.0
 40
0.7484727389883296
 50
69.6432229703617907
 51
77.4193891978593314
  0
ARC
  5
17BE4
  8
0
 10
3692.2198008874379411
 20
172.1370506585585076
 30
0.0
 40
0.429889072455101
 50
56.0438891678946689
 51
69.6432229703617907
  0
ARC
  5
17BE5
  8
0
 10
3692.3831794014768093
 20
172.3796699486549073
 30
0.0
 40
0.1373883736926364
 50
30.6312901956282211
 51
56.0438891678946689
  0
ARC
  5
17BE6
  8
0
 10
3692.4448163145498256
 20
172.4161673660661052
 30
0.0
 40
0.0657561844839263
 50
353.4962380729052143
 51
30.6312901956282211
  0
ARC
  5
17BE7
  8
0
 10
3692.3895522447528492
 20
172.4224675871352872
 30
0.0
 40
0.1213782142565333
 50
335.0021134924581929
 51
353.496238072903509
  0
ARC
  5
17BE8
  8
0
 10
3692.3305250682738006
 20
172.4394896465811087
 30
0.0
 40
0.1823177255362642
 50
312.4903548995744131
 51
337.9941600741030925
  0
ARC
  5
17BE9
  8
0
 10
3692.2766966068588772
 20
172.5016000014927045
 30
0.0
 40
0.2644863085814239
 50
289.4199107052476165
 51
312.0005882017326257
  0
ARC
  5
17BEA
  8
0
 10
3692.1842814267761241
 20
172.7816564698252932
 30
0.0
 40
0.5593683268367873
 50
272.2723690485780139
 51
288.8095995464549901
  0
ARC
  5
17BEB
  8
0
 10
3692.0902848840350998
 20
174.5563986891260981
 30
0.0
 40
2.3365606273813069
 50
269.2901153355904853
 51
272.849961959444272
  0
ARC
  5
17BEC
  8
0
 10
3692.0133473214759761
 20
94.3772062492878092
 30
0.0
 40
77.8428259423547502
 50
89.9646781621693776
 51
90.0353218378306366
  0
ARC
  5
17BED
  8
0
 10
3691.9581716752741158
 20
171.5513621303944092
 30
0.0
 40
1.002667644596597
 50
78.7827402199480531
 51
89.5893118850326147
  0
ARC
  5
17BEE
  8
0
 10
3692.0582562664490069
 20
172.0651125968088877
 30
0.0
 40
0.4792653769461005
 50
66.7284327301367739
 51
78.5714767938697776
  0
ARC
  5
17BEF
  8
0
 10
3692.1726739795008143
 20
172.3311508806023937
 30
0.0
 40
0.1896660304283013
 50
46.8235616244762767
 51
66.7284327301367739
  0
ARC
  5
17BF0
  8
0
 10
3692.2642499560702163
 20
172.4287497892802037
 30
0.0
 40
0.055831406882418
 50
11.3258901036021395
 51
46.8235616244773922
  0
ARC
  5
17BF1
  8
0
 10
3692.2775053023487999
 20
172.4320548408217917
 30
0.0
 40
0.0421899348472388
 50
0.0880397516297427
 51
10.4601290257716109
  0
LINE
  5
17BF2
  8
0
 10
3692.3196951873901526
 20
172.4321196691556963
 30
0.0
 11
3692.3196725700531715
 21
172.375287085338698
 31
0.0
  0
ARC
  5
17BF3
  8
0
 10
3692.2396742855371485
 20
172.3775957901588924
 30
0.0
 40
0.0800310853679379
 50
331.1296058925997272
 51
358.3597176538838198
  0
ARC
  5
17BF4
  8
0
 10
3692.2094281127037902
 20
172.3942721889264931
 30
0.0
 40
0.1145699511130967
 50
306.6876251657062085
 51
331.1296058925997272
  0
ARC
  5
17BF5
  8
0
 10
3692.1583825479178813
 20
172.4449306227396903
 30
0.0
 40
0.1859966312125727
 50
292.6589607106021731
 51
309.9755860405099952
  0
ARC
  5
17BF6
  8
0
 10
3692.0502273132287883
 20
172.6992201605555124
 30
0.0
 40
0.4623285996450749
 50
281.1580962615224166
 51
292.8874090851663823
  0
ARC
  5
17BF7
  8
0
 10
3691.979116983834956
 20
173.0333763568478957
 30
0.0
 40
0.8039454569564924
 50
273.8965150548390852
 51
281.5216569633424228
  0
ARC
  5
17BF8
  8
0
 10
3691.9651673011380808
 20
173.199340143352714
 30
0.0
 40
0.970477138374356
 50
270.2786455158387753
 51
274.0523441217326877
  0
ARC
  5
17BF9
  8
0
 10
3691.9667778449329489
 20
171.1949628891958923
 30
0.0
 40
1.379577446191439
 50
83.167550026979427
 51
90.058943450391638
  0
ARC
  5
17BFA
  8
0
 10
3692.01026235046902
 20
171.5578871020252905
 30
0.0
 40
1.0140574241959821
 50
73.4990604095329019
 51
83.167546164813416
  0
ARC
  5
17BFB
  8
0
 10
3692.173669284603875
 20
172.1095064481166048
 30
0.0
 40
0.4387438322258648
 50
59.8104674801021972
 51
73.4990604095329019
  0
ARC
  5
17BFC
  8
0
 10
3692.3112941418012269
 20
172.3460690272162026
 30
0.0
 40
0.165060703135471
 50
32.9456137323651674
 51
59.8104674801021972
  0
ARC
  5
17BFD
  8
0
 10
3692.3959645466998154
 20
172.4060956430427041
 30
0.0
 40
0.0615136645188282
 50
327.1973340893542854
 51
28.912739682866281
  0
ARC
  5
17BFE
  8
0
 10
3692.3368946442737979
 20
172.443326638135801
 30
0.0
 40
0.1313360563871182
 50
305.6283001112261104
 51
327.5056657127030917
  0
ARC
  5
17BFF
  8
0
 10
3692.2001009196242194
 20
172.6425673119300086
 30
0.0
 40
0.3729990475830215
 50
287.4885170538597094
 51
304.8794624133275875
  0
ARC
  5
17C00
  8
0
 10
3692.0588331197800471
 20
173.0490787017978107
 30
0.0
 40
0.8032718268245607
 50
278.4243488352398117
 51
288.3855302593655097
  0
ARC
  5
17C01
  8
0
 10
3691.9512849856077992
 20
171.3255518254009075
 30
0.0
 40
1.143255437206621
 50
83.9144746486891648
 51
89.2946643834180236
  0
ARC
  5
17C02
  8
0
 10
3691.9890167447401836
 20
171.7115517582508915
 30
0.0
 40
0.7554383148736394
 50
75.6050049678895846
 51
83.6564640789633245
  0
ARC
  5
17C03
  8
0
 10
3692.0808496155091234
 20
172.0693469258229129
 30
0.0
 40
0.3860460327511951
 50
64.2557032054179444
 51
75.6050049678895846
  0
ARC
  5
17C04
  8
0
 10
3692.1770579450781042
 20
172.2688581859659109
 30
0.0
 40
0.164549338414023
 50
45.8828877094368721
 51
64.2557032054179444
  0
ARC
  5
17C05
  8
0
 10
3692.2521584410551441
 20
172.3463095855530014
 30
0.0
 40
0.0566660505796662
 50
13.8154000869053508
 51
45.8828877094368721
  0
ARC
  5
17C06
  8
0
 10
3692.2707279739211117
 20
172.3508759929256939
 30
0.0
 40
0.0375432990218899
 50
342.708050754003807
 51
13.8154000869053508
  0
ARC
  5
17C07
  8
0
 10
3692.2454066823520407
 20
172.3587587940668868
 30
0.0
 40
0.0640632228634041
 50
318.6703828669432141
 51
342.708050754003807
  0
ARC
  5
17C08
  8
0
 10
3692.0665958803028843
 20
173.0163856652189907
 30
0.0
 40
0.7566390484002588
 50
283.8372676867651876
 51
286.9718647971168934
  0
ARC
  5
17C09
  8
0
 10
3692.1395409175102031
 20
172.7773734879961864
 30
0.0
 40
0.5067434715809737
 50
286.9718647971168934
 51
298.623435091659303
  0
ARC
  5
17C0A
  8
0
 10
3692.3015534568589828
 20
172.4805104419164934
 30
0.0
 40
0.1685486593290771
 50
298.623435091659303
 51
320.5921838722085795
  0
ARC
  5
17C0B
  8
0
 10
3692.3777247727771282
 20
172.417925213612989
 30
0.0
 40
0.0699637711841975
 50
320.5921838722085795
 51
357.9902145702719736
  0
ARC
  5
17C0C
  8
0
 10
3692.3994912017487877
 20
172.4171613911645125
 30
0.0
 40
0.0481839443965266
 50
357.9902145702719736
 51
21.6283870311111812
  0
ARC
  5
17C0D
  8
0
 10
3692.3523595178608048
 20
172.3984736203310888
 30
0.0
 40
0.0988853093173736
 50
21.6283870311111812
 51
37.5964699616851732
  0
ARC
  5
17C0E
  8
0
 10
3692.3408997933061073
 20
172.3896495690819961
 30
0.0
 40
0.1133486826211121
 50
37.5964699616851732
 51
42.4696690991570733
  0
ARC
  5
17C0F
  8
0
 10
3692.390272827769877
 20
172.441694960904897
 30
0.0
 40
0.0568982278181674
 50
332.4065569528498827
 51
348.0902334454340803
  0
ARC
  5
17C10
  8
0
 10
3692.3425391542459693
 20
172.4666425671395018
 30
0.0
 40
0.1107581075517573
 50
302.6339803520534133
 51
332.4065569528498827
  0
ARC
  5
17C11
  8
0
 10
3692.2293348009770853
 20
172.6167949729677957
 30
0.0
 40
0.2985996210714834
 50
293.0387822757317053
 51
305.3905315899144739
  0
ARC
  5
17C12
  8
0
 10
3692.1413500296439452
 20
172.8109302493027997
 30
0.0
 40
0.5117082470026855
 50
288.1015651180624104
 51
293.5976855472131888
  0
ARC
  5
17C13
  8
0
 10
3691.6959901203258596
 20
172.3412352161388981
 30
0.0
 40
0.045803629057125
 50
145.7832651023871051
 51
158.080083641222501
  0
ARC
  5
17C14
  8
0
 10
3691.7263094099380396
 20
172.3201655594936028
 30
0.0
 40
0.0827239823951451
 50
128.0425990899103112
 51
145.5245371953193114
  0
ARC
  5
17C15
  8
0
 10
3691.8067569314948742
 20
172.2088417165390979
 30
0.0
 40
0.2200354983047793
 50
108.3114508246701035
 51
126.676359007585404
  0
ARC
  5
17C16
  8
0
 10
3691.9210067872509171
 20
171.8778089512557017
 30
0.0
 40
0.570218372708486
 50
96.8916711831943047
 51
108.7595931088141015
  0
ARC
  5
17C17
  8
0
 10
3691.963447769753202
 20
171.5829752133959971
 30
0.0
 40
0.8680407724388242
 50
91.947920005326452
 51
97.3376438324386442
  0
ARC
  5
17C18
  8
0
 10
3691.965364917693023
 20
171.5336053524403042
 30
0.0
 40
0.9174473011151636
 50
89.9986881305445934
 51
91.9627775297692693
  0
ARC
  5
17C19
  8
0
 10
3691.698424350939149
 20
172.3768395297979907
 30
0.0
 40
0.0485885113508923
 50
202.3868708368227942
 51
211.8424475238811056
  0
ARC
  5
17C1A
  8
0
 10
3691.7287254889060932
 20
172.3982495231551013
 30
0.0
 40
0.085653282301483
 50
213.3151844473821939
 51
234.6274470371286043
  0
ARC
  5
17C1B
  8
0
 10
3691.8435055645059037
 20
172.5730084611473103
 30
0.0
 40
0.2946950865545726
 50
236.1001839606070121
 51
248.4036031979709094
  0
ARC
  5
17C1C
  8
0
 10
3691.9692026263010121
 20
172.8594176211884132
 30
0.0
 40
0.6073710848736831
 50
247.3228872741024134
 51
255.7829332214197962
  0
ARC
  5
17C1D
  8
0
 10
3691.9447026393040687
 20
172.7264277468410967
 30
0.0
 40
0.4725213441572571
 50
254.7022172975711953
 51
263.7553963141502891
  0
ARC
  5
17C1E
  8
0
 10
3691.9644354333217962
 20
172.8199345162865086
 30
0.0
 40
0.5676982694717351
 50
262.8021345817577981
 51
268.845331659914109
  0
ARC
  5
17C1F
  8
0
 10
3691.9653806165388232
 20
172.8421666785889954
 30
0.0
 40
0.5899451734088628
 50
268.7970644975241044
 51
269.9978612411795211
  0
ARC
  5
17C20
  8
0
 10
3692.0223883588519129
 20
173.613933895108886
 30
0.0
 40
1.3087584592502779
 50
264.4546654218394224
 51
267.5025187168305933
  0
ARC
  5
17C21
  8
0
 10
3691.965163224438129
 20
172.9308347116069058
 30
0.0
 40
0.6233920265506371
 50
254.8094462092510923
 51
263.6225944428090884
  0
ARC
  5
17C22
  8
0
 10
3691.9615798890399674
 20
172.9176372471233947
 30
0.0
 40
0.6097167436882733
 50
249.2293747528634924
 51
254.8094462092510923
  0
ARC
  5
17C23
  8
0
 10
3691.9645367769580844
 20
172.9254333475155931
 30
0.0
 40
0.618054751093302
 50
246.5632512329034967
 51
249.2293747528634924
  0
ARC
  5
17C24
  8
0
 10
3691.9495820615088633
 20
172.8909357617675937
 30
0.0
 40
0.5804551907689149
 50
245.5239871072678
 51
246.5632512329034967
  0
LINE
  5
17C25
  8
0
 10
3691.709092366906134
 20
172.3626432904218007
 30
0.0
 11
3691.7085869512948193
 21
172.3601841114833064
 31
0.0
  0
LINE
  5
17C26
  8
0
 10
3691.7111334758228622
 20
172.3617188870605901
 30
0.0
 11
3691.7085869513070975
 21
172.3601841115446121
 31
0.0
  0
LINE
  5
17C27
  8
0
 10
3691.7085869513070975
 20
172.3601841115446121
 30
0.0
 11
3691.7049916246719476
 21
172.3618355882150013
 31
0.0
  0
LINE
  5
17C28
  8
0
 10
3691.7049916246719476
 20
172.3618355882150013
 30
0.0
 11
3691.6951491049940159
 21
172.3595609425844088
 31
0.0
  0
LINE
  5
17C29
  8
0
 10
3691.6951491049940159
 20
172.3595609425844088
 30
0.0
 11
3691.7049916246719476
 21
172.3484882818133883
 31
0.0
  0
LINE
  5
17C2A
  8
0
 10
3691.7049916246719476
 20
172.3484882818133883
 30
0.0
 11
3691.7070093734851071
 21
172.3475610914547929
 31
0.0
  0
LINE
  5
17C2B
  8
0
 10
3691.7070093734851071
 20
172.3475610914547929
 30
0.0
 11
3691.7225701733318601
 21
172.3567106977178867
 31
0.0
  0
LINE
  5
17C2C
  8
0
 10
3691.9850688306219126
 20
172.260019157394197
 30
0.0
 11
3691.9752263108998704
 21
172.2627808330628056
 31
0.0
  0
LINE
  5
17C2D
  8
0
 10
3691.9277024218708902
 20
172.4408705552368133
 30
0.0
 11
3691.9178599021988703
 21
172.4279375298748107
 31
0.0
  0
LINE
  5
17C2E
  8
0
 10
3691.9178599021988703
 20
172.4279375298748107
 30
0.0
 11
3691.9277024218708902
 21
172.4141513316149883
 31
0.0
  0
LINE
  5
17C2F
  8
0
 10
3691.9277024218708902
 20
172.4141513316149883
 30
0.0
 11
3691.9473874612708642
 21
172.4132005597149941
 31
0.0
  0
LINE
  5
17C30
  8
0
 10
3691.9473874612708642
 20
172.4132005597149941
 30
0.0
 11
3691.9572299809319702
 21
172.4260076768694887
 31
0.0
  0
LINE
  5
17C31
  8
0
 10
3691.9572299809319702
 20
172.4260076768694887
 30
0.0
 11
3691.9473874612708642
 21
172.4398908252863123
 31
0.0
  0
LINE
  5
17C32
  8
0
 10
3691.9473874612708642
 20
172.4398908252863123
 30
0.0
 11
3691.9277024218708902
 21
172.4408705552368133
 31
0.0
  0
LINE
  5
17C33
  8
0
 10
3691.8998635722218751
 20
172.4213823453773102
 30
0.0
 11
3691.8900210525471266
 21
172.4098848739085952
 31
0.0
  0
LINE
  5
17C34
  8
0
 10
3691.8900210525471266
 20
172.4098848739085952
 30
0.0
 11
3691.8998635721709434
 21
172.3965727504150038
 31
0.0
  0
LINE
  5
17C35
  8
0
 10
3691.8998635721709434
 20
172.3965727504150038
 30
0.0
 11
3691.9195486115868334
 21
172.3947025032128124
 31
0.0
  0
LINE
  5
17C36
  8
0
 10
3691.9195486115868334
 20
172.3947025032128124
 30
0.0
 11
3691.9293911314130128
 21
172.4060966312659104
 31
0.0
  0
LINE
  5
17C37
  8
0
 10
3691.9293911314130128
 20
172.4060966312659104
 30
0.0
 11
3691.9195074824028779
 21
172.4194667274053074
 31
0.0
  0
LINE
  5
17C38
  8
0
 10
3691.9195074824028779
 20
172.4194667274053074
 30
0.0
 11
3691.8998635722218751
 21
172.4213823453773102
 31
0.0
  0
LINE
  5
17C39
  8
0
 10
3691.8709682162498211
 20
172.4460756216915911
 30
0.0
 11
3691.8621822029108444
 21
172.4353956394357965
 31
0.0
  0
LINE
  5
17C3A
  8
0
 10
3691.8621822029108444
 20
172.4353956394357965
 30
0.0
 11
3691.8720247225887761
 21
172.4205263615779984
 31
0.0
  0
LINE
  5
17C3B
  8
0
 10
3691.8720247225887761
 20
172.4205263615779984
 30
0.0
 11
3691.8917097619191736
 21
172.417643407430802
 31
0.0
  0
LINE
  5
17C3C
  8
0
 10
3691.8917097619191736
 20
172.417643407430802
 30
0.0
 11
3691.9015522818222053
 21
172.4295419262078042
 31
0.0
  0
LINE
  5
17C3D
  8
0
 10
3691.9015522818222053
 20
172.4295419262078042
 30
0.0
 11
3691.8917097619719243
 21
172.4444699701149943
 31
0.0
  0
LINE
  5
17C3E
  8
0
 10
3691.8917097619719243
 20
172.4444699701149943
 30
0.0
 11
3691.8765518235140917
 21
172.4466556387521905
 31
0.0
  0
LINE
  5
17C3F
  8
0
 10
3691.8441858728720035
 20
172.4304305178559105
 30
0.0
 11
3691.8343433532509152
 21
172.4199515550274953
 31
0.0
  0
LINE
  5
17C40
  8
0
 10
3691.8343433532509152
 20
172.4199515550274953
 30
0.0
 11
3691.8441858728720035
 21
172.4055364946231919
 31
0.0
  0
LINE
  5
17C41
  8
0
 10
3691.8441858728720035
 20
172.4055364946231919
 30
0.0
 11
3691.8638709122719774
 21
172.4017372708150049
 31
0.0
  0
LINE
  5
17C42
  8
0
 10
3691.8638709122719774
 20
172.4017372708150049
 30
0.0
 11
3691.8737134321017948
 21
172.4122528517397086
 31
0.0
  0
LINE
  5
17C43
  8
0
 10
3691.8737134321017948
 20
172.4122528517397086
 30
0.0
 11
3691.8638709122719774
 21
172.4266831761150058
 31
0.0
  0
LINE
  5
17C44
  8
0
 10
3691.8638709122719774
 20
172.4266831761150058
 30
0.0
 11
3691.8441858728720035
 21
172.4304305178559105
 31
0.0
  0
LINE
  5
17C45
  8
0
 10
3691.8720247225878666
 20
172.4047617859548041
 30
0.0
 11
3691.8621822028999304
 21
172.3946247100554956
 31
0.0
  0
LINE
  5
17C46
  8
0
 10
3691.8621822028999304
 20
172.3946247100554956
 30
0.0
 11
3691.8720247225719504
 21
172.3817340925558881
 31
0.0
  0
LINE
  5
17C47
  8
0
 10
3691.8720247225719504
 20
172.3817340925558881
 30
0.0
 11
3691.8917097619128072
 21
172.3789596537721991
 31
0.0
  0
LINE
  5
17C48
  8
0
 10
3691.8917097619128072
 20
172.3789596537721991
 30
0.0
 11
3691.901552281738077
 21
172.3890153433692092
 31
0.0
  0
LINE
  5
17C49
  8
0
 10
3691.901552281738077
 20
172.3890153433692092
 30
0.0
 11
3691.8917097619628294
 21
172.4019259105209869
 31
0.0
  0
LINE
  5
17C4A
  8
0
 10
3691.8917097619628294
 20
172.4019259105209869
 30
0.0
 11
3691.8720247225878666
 21
172.4047617859548041
 31
0.0
  0
LINE
  5
17C4B
  8
0
 10
3691.9277024218099541
 20
172.3984901624411918
 30
0.0
 11
3691.9178599021338414
 21
172.3874769810987004
 31
0.0
  0
LINE
  5
17C4C
  8
0
 10
3691.9178599021338414
 20
172.3874769810987004
 30
0.0
 11
3691.9277024218708902
 21
172.3755974635149926
 31
0.0
  0
LINE
  5
17C4D
  8
0
 10
3691.9277024218708902
 20
172.3755974635149926
 30
0.0
 11
3691.9473874612708642
 21
172.3746817636541948
 31
0.0
  0
LINE
  5
17C4E
  8
0
 10
3691.9473874612708642
 20
172.3746817636541948
 30
0.0
 11
3691.9572299811579796
 21
172.3856260326462859
 31
0.0
  0
LINE
  5
17C4F
  8
0
 10
3691.9572299811579796
 20
172.3856260326462859
 30
0.0
 11
3691.9473874612817781
 21
172.3975545962441061
 31
0.0
  0
LINE
  5
17C50
  8
0
 10
3691.9473874612817781
 20
172.3975545962441061
 30
0.0
 11
3691.9277024218099541
 21
172.3984901624411918
 31
0.0
  0
LINE
  5
17C51
  8
0
 10
3691.8998635722041399
 20
172.3820508277327974
 30
0.0
 11
3691.8900210525898729
 21
172.3723569795268133
 31
0.0
  0
LINE
  5
17C52
  8
0
 10
3691.8900210525898729
 20
172.3723569795268133
 30
0.0
 11
3691.8998635721709434
 21
172.3608730146150094
 31
0.0
  0
LINE
  5
17C53
  8
0
 10
3691.8998635721709434
 20
172.3608730146150094
 30
0.0
 11
3691.9195486115941094
 21
172.3590609918836947
 31
0.0
  0
LINE
  5
17C54
  8
0
 10
3691.9195486115941094
 20
172.3590609918836947
 30
0.0
 11
3691.9293911315030527
 21
172.3687005458143062
 31
0.0
  0
LINE
  5
17C55
  8
0
 10
3691.9293911315030527
 20
172.3687005458143062
 30
0.0
 11
3691.9195486115982021
 21
172.3802059911224092
 31
0.0
  0
LINE
  5
17C56
  8
0
 10
3691.9195486115982021
 20
172.3802059911224092
 30
0.0
 11
3691.8998635722041399
 21
172.3820508277327974
 31
0.0
  0
LINE
  5
17C57
  8
0
 10
3691.8720247225442108
 20
172.3682879506507959
 30
0.0
 11
3691.8621822028840143
 21
172.3600338946698969
 31
0.0
  0
LINE
  5
17C58
  8
0
 10
3691.8621822028840143
 20
172.3600338946698969
 30
0.0
 11
3691.8722651784842128
 21
172.3487103067465966
 31
0.0
  0
LINE
  5
17C59
  8
0
 10
3691.8722651784842128
 20
172.3487103067465966
 30
0.0
 11
3691.891709761904167
 21
172.3460446501082117
 31
0.0
  0
LINE
  5
17C5A
  8
0
 10
3691.891709761904167
 20
172.3460446501082117
 30
0.0
 11
3691.9015522817221608
 21
172.3544245279834968
 31
0.0
  0
LINE
  5
17C5B
  8
0
 10
3691.9015522817221608
 20
172.3544245279834968
 30
0.0
 11
3691.8917097619719243
 21
172.3655452180150007
 31
0.0
  0
LINE
  5
17C5C
  8
0
 10
3691.8917097619719243
 20
172.3655452180150007
 30
0.0
 11
3691.8720247225442108
 21
172.3682879506507959
 31
0.0
  0
LINE
  5
17C5D
  8
0
 10
3691.8441858729202067
 20
172.3908902380667882
 30
0.0
 11
3691.8343433531367737
 21
172.3820641900823034
 31
0.0
  0
LINE
  5
17C5E
  8
0
 10
3691.8343433531367737
 20
172.3820641900823034
 30
0.0
 11
3691.8441858728901934
 21
172.3695520247482875
 31
0.0
  0
LINE
  5
17C5F
  8
0
 10
3691.8441858728901934
 20
172.3695520247482875
 30
0.0
 11
3691.863870912260154
 21
172.3658746448776071
 31
0.0
  0
LINE
  5
17C60
  8
0
 10
3691.863870912260154
 20
172.3658746448776071
 30
0.0
 11
3691.8737134321131634
 21
172.3746416166133884
 31
0.0
  0
LINE
  5
17C61
  8
0
 10
3691.8737134321131634
 20
172.3746416166133884
 30
0.0
 11
3691.8638709123379158
 21
172.3875521837651945
 31
0.0
  0
LINE
  5
17C62
  8
0
 10
3691.8638709123379158
 20
172.3875521837651945
 30
0.0
 11
3691.8441858729202067
 21
172.3908902380667882
 31
0.0
  0
LINE
  5
17C63
  8
0
 10
3691.8163470231820611
 20
172.4165707507414993
 30
0.0
 11
3691.8065045034968534
 21
172.407295365563499
 31
0.0
  0
LINE
  5
17C64
  8
0
 10
3691.8065045034968534
 20
172.407295365563499
 30
0.0
 11
3691.8163470232721011
 21
172.3932799645149885
 31
0.0
  0
LINE
  5
17C65
  8
0
 10
3691.8163470232721011
 20
172.3932799645149885
 30
0.0
 11
3691.8360320625711211
 21
172.3885605329139139
 31
0.0
  0
LINE
  5
17C66
  8
0
 10
3691.8360320625711211
 20
172.3885605329139139
 30
0.0
 11
3691.845874582507804
 21
172.397749036983214
 31
0.0
  0
LINE
  5
17C67
  8
0
 10
3691.845874582507804
 20
172.397749036983214
 30
0.0
 11
3691.8360320625711211
 21
172.4117423039683956
 31
0.0
  0
LINE
  5
17C68
  8
0
 10
3691.8360320625711211
 20
172.4117423039683956
 30
0.0
 11
3691.8163470231820611
 21
172.4165707507414993
 31
0.0
  0
LINE
  5
17C69
  8
0
 10
3691.9277024218631595
 20
172.3622210117322879
 30
0.0
 11
3691.9178599021788614
 21
172.3529306672988071
 31
0.0
  0
LINE
  5
17C6A
  8
0
 10
3691.9178599021788614
 20
172.3529306672988071
 30
0.0
 11
3691.9277801691150671
 21
172.3427637710649094
 31
0.0
  0
LINE
  5
17C6B
  8
0
 10
3691.9277801691150671
 20
172.3427637710649094
 30
0.0
 11
3691.9473874612558575
 21
172.3418761026267987
 31
0.0
  0
LINE
  5
17C6C
  8
0
 10
3691.9473874612558575
 20
172.3418761026267987
 30
0.0
 11
3691.9572299809501601
 21
172.3511329308915947
 31
0.0
  0
LINE
  5
17C6D
  8
0
 10
3691.9572299809501601
 20
172.3511329308915947
 30
0.0
 11
3691.9473595747717809
 21
172.3613164034728982
 31
0.0
  0
LINE
  5
17C6E
  8
0
 10
3691.9473595747717809
 20
172.3613164034728982
 30
0.0
 11
3691.9277024218631595
 21
172.3622210117322879
 31
0.0
  0
LINE
  5
17C6F
  8
0
 10
3691.8998635721709434
 20
172.3485393738631899
 30
0.0
 11
3691.8900210525430339
 21
172.3404975258183072
 31
0.0
  0
LINE
  5
17C70
  8
0
 10
3691.8900210525430339
 20
172.3404975258183072
 30
0.0
 11
3691.9000458938548945
 21
172.3306644913704133
 31
0.0
  0
LINE
  5
17C71
  8
0
 10
3691.9000458938548945
 20
172.3306644913704133
 30
0.0
 11
3691.9195486115709173
 21
172.3289088009244949
 31
0.0
  0
LINE
  5
17C72
  8
0
 10
3691.9195486115709173
 20
172.3289088009244949
 30
0.0
 11
3691.9293911312211094
 21
172.3369272409919972
 31
0.0
  0
LINE
  5
17C73
  8
0
 10
3691.9293911312211094
 20
172.3369272409919972
 30
0.0
 11
3691.9195486115881977
 21
172.3467439699732893
 31
0.0
  0
LINE
  5
17C74
  8
0
 10
3691.9195486115881977
 20
172.3467439699732893
 30
0.0
 11
3691.8998635721709434
 21
172.3485393738631899
 31
0.0
  0
LINE
  5
17C75
  8
0
 10
3691.8441858728720035
 20
172.357137216305091
 30
0.0
 11
3691.8343433531690607
 21
172.3499703358220074
 31
0.0
  0
LINE
  5
17C76
  8
0
 10
3691.8343433531690607
 20
172.3499703358220074
 30
0.0
 11
3691.8441858728810985
 21
172.3391822865573033
 31
0.0
  0
LINE
  5
17C77
  8
0
 10
3691.8441858728810985
 20
172.3391822865573033
 30
0.0
 11
3691.8638709122778891
 21
172.3355821158577044
 31
0.0
  0
LINE
  5
17C78
  8
0
 10
3691.8638709122778891
 20
172.3355821158577044
 30
0.0
 11
3691.873713431977194
 21
172.3427277471431864
 31
0.0
  0
LINE
  5
17C79
  8
0
 10
3691.873713431977194
 20
172.3427277471431864
 30
0.0
 11
3691.8638709122719774
 21
172.3534945492149859
 31
0.0
  0
LINE
  5
17C7A
  8
0
 10
3691.8638709122719774
 20
172.3534945492149859
 30
0.0
 11
3691.8441858728720035
 21
172.357137216305091
 31
0.0
  0
LINE
  5
17C7B
  8
0
 10
3691.8163470232329928
 20
172.3796982399053093
 30
0.0
 11
3691.8065045035468756
 21
172.3721558166402872
 31
0.0
  0
LINE
  5
17C7C
  8
0
 10
3691.8065045035468756
 20
172.3721558166402872
 30
0.0
 11
3691.8163470232670988
 21
172.3599861224612937
 31
0.0
  0
LINE
  5
17C7D
  8
0
 10
3691.8163470232670988
 20
172.3599861224612937
 30
0.0
 11
3691.8360320625711211
 21
172.355393776927599
 31
0.0
  0
LINE
  5
17C7E
  8
0
 10
3691.8360320625711211
 20
172.355393776927599
 30
0.0
 11
3691.8458745822940728
 21
172.3629007250264067
 31
0.0
  0
LINE
  5
17C7F
  8
0
 10
3691.8458745822940728
 20
172.3629007250264067
 30
0.0
 11
3691.8360320625711211
 21
172.3750349500149923
 31
0.0
  0
LINE
  5
17C80
  8
0
 10
3691.8360320625711211
 20
172.3750349500149923
 30
0.0
 11
3691.8163470232329928
 21
172.3796982399053093
 31
0.0
  0
LINE
  5
17C81
  8
0
 10
3691.7885081735707899
 20
172.4053248044913005
 30
0.0
 11
3691.7786656538869465
 21
172.3973748959629972
 31
0.0
  0
LINE
  5
17C82
  8
0
 10
3691.7786656538869465
 20
172.3973748959629972
 30
0.0
 11
3691.7885081735780659
 21
172.3837128247378985
 31
0.0
  0
LINE
  5
17C83
  8
0
 10
3691.7885081735780659
 20
172.3837128247378985
 30
0.0
 11
3691.8081932129721281
 21
172.3780551879150096
 31
0.0
  0
LINE
  5
17C84
  8
0
 10
3691.8081932129721281
 20
172.3780551879150096
 30
0.0
 11
3691.8180357326527883
 21
172.3859494725141133
 31
0.0
  0
LINE
  5
17C85
  8
0
 10
3691.8180357326527883
 20
172.3859494725141133
 30
0.0
 11
3691.8081932129980487
 21
172.3995559350011888
 31
0.0
  0
LINE
  5
17C86
  8
0
 10
3691.8081932129980487
 20
172.3995559350011888
 30
0.0
 11
3691.7885081735707899
 21
172.4053248044913005
 31
0.0
  0
LINE
  5
17C87
  8
0
 10
3691.7885081735707899
 20
172.3711597419442967
 30
0.0
 11
3691.7786656539210526
 21
172.3648936229448054
 31
0.0
  0
LINE
  5
17C88
  8
0
 10
3691.7786656539210526
 20
172.3648936229448054
 30
0.0
 11
3691.7885081735880703
 21
172.3530357171921139
 31
0.0
  0
LINE
  5
17C89
  8
0
 10
3691.7885081735880703
 20
172.3530357171921139
 30
0.0
 11
3691.808193212995775
 21
172.3475028410016989
 31
0.0
  0
LINE
  5
17C8A
  8
0
 10
3691.808193212995775
 20
172.3475028410016989
 30
0.0
 11
3691.8180357326427838
 21
172.353759409914403
 31
0.0
  0
LINE
  5
17C8B
  8
0
 10
3691.8180357326427838
 20
172.353759409914403
 30
0.0
 11
3691.8081932129721281
 21
172.3655582465675877
 31
0.0
  0
LINE
  5
17C8C
  8
0
 10
3691.8081932129721281
 20
172.3655582465675877
 30
0.0
 11
3691.7885081735707899
 21
172.3711597419442967
 31
0.0
  0
LINE
  5
17C8D
  8
0
 10
3691.7606693239708875
 20
172.3968180051149943
 30
0.0
 11
3691.750826804299777
 21
172.3901835992593874
 31
0.0
  0
LINE
  5
17C8E
  8
0
 10
3691.750826804299777
 20
172.3901835992593874
 30
0.0
 11
3691.7606693238981279
 21
172.3768343490440031
 31
0.0
  0
LINE
  5
17C8F
  8
0
 10
3691.7606693238981279
 20
172.3768343490440031
 30
0.0
 11
3691.7803543632007859
 21
172.369672538718504
 31
0.0
  0
LINE
  5
17C90
  8
0
 10
3691.7803543632007859
 20
172.369672538718504
 30
0.0
 11
3691.7901968828991812
 21
172.3768181700040998
 31
0.0
  0
LINE
  5
17C91
  8
0
 10
3691.7901968828991812
 20
172.3768181700040998
 30
0.0
 11
3691.7803543632721812
 21
172.390080557595212
 31
0.0
  0
LINE
  5
17C92
  8
0
 10
3691.7803543632721812
 20
172.390080557595212
 30
0.0
 11
3691.7606693239708875
 21
172.3968180051149943
 31
0.0
  0
LINE
  5
17C93
  8
0
 10
3691.7328304742718501
 20
172.3910671752149995
 30
0.0
 11
3691.7229879546839584
 21
172.3857600079504095
 31
0.0
  0
LINE
  5
17C94
  8
0
 10
3691.7229879546839584
 20
172.3857600079504095
 30
0.0
 11
3691.7328304742181899
 21
172.3726869733505112
 31
0.0
  0
LINE
  5
17C95
  8
0
 10
3691.7328304742181899
 20
172.3726869733505112
 30
0.0
 11
3691.752515513671824
 21
172.3650388099150064
 31
0.0
  0
LINE
  5
17C96
  8
0
 10
3691.752515513671824
 20
172.3650388099150064
 30
0.0
 11
3691.7623580333238351
 21
172.3703612469064126
 31
0.0
  0
LINE
  5
17C97
  8
0
 10
3691.7623580333238351
 20
172.3703612469064126
 30
0.0
 11
3691.7525155136959256
 21
172.3836236344976101
 31
0.0
  0
LINE
  5
17C98
  8
0
 10
3691.7525155136959256
 20
172.3836236344976101
 30
0.0
 11
3691.7328304742718501
 21
172.3910671752149995
 31
0.0
  0
LINE
  5
17C99
  8
0
 10
3691.7023573776777994
 20
172.402586581540902
 30
0.0
 11
3691.704991624655122
 21
172.3998765585710942
 31
0.0
  0
LINE
  5
17C9A
  8
0
 10
3691.704991624655122
 20
172.3998765585710942
 30
0.0
 11
3691.7246766639400448
 21
172.3909726200276111
 31
0.0
  0
LINE
  5
17C9B
  8
0
 10
3691.7246766639400448
 20
172.3909726200276111
 30
0.0
 11
3691.7345191836229787
 21
172.3966367760444029
 31
0.0
  0
LINE
  5
17C9C
  8
0
 10
3691.7345191836229787
 20
172.3966367760444029
 30
0.0
 11
3691.7246766639718771
 21
172.4111988139150071
 31
0.0
  0
LINE
  5
17C9D
  8
0
 10
3691.7246766639718771
 20
172.4111988139150071
 30
0.0
 11
3691.7220578891087825
 21
172.4119222245477943
 31
0.0
  0
LINE
  5
17C9E
  8
0
 10
3691.725286192366184
 20
172.4132387301667961
 30
0.0
 11
3691.7328304743200533
 21
172.4030065425147029
 31
0.0
  0
LINE
  5
17C9F
  8
0
 10
3691.7328304743200533
 20
172.4030065425147029
 30
0.0
 11
3691.752515513623166
 21
172.3958447321892891
 31
0.0
  0
LINE
  5
17CA0
  8
0
 10
3691.752515513623166
 20
172.3958447321892891
 30
0.0
 11
3691.7623580333211066
 21
172.4029903634747996
 31
0.0
  0
LINE
  5
17CA1
  8
0
 10
3691.7623580333211066
 20
172.4029903634747996
 30
0.0
 11
3691.752515513671824
 21
172.4178586580198953
 31
0.0
  0
LINE
  5
17CA2
  8
0
 10
3691.752515513671824
 20
172.4178586580198953
 30
0.0
 11
3691.7458706909501416
 21
172.4204656939083975
 31
0.0
  0
LINE
  5
17CA3
  8
0
 10
3691.7528684185440397
 20
172.4226745140715025
 30
0.0
 11
3691.7606693239072229
 21
172.4106149980538873
 31
0.0
  0
LINE
  5
17CA4
  8
0
 10
3691.7606693239072229
 20
172.4106149980538873
 30
0.0
 11
3691.7803543632721812
 21
172.4037910613149904
 31
0.0
  0
LINE
  5
17CA5
  8
0
 10
3691.7803543632721812
 20
172.4037910613149904
 30
0.0
 11
3691.7901968829851285
 21
172.4121086032498908
 31
0.0
  0
LINE
  5
17CA6
  8
0
 10
3691.7901968829851285
 20
172.4121086032498908
 30
0.0
 11
3691.7803543632990113
 21
172.4273323117253085
 31
0.0
  0
LINE
  5
17CA7
  8
0
 10
3691.7803543632990113
 20
172.4273323117253085
 30
0.0
 11
3691.7752244641119432
 21
172.429077041058207
 31
0.0
  0
LINE
  5
17CA8
  8
0
 10
3691.781797449781152
 20
172.4307734645252879
 30
0.0
 11
3691.7885081736339998
 21
172.4201837489887055
 31
0.0
  0
LINE
  5
17CA9
  8
0
 10
3691.7885081736339998
 20
172.4201837489887055
 30
0.0
 11
3691.8081932130221503
 21
172.4143283896898993
 31
0.0
  0
LINE
  5
17CAA
  8
0
 10
3691.8081932130221503
 20
172.4143283896898993
 30
0.0
 11
3691.8180357326200465
 21
172.4239847386155873
 31
0.0
  0
LINE
  5
17CAB
  8
0
 10
3691.8180357326200465
 20
172.4239847386155873
 30
0.0
 11
3691.8097212148868493
 21
172.4370624840632047
 31
0.0
  0
LINE
  5
17CAC
  8
0
 10
3691.8130308911581778
 20
172.4377109055629091
 30
0.0
 11
3691.8163470232721011
 21
172.4325372747150027
 31
0.0
  0
LINE
  5
17CAD
  8
0
 10
3691.8163470232721011
 20
172.4325372747150027
 30
0.0
 11
3691.8360320624801716
 21
172.4276250810034128
 31
0.0
  0
LINE
  5
17CAE
  8
0
 10
3691.8360320624801716
 20
172.4276250810034128
 30
0.0
 11
3691.8458745822281344
 21
172.4386585430220862
 31
0.0
  0
LINE
  5
17CAF
  8
0
 10
3691.8458745822281344
 20
172.4386585430220862
 30
0.0
 11
3691.8432512557019436
 21
172.4427010381959064
 31
0.0
  0
LINE
  5
17CB0
  8
0
 10
3691.8934973221130349
 20
172.4481929417690935
 30
0.0
 11
3691.8998635721709434
 21
172.4383403628245901
 31
0.0
  0
LINE
  5
17CB1
  8
0
 10
3691.8998635721709434
 20
172.4383403628245901
 30
0.0
 11
3691.9195486116132088
 21
172.4363843814122959
 31
0.0
  0
LINE
  5
17CB2
  8
0
 10
3691.9195486116132088
 20
172.4363843814122959
 30
0.0
 11
3691.9293911312711316
 21
172.4497491784150043
 31
0.0
  0
LINE
  5
17CB3
  8
0
 10
3691.9293911312711316
 20
172.4497491784150043
 30
0.0
 11
3691.9290063727371489
 21
172.4503315584514951
 31
0.0
  0
LINE
  5
17CB4
  8
0
 10
3691.9456987518228743
 20
172.4053155527668935
 30
0.0
 11
3691.955541271472157
 21
172.4177154890504937
 31
0.0
  0
LINE
  5
17CB5
  8
0
 10
3691.955541271472157
 20
172.4177154890504937
 30
0.0
 11
3691.9752263108721309
 21
172.4177154890504937
 31
0.0
  0
LINE
  5
17CB6
  8
0
 10
3691.9752263108721309
 20
172.4177154890504937
 30
0.0
 11
3691.9850688305691619
 21
172.4053155527583954
 31
0.0
  0
LINE
  5
17CB7
  8
0
 10
3691.9850688305691619
 20
172.4053155527583954
 30
0.0
 11
3691.9752263108562147
 21
172.3929985822834965
 31
0.0
  0
LINE
  5
17CB8
  8
0
 10
3691.9752263108562147
 20
172.3929985822834965
 30
0.0
 11
3691.9555412715799321
 21
172.3929985822819901
 31
0.0
  0
LINE
  5
17CB9
  8
0
 10
3691.9555412715799321
 20
172.3929985822819901
 30
0.0
 11
3691.9456987517742164
 21
172.4053155526952139
 31
0.0
  0
LINE
  5
17CBA
  8
0
 10
3691.9456987517319249
 20
172.3679464149132912
 30
0.0
 11
3691.9555412715171769
 21
172.3785250650228988
 31
0.0
  0
LINE
  5
17CBB
  8
0
 10
3691.9555412715171769
 20
172.3785250650228988
 30
0.0
 11
3691.9752263108262014
 21
172.3785250650228988
 31
0.0
  0
LINE
  5
17CBC
  8
0
 10
3691.9752263108262014
 20
172.3785250650228988
 30
0.0
 11
3691.9850688304782125
 21
172.3679464149049068
 31
0.0
  0
LINE
  5
17CBD
  8
0
 10
3691.9850688304782125
 20
172.3679464149049068
 30
0.0
 11
3691.9751975721928829
 21
172.3574093050079057
 31
0.0
  0
LINE
  5
17CBE
  8
0
 10
3691.9751975721928829
 20
172.3574093050079057
 30
0.0
 11
3691.9555700100618196
 21
172.3574093050092984
 31
0.0
  0
LINE
  5
17CBF
  8
0
 10
3691.9555700100618196
 20
172.3574093050092984
 30
0.0
 11
3691.9456987516828121
 21
172.3679464148416969
 31
0.0
  0
LINE
  5
17CC0
  8
0
 10
3691.945698751800137
 20
172.3361907362290992
 30
0.0
 11
3691.9555412716008505
 21
172.345107795206701
 31
0.0
  0
LINE
  5
17CC1
  8
0
 10
3691.9555412716008505
 20
172.345107795206701
 30
0.0
 11
3691.9752263108630359
 21
172.3451077952477135
 31
0.0
  0
LINE
  5
17CC2
  8
0
 10
3691.9752263108630359
 20
172.3451077952477135
 30
0.0
 11
3691.9850688305468793
 21
172.3361907362206864
 31
0.0
  0
LINE
  5
17CC3
  8
0
 10
3691.9850688305468793
 20
172.3361907362206864
 30
0.0
 11
3691.9752263108721309
 21
172.3272910680150005
 31
0.0
  0
LINE
  5
17CC4
  8
0
 10
3691.9752263108721309
 20
172.3272910680150005
 30
0.0
 11
3691.955541271472157
 21
172.3272910680150005
 31
0.0
  0
LINE
  5
17CC5
  8
0
 10
3691.955541271472157
 20
172.3272910680150005
 30
0.0
 11
3691.9456987517528432
 21
172.3361907361575049
 31
0.0
  0
LINE
  5
17CC6
  8
0
 10
3691.7066803340958359
 20
172.3657119725314999
 30
0.0
 11
3691.6968378142569236
 21
172.3630791949503873
 31
0.0
  0
LINE
  5
17CC7
  8
0
 10
3691.6968378142569236
 20
172.3630791949503873
 30
0.0
 11
3691.6771527750211135
 21
172.3729963344559053
 31
0.0
  0
LINE
  5
17CC8
  8
0
 10
3691.6771527750211135
 20
172.3729963344559053
 30
0.0
 11
3691.6705764806920342
 21
172.3812973667716051
 31
0.0
  0
LINE
  5
17CC9
  8
0
 10
3691.6783366794220456
 20
172.3875142084665981
 30
0.0
 11
3691.6968378145038514
 21
172.3781531907316946
 31
0.0
  0
LINE
  5
17CCA
  8
0
 10
3691.6968378145038514
 20
172.3781531907316946
 30
0.0
 11
3691.7066803337870624
 21
172.3657119724485938
 31
0.0
  0
LINE
  5
17CCB
  8
0
 10
3691.695149104975826
 20
172.3841910041786889
 30
0.0
 11
3691.7049916246141947
 21
172.3881360592338012
 31
0.0
  0
LINE
  5
17CCC
  8
0
 10
3691.7049916246141947
 20
172.3881360592338012
 30
0.0
 11
3691.7246766640610076
 21
172.379310072175997
 31
0.0
  0
LINE
  5
17CCD
  8
0
 10
3691.7246766640610076
 20
172.379310072175997
 30
0.0
 11
3691.7345191836939193
 21
172.3666274160933938
 31
0.0
  0
LINE
  5
17CCE
  8
0
 10
3691.7345191836939193
 20
172.3666274160933938
 30
0.0
 11
3691.721607010400021
 21
172.3716070138150087
 31
0.0
  0
LINE
  5
17CCF
  8
0
 10
3691.721607010400021
 20
172.3716070138150087
 30
0.0
 11
3691.7166981854720689
 21
172.3660634280149964
 31
0.0
  0
LINE
  5
17CD0
  8
0
 10
3691.7166981854720689
 20
172.3660634280149964
 30
0.0
 11
3691.7049916246241992
 21
172.3713597954173053
 31
0.0
  0
LINE
  5
17CD1
  8
0
 10
3691.7049916246241992
 20
172.3713597954173053
 30
0.0
 11
3691.695149104975826
 21
172.3841910041786889
 31
0.0
  0
LINE
  5
17CD2
  8
0
 10
3691.7508268042611235
 20
172.3603127043060113
 30
0.0
 11
3691.7606693239740707
 21
172.3652900304975901
 31
0.0
  0
LINE
  5
17CD3
  8
0
 10
3691.7606693239740707
 20
172.3652900304975901
 30
0.0
 11
3691.7803543633008303
 21
172.3587148049109032
 31
0.0
  0
LINE
  5
17CD4
  8
0
 10
3691.7803543633008303
 20
172.3587148049109032
 30
0.0
 11
3691.790196883065164
 21
172.347223327281597
 31
0.0
  0
LINE
  5
17CD5
  8
0
 10
3691.790196883065164
 20
172.347223327281597
 30
0.0
 11
3691.7508268042611235
 21
172.3603127043060113
 31
0.0
  0
LINE
  5
17CD6
  8
0
 10
3691.8065045035718867
 20
172.3426540213150133
 30
0.0
 11
3691.8163470232698273
 21
172.3485744700415125
 31
0.0
  0
LINE
  5
17CD7
  8
0
 10
3691.8163470232698273
 20
172.3485744700415125
 30
0.0
 11
3691.8360320626002249
 21
172.3440168370896117
 31
0.0
  0
LINE
  5
17CD8
  8
0
 10
3691.8360320626002249
 20
172.3440168370896117
 30
0.0
 11
3691.8458745823218123
 21
172.3335789026781129
 31
0.0
  0
LINE
  5
17CD9
  8
0
 10
3691.8458745823218123
 20
172.3335789026781129
 30
0.0
 11
3691.8065045035850744
 21
172.3426540212770135
 31
0.0
  0
LINE
  5
17CDA
  8
0
 10
3691.8621822028280803
 20
172.3306052691903858
 30
0.0
 11
3691.8720247225719504
 21
172.3374195104559021
 31
0.0
  0
LINE
  5
17CDB
  8
0
 10
3691.8720247225719504
 20
172.3374195104559021
 30
0.0
 11
3691.8917097618841581
 21
172.3347365688269122
 31
0.0
  0
LINE
  5
17CDC
  8
0
 10
3691.8917097618841581
 20
172.3347365688269122
 30
0.0
 11
3691.9015522815711847
 21
172.3252622319149907
 31
0.0
  0
LINE
  5
17CDD
  8
0
 10
3691.9015522815711847
 20
172.3252622319149907
 30
0.0
 11
3691.8621822028280803
 21
172.3306052691903858
 31
0.0
  0
LINE
  5
17CDE
  8
0
 10
3691.9572299808960452
 20
172.3220312700931061
 30
0.0
 11
3691.947387461209928
 21
172.3305979671438024
 31
0.0
  0
LINE
  5
17CDF
  8
0
 10
3691.947387461209928
 20
172.3305979671438024
 30
0.0
 11
3691.9277024218699808
 21
172.3314840326588921
 31
0.0
  0
LINE
  5
17CE0
  8
0
 10
3691.9277024218699808
 20
172.3314840326588921
 30
0.0
 11
3691.9178599021711307
 21
172.3237959796149994
 31
0.0
  0
LINE
  5
17CE1
  8
0
 10
3691.9178599021711307
 20
172.3237959796149994
 30
0.0
 11
3691.9572299808719436
 21
172.3220312701149908
 31
0.0
  0
LINE
  5
17CE2
  8
0
 10
3691.6673102553331773
 20
172.3637110984213052
 30
0.0
 11
3691.6771527749720008
 21
172.3645175756149968
 31
0.0
  0
LINE
  5
17CE3
  8
0
 10
3691.6771527749720008
 20
172.3645175756149968
 30
0.0
 11
3691.6968378145820679
 21
172.3546224628641141
 31
0.0
  0
LINE
  5
17CE4
  8
0
 10
3691.6968378145820679
 20
172.3546224628641141
 30
0.0
 11
3691.7066803341022023
 21
172.3439178329500123
 31
0.0
  0
LINE
  5
17CE5
  8
0
 10
3691.7066803341022023
 20
172.3439178329500123
 30
0.0
 11
3691.6968378143828886
 21
172.3429611191596109
 31
0.0
  0
LINE
  5
17CE6
  8
0
 10
3691.6968378143828886
 20
172.3429611191596109
 30
0.0
 11
3691.6771527751670874
 21
172.3528562316373893
 31
0.0
  0
LINE
  5
17CE7
  8
0
 10
3691.6771527751670874
 20
172.3528562316373893
 30
0.0
 11
3691.6673102552749697
 21
172.3637110984186904
 31
0.0
  0
LINE
  5
17CE8
  8
0
 10
3691.6673102552867931
 20
172.347533791394909
 30
0.0
 11
3691.6771527750329369
 21
172.3465718889403888
 31
0.0
  0
LINE
  5
17CE9
  8
0
 10
3691.6771527750329369
 20
172.3465718889403888
 30
0.0
 11
3691.6968378142751135
 21
172.3366547493417897
 31
0.0
  0
LINE
  5
17CEA
  8
0
 10
3691.6968378142751135
 20
172.3366547493417897
 30
0.0
 11
3691.7066803339889702
 21
172.3276261830554006
 31
0.0
  0
LINE
  5
17CEB
  8
0
 10
3691.7066803339889702
 20
172.3276261830554006
 30
0.0
 11
3691.6968378143710652
 21
172.3284060576150125
 31
0.0
  0
LINE
  5
17CEC
  8
0
 10
3691.6968378143710652
 20
172.3284060576150125
 30
0.0
 11
3691.6771527747109758
 21
172.3383937727826094
 31
0.0
  0
LINE
  5
17CED
  8
0
 10
3691.6771527747109758
 20
172.3383937727826094
 30
0.0
 11
3691.6673102552867931
 21
172.347533791394909
 31
0.0
  0
LINE
  5
17CEE
  8
0
 10
3691.69514910507678
 20
172.327062319987192
 30
0.0
 11
3691.7049916246210159
 21
172.3258924551188045
 31
0.0
  0
LINE
  5
17CEF
  8
0
 10
3691.7049916246210159
 20
172.3258924551188045
 30
0.0
 11
3691.7166981854720689
 21
172.3205960877149892
 31
0.0
  0
LINE
  5
17CF0
  8
0
 10
3691.7166981854720689
 20
172.3205960877149892
 30
0.0
 11
3691.7216070103709171
 21
172.3150525019150052
 31
0.0
  0
LINE
  5
17CF1
  8
0
 10
3691.7216070103709171
 20
172.3150525019150052
 30
0.0
 11
3691.7342768745220383
 21
172.3096792360649943
 31
0.0
  0
LINE
  5
17CF2
  8
0
 10
3691.7342768745220383
 20
172.3096792360649943
 30
0.0
 11
3691.7246766639718771
 21
172.3105200443150125
 31
0.0
  0
LINE
  5
17CF3
  8
0
 10
3691.7246766639718771
 20
172.3105200443150125
 30
0.0
 11
3691.704991624782906
 21
172.319346031245999
 31
0.0
  0
LINE
  5
17CF4
  8
0
 10
3691.704991624782906
 20
172.319346031245999
 30
0.0
 11
3691.6951491049358083
 21
172.3270623200095031
 31
0.0
  0
LINE
  5
17CF5
  8
0
 10
3691.6951491049931064
 20
172.3193905537866044
 30
0.0
 11
3691.7049916246642169
 21
172.3163234289708043
 31
0.0
  0
LINE
  5
17CF6
  8
0
 10
3691.7049916246642169
 20
172.3163234289708043
 30
0.0
 11
3691.7246766638218105
 21
172.3074194904179137
 31
0.0
  0
LINE
  5
17CF7
  8
0
 10
3691.7246766638218105
 20
172.3074194904179137
 30
0.0
 11
3691.7345191836648155
 21
172.3014223025716092
 31
0.0
  0
LINE
  5
17CF8
  8
0
 10
3691.7345191836648155
 20
172.3014223025716092
 30
0.0
 11
3691.7246766640000715
 21
172.3043229965956868
 31
0.0
  0
LINE
  5
17CF9
  8
0
 10
3691.7246766640000715
 20
172.3043229965956868
 30
0.0
 11
3691.7049916255350581
 21
172.3133871373808859
 31
0.0
  0
LINE
  5
17CFA
  8
0
 10
3691.7049916255350581
 20
172.3133871373808859
 30
0.0
 11
3691.6951491049157994
 21
172.3193905538362003
 31
0.0
  0
LINE
  5
17CFB
  8
0
 10
3691.7229879546398479
 20
172.3095884292112032
 30
0.0
 11
3691.7328304742718501
 21
172.3081767383150122
 31
0.0
  0
LINE
  5
17CFC
  8
0
 10
3691.7328304742718501
 20
172.3081767383150122
 30
0.0
 11
3691.7525155137050206
 21
172.3005285749692064
 31
0.0
  0
LINE
  5
17CFD
  8
0
 10
3691.7525155137050206
 20
172.3005285749692064
 30
0.0
 11
3691.7623580334488906
 21
172.294189668105389
 31
0.0
  0
LINE
  5
17CFE
  8
0
 10
3691.7623580334488906
 20
172.294189668105389
 30
0.0
 11
3691.7530738875288989
 21
172.295389705589912
 31
0.0
  0
LINE
  5
17CFF
  8
0
 10
3691.7530738875288989
 20
172.295389705589912
 30
0.0
 11
3691.7328304742718501
 21
172.3032342526149989
 31
0.0
  0
LINE
  5
17D00
  8
0
 10
3691.7328304742718501
 20
172.3032342526149989
 30
0.0
 11
3691.7229879549558973
 21
172.309588429165899
 31
0.0
  0
LINE
  5
17D01
  8
0
 10
3691.7508268042179225
 20
172.3031840201736031
 30
0.0
 11
3691.7606693239708875
 21
172.2997984373284908
 31
0.0
  0
LINE
  5
17D02
  8
0
 10
3691.7606693239708875
 20
172.2997984373284908
 30
0.0
 11
3691.7803543632721812
 21
172.2932584323635865
 31
0.0
  0
LINE
  5
17D03
  8
0
 10
3691.7803543632721812
 20
172.2932584323635865
 30
0.0
 11
3691.7901968830478836
 21
172.2900946431932141
 31
0.0
  0
LINE
  5
17D04
  8
0
 10
3691.7901968830478836
 20
172.2900946431932141
 30
0.0
 11
3691.7803543632808214
 21
172.2899247769736917
 31
0.0
  0
LINE
  5
17D05
  8
0
 10
3691.7803543632808214
 20
172.2899247769736917
 30
0.0
 11
3691.7606693239708875
 21
172.2965000026150051
 31
0.0
  0
LINE
  5
17D06
  8
0
 10
3691.7606693239708875
 20
172.2965000026150051
 30
0.0
 11
3691.7508268042361124
 21
172.303184020237012
 31
0.0
  0
LINE
  5
17D07
  8
0
 10
3691.7229879546071061
 20
172.3045664399251109
 30
0.0
 11
3691.7328304742718501
 21
172.299940456414987
 31
0.0
  0
LINE
  5
17D08
  8
0
 10
3691.7328304742718501
 20
172.299940456414987
 30
0.0
 11
3691.752515513671824
 21
172.2922438690634976
 31
0.0
  0
LINE
  5
17D09
  8
0
 10
3691.752515513671824
 20
172.2922438690634976
 30
0.0
 11
3691.7623580339231921
 21
172.2887329951018955
 31
0.0
  0
LINE
  5
17D0A
  8
0
 10
3691.7623580339231921
 20
172.2887329951018955
 30
0.0
 11
3691.7525155142138829
 21
172.2934001868368057
 31
0.0
  0
LINE
  5
17D0B
  8
0
 10
3691.7525155142138829
 20
172.2934001868368057
 30
0.0
 11
3691.73283047429004
 21
172.3012341915998036
 31
0.0
  0
LINE
  5
17D0C
  8
0
 10
3691.73283047429004
 20
172.3012341915998036
 30
0.0
 11
3691.7229879536857879
 21
172.3045664402785064
 31
0.0
  0
LINE
  5
17D0D
  8
0
 10
3691.9752263108998704
 20
172.2627808330628056
 30
0.0
 11
3691.955541271472157
 21
172.2627808330628056
 31
0.0
  0
LINE
  5
17D0E
  8
0
 10
3691.955541271472157
 20
172.2627808330628056
 30
0.0
 11
3691.9456987518587994
 21
172.2600191574092037
 31
0.0
  0
LINE
  5
17D0F
  8
0
 10
3691.9456987518587994
 20
172.2600191574092037
 30
0.0
 11
3691.9555412717741092
 21
172.2572748726047109
 31
0.0
  0
LINE
  5
17D10
  8
0
 10
3691.9555412717741092
 20
172.2572748726047109
 30
0.0
 11
3691.9752263106588543
 21
172.2572748725636131
 31
0.0
  0
LINE
  5
17D11
  8
0
 10
3691.9752263106588543
 20
172.2572748725636131
 30
0.0
 11
3691.9850688306219126
 21
172.260019157394197
 31
0.0
  0
LINE
  5
17D12
  8
0
 10
3691.9850688306351003
 20
172.2536890467630997
 30
0.0
 11
3691.9752263111568027
 21
172.2548137453358095
 31
0.0
  0
LINE
  5
17D13
  8
0
 10
3691.9752263111568027
 20
172.2548137453358095
 30
0.0
 11
3691.9555412718318621
 21
172.2548137453374864
 31
0.0
  0
LINE
  5
17D14
  8
0
 10
3691.9555412718318621
 20
172.2548137453374864
 30
0.0
 11
3691.945698751871987
 21
172.2536890466894022
 31
0.0
  0
LINE
  5
17D15
  8
0
 10
3691.945698751871987
 20
172.2536890466894022
 30
0.0
 11
3691.955541272019218
 21
172.2526063530301883
 31
0.0
  0
LINE
  5
17D16
  8
0
 10
3691.9555160753848213
 20
172.2526063530301883
 30
0.0
 11
3691.9752011142950323
 21
172.2526063530339115
 31
0.0
  0
LINE
  5
17D17
  8
0
 10
3691.9752263109289743
 20
172.2526063530339115
 30
0.0
 11
3691.9850688306351003
 21
172.2536890467630997
 31
0.0
  0
LINE
  5
17D18
  8
0
 10
3691.9572299809001379
 20
172.2559184574259064
 30
0.0
 11
3691.9473874612440341
 21
172.2583229729968934
 31
0.0
  0
LINE
  5
17D19
  8
0
 10
3691.9473874612440341
 20
172.2583229729968934
 30
0.0
 11
3691.9277024218840779
 21
172.259215411068908
 31
0.0
  0
LINE
  5
17D1A
  8
0
 10
3691.9277024218840779
 20
172.259215411068908
 30
0.0
 11
3691.9178599021320224
 21
172.257716193773291
 31
0.0
  0
LINE
  5
17D1B
  8
0
 10
3691.9178599021320224
 20
172.257716193773291
 30
0.0
 11
3691.9277024218458791
 21
172.2553451943080915
 31
0.0
  0
LINE
  5
17D1C
  8
0
 10
3691.9277024218458791
 20
172.2553451943080915
 30
0.0
 11
3691.9473874604959747
 21
172.2544397570268018
 31
0.0
  0
LINE
  5
17D1D
  8
0
 10
3691.9473874604959747
 20
172.2544397570268018
 30
0.0
 11
3691.9572299809319702
 21
172.2559184574051017
 31
0.0
  0
LINE
  5
17D1E
  8
0
 10
3691.9572299808901334
 20
172.264902586107695
 30
0.0
 11
3691.9473874612708642
 21
172.2652866974150072
 31
0.0
  0
LINE
  5
17D1F
  8
0
 10
3691.9473874612708642
 20
172.2652866974150072
 30
0.0
 11
3691.9277024218708902
 21
172.2661685447149864
 31
0.0
  0
LINE
  5
17D20
  8
0
 10
3691.9277024218708902
 20
172.2661685447149864
 30
0.0
 11
3691.9178599021711307
 21
172.266667295514992
 31
0.0
  0
LINE
  5
17D21
  8
0
 10
3691.9178599021711307
 20
172.266667295514992
 30
0.0
 11
3691.9277024219732084
 21
172.2626940046922073
 31
0.0
  0
LINE
  5
17D22
  8
0
 10
3691.9277024219732084
 20
172.2626940046922073
 30
0.0
 11
3691.9473874612708642
 21
172.2618079393149912
 31
0.0
  0
LINE
  5
17D23
  8
0
 10
3691.9473874612708642
 20
172.2618079393149912
 30
0.0
 11
3691.9572299808901334
 21
172.264902586107695
 31
0.0
  0
LINE
  5
17D24
  8
0
 10
3691.9293911312402088
 20
172.2607556622008929
 30
0.0
 11
3691.9195486115709173
 21
172.2643985659150019
 31
0.0
  0
LINE
  5
17D25
  8
0
 10
3691.9195486115709173
 20
172.2643985659150019
 30
0.0
 11
3691.8998635721709434
 21
172.2661736064540889
 31
0.0
  0
LINE
  5
17D26
  8
0
 10
3691.8998635721709434
 20
172.2661736064540889
 30
0.0
 11
3691.8900210527190211
 21
172.2643259470632131
 31
0.0
  0
LINE
  5
17D27
  8
0
 10
3691.8900210527190211
 20
172.2643259470632131
 30
0.0
 11
3691.8998635722250583
 21
172.2607064513092894
 31
0.0
  0
LINE
  5
17D28
  8
0
 10
3691.8998635722250583
 20
172.2607064513092894
 30
0.0
 11
3691.9195486114649611
 21
172.258911047323096
 31
0.0
  0
LINE
  5
17D29
  8
0
 10
3691.9195486114649611
 20
172.258911047323096
 30
0.0
 11
3691.9293911313479839
 21
172.2607556622245113
 31
0.0
  0
LINE
  5
17D2A
  8
0
 10
3691.8900210524848262
 20
172.2580996113603078
 30
0.0
 11
3691.899863572196864
 21
172.2582769902122948
 31
0.0
  0
LINE
  5
17D2B
  8
0
 10
3691.899863572196864
 20
172.2582769902122948
 30
0.0
 11
3691.9195486115709173
 21
172.2564649676149884
 31
0.0
  0
LINE
  5
17D2C
  8
0
 10
3691.9195486115709173
 20
172.2564649676149884
 30
0.0
 11
3691.9293911315221521
 21
172.2544431773646068
 31
0.0
  0
LINE
  5
17D2D
  8
0
 10
3691.9293911315221521
 20
172.2544431773646068
 30
0.0
 11
3691.9195486115709173
 21
172.2542872791109971
 31
0.0
  0
LINE
  5
17D2E
  8
0
 10
3691.9195486115709173
 20
172.2542872791109971
 30
0.0
 11
3691.8998635710108829
 21
172.2561321159082013
 31
0.0
  0
LINE
  5
17D2F
  8
0
 10
3691.8998635710108829
 20
172.2561321159082013
 30
0.0
 11
3691.8900210522820089
 21
172.2580996113638889
 31
0.0
  0
LINE
  5
17D30
  8
0
 10
3691.9015522816189332
 20
172.2592100541444893
 30
0.0
 11
3691.8917097619719243
 21
172.2624915203280125
 31
0.0
  0
LINE
  5
17D31
  8
0
 10
3691.8917097619719243
 20
172.2624915203280125
 30
0.0
 11
3691.8720247225242019
 21
172.2651941232525985
 31
0.0
  0
LINE
  5
17D32
  8
0
 10
3691.8720247225242019
 20
172.2651941232525985
 30
0.0
 11
3691.8621822028421775
 21
172.2646549993382052
 31
0.0
  0
LINE
  5
17D33
  8
0
 10
3691.8621822028421775
 20
172.2646549993382052
 30
0.0
 11
3691.8720247220371675
 21
172.2614121334796948
 31
0.0
  0
LINE
  5
17D34
  8
0
 10
3691.8720247220371675
 20
172.2614121334796948
 30
0.0
 11
3691.891709761941911
 21
172.2586694006828907
 31
0.0
  0
LINE
  5
17D35
  8
0
 10
3691.891709761941911
 20
172.2586694006828907
 30
0.0
 11
3691.9015522815711847
 21
172.2592100541419029
 31
0.0
  0
LINE
  5
17D36
  8
0
 10
3691.9015522816421253
 20
172.2681335478723952
 30
0.0
 11
3691.8917097615972125
 21
172.2659465408499102
 31
0.0
  0
LINE
  5
17D37
  8
0
 10
3691.8917097615972125
 20
172.2659465408499102
 30
0.0
 11
3691.8720247227702203
 21
172.2686294825109883
 31
0.0
  0
LINE
  5
17D38
  8
0
 10
3691.8720247227702203
 20
172.2686294825109883
 30
0.0
 11
3691.8621822028708266
 21
172.2734765851149916
 31
0.0
  0
LINE
  5
17D39
  8
0
 10
3691.8621822028708266
 20
172.2734765851149916
 30
0.0
 11
3691.8720247225719504
 21
172.2720728692831074
 31
0.0
  0
LINE
  5
17D3A
  8
0
 10
3691.8720247225719504
 20
172.2720728692831074
 30
0.0
 11
3691.8917097619719243
 21
172.2694052549150001
 31
0.0
  0
LINE
  5
17D3B
  8
0
 10
3691.8917097619719243
 20
172.2694052549150001
 30
0.0
 11
3691.9015522816562225
 21
172.2681335478756068
 31
0.0
  0
LINE
  5
17D3C
  8
0
 10
3691.8737134319981124
 20
172.2665561683215003
 30
0.0
 11
3691.8638709122919863
 21
172.2710718808357058
 31
0.0
  0
LINE
  5
17D3D
  8
0
 10
3691.8638709122919863
 20
172.2710718808357058
 30
0.0
 11
3691.8441858729438536
 21
172.274672051655898
 31
0.0
  0
LINE
  5
17D3E
  8
0
 10
3691.8441858729438536
 20
172.274672051655898
 30
0.0
 11
3691.8343433533459574
 21
172.2737987570262987
 31
0.0
  0
LINE
  5
17D3F
  8
0
 10
3691.8343433533459574
 20
172.2737987570262987
 30
0.0
 11
3691.8441858728469924
 21
172.2693042937310963
 31
0.0
  0
LINE
  5
17D40
  8
0
 10
3691.8441858728469924
 20
172.2693042937310963
 30
0.0
 11
3691.8638709122560613
 21
172.2656616265408047
 31
0.0
  0
LINE
  5
17D41
  8
0
 10
3691.8638709122560613
 20
172.2656616265408047
 30
0.0
 11
3691.8737134318757853
 21
172.2665561683735973
 31
0.0
  0
LINE
  5
17D42
  8
0
 10
3691.845874582299075
 20
172.2764502185405036
 30
0.0
 11
3691.8360320625711211
 21
172.2786369332484071
 31
0.0
  0
LINE
  5
17D43
  8
0
 10
3691.8360320625711211
 20
172.2786369332484071
 30
0.0
 11
3691.8163470232721011
 21
172.2831715653705089
 31
0.0
  0
LINE
  5
17D44
  8
0
 10
3691.8163470232721011
 20
172.2831715653705089
 30
0.0
 11
3691.8065045035259573
 21
172.2855253371855895
 31
0.0
  0
LINE
  5
17D45
  8
0
 10
3691.8065045035259573
 20
172.2855253371855895
 30
0.0
 11
3691.8163470232270811
 21
172.2797844421600075
 31
0.0
  0
LINE
  5
17D46
  8
0
 10
3691.8163470232270811
 20
172.2797844421600075
 30
0.0
 11
3691.8360320625711211
 21
172.2752268092150132
 31
0.0
  0
LINE
  5
17D47
  8
0
 10
3691.8360320625711211
 20
172.2752268092150132
 30
0.0
 11
3691.8458745821931188
 21
172.2764502185640083
 31
0.0
  0
LINE
  5
17D48
  8
0
 10
3691.8065045034009017
 20
172.2769413432085059
 30
0.0
 11
3691.8163470232721011
 21
172.2764329928149891
 31
0.0
  0
LINE
  5
17D49
  8
0
 10
3691.8163470232721011
 20
172.2764329928149891
 30
0.0
 11
3691.8360320626798057
 21
172.2718406472739048
 31
0.0
  0
LINE
  5
17D4A
  8
0
 10
3691.8360320626798057
 20
172.2718406472739048
 30
0.0
 11
3691.845874582300894
 21
172.2676862515475875
 31
0.0
  0
LINE
  5
17D4B
  8
0
 10
3691.845874582300894
 20
172.2676862515475875
 30
0.0
 11
3691.8360320626429711
 21
172.2681591327263106
 31
0.0
  0
LINE
  5
17D4C
  8
0
 10
3691.8360320626429711
 20
172.2681591327263106
 30
0.0
 11
3691.8158011336890922
 21
172.2730333706782915
 31
0.0
  0
LINE
  5
17D4D
  8
0
 10
3691.8158011336890922
 20
172.2730333706782915
 30
0.0
 11
3691.8065045034009017
 21
172.2769413432085059
 31
0.0
  0
LINE
  5
17D4E
  8
0
 10
3691.8180357326409649
 20
172.2775878310754933
 30
0.0
 11
3691.8081932128297922
 21
172.2829926060165064
 31
0.0
  0
LINE
  5
17D4F
  8
0
 10
3691.8081932128297922
 20
172.2829926060165064
 30
0.0
 11
3691.7885081736149004
 21
172.2885254823094954
 31
0.0
  0
LINE
  5
17D50
  8
0
 10
3691.7885081736149004
 20
172.2885254823094954
 30
0.0
 11
3691.778665653932876
 21
172.2887220442281091
 31
0.0
  0
LINE
  5
17D51
  8
0
 10
3691.778665653932876
 20
172.2887220442281091
 30
0.0
 11
3691.788508173604896
 21
172.2833268193352012
 31
0.0
  0
LINE
  5
17D52
  8
0
 10
3691.788508173604896
 20
172.2833268193352012
 30
0.0
 11
3691.8081932130107816
 21
172.2777253240201958
 31
0.0
  0
LINE
  5
17D53
  8
0
 10
3691.8081932130107816
 20
172.2777253240201958
 30
0.0
 11
3691.8180357326677949
 21
172.2775878310760049
 31
0.0
  0
LINE
  5
17D54
  8
0
 10
3691.7786656541620687
 20
172.2831175277513864
 30
0.0
 11
3691.7885081736149004
 21
172.2811168004097908
 31
0.0
  0
LINE
  5
17D55
  8
0
 10
3691.7885081736149004
 20
172.2811168004097908
 30
0.0
 11
3691.8081932129721281
 21
172.275459163451103
 31
0.0
  0
LINE
  5
17D56
  8
0
 10
3691.8081932129721281
 20
172.275459163451103
 30
0.0
 11
3691.8180357326677949
 21
172.2716921043395075
 31
0.0
  0
LINE
  5
17D57
  8
0
 10
3691.8180357326677949
 20
172.2716921043395075
 30
0.0
 11
3691.8081932129721281
 21
172.274030298343007
 31
0.0
  0
LINE
  5
17D58
  8
0
 10
3691.8081932129721281
 20
172.274030298343007
 30
0.0
 11
3691.7885081735707899
 21
172.2798744037243921
 31
0.0
  0
LINE
  5
17D59
  8
0
 10
3691.7885081735707899
 20
172.2798744037243921
 30
0.0
 11
3691.7786656538851275
 21
172.2831175278654996
 31
0.0
  0
LINE
  5
17D5A
  8
0
 10
3691.7901968829869475
 20
172.2816036965679984
 30
0.0
 11
3691.7803543633108347
 21
172.2866527753880064
 31
0.0
  0
LINE
  5
17D5B
  8
0
 10
3691.7803543633108347
 20
172.2866527753880064
 30
0.0
 11
3691.7606693239122251
 21
172.293281219436011
 31
0.0
  0
LINE
  5
17D5C
  8
0
 10
3691.7606693239122251
 20
172.293281219436011
 30
0.0
 11
3691.750826804260214
 21
172.2949691258216092
 31
0.0
  0
LINE
  5
17D5D
  8
0
 10
3691.750826804260214
 20
172.2949691258216092
 30
0.0
 11
3691.7606693240759341
 21
172.2899421878504995
 31
0.0
  0
LINE
  5
17D5E
  8
0
 10
3691.7606693240759341
 20
172.2899421878504995
 30
0.0
 11
3691.7803543633190202
 21
172.2832047403084914
 31
0.0
  0
LINE
  5
17D5F
  8
0
 10
3691.7803543633190202
 20
172.2832047403084914
 30
0.0
 11
3691.7901968829869475
 21
172.2816036965679984
 31
0.0
  0
LINE
  5
17D60
  8
0
 10
3691.7345191836589038
 20
172.3499676768363997
 30
0.0
 11
3691.7246766640400892
 21
172.3504839835264875
 31
0.0
  0
LINE
  5
17D61
  8
0
 10
3691.7246766640400892
 20
172.3504839835264875
 30
0.0
 11
3691.7070093735537739
 21
172.3401795404288066
 31
0.0
  0
LINE
  5
17D62
  8
0
 10
3691.7070093735537739
 20
172.3401795404288066
 30
0.0
 11
3691.7049916246719476
 21
172.3411067309149871
 31
0.0
  0
LINE
  5
17D63
  8
0
 10
3691.7049916246719476
 20
172.3411067309149871
 30
0.0
 11
3691.6951491049157994
 21
172.3405180478384011
 31
0.0
  0
LINE
  5
17D64
  8
0
 10
3691.6951491049157994
 20
172.3405180478384011
 30
0.0
 11
3691.7049916246128305
 21
172.3311313497150081
 31
0.0
  0
LINE
  5
17D65
  8
0
 10
3691.7049916246128305
 20
172.3311313497150081
 30
0.0
 11
3691.7085869512861791
 21
172.3294798729326942
 31
0.0
  0
LINE
  5
17D66
  8
0
 10
3691.7085869512861791
 20
172.3294798729326942
 30
0.0
 11
3691.7246766639718771
 21
172.3388226398149925
 31
0.0
  0
LINE
  5
17D67
  8
0
 10
3691.7246766639718771
 20
172.3388226398149925
 30
0.0
 11
3691.7345191836589038
 21
172.3499676768363997
 31
0.0
  0
LINE
  5
17D68
  8
0
 10
3691.7405546967238479
 20
172.3493919400777941
 30
0.0
 11
3691.7328304743150511
 21
172.3453859762414027
 31
0.0
  0
LINE
  5
17D69
  8
0
 10
3691.7328304743150511
 20
172.3453859762414027
 30
0.0
 11
3691.7255840660182002
 21
172.3371721509165013
 31
0.0
  0
LINE
  5
17D6A
  8
0
 10
3691.7255840660182002
 20
172.3371721509165013
 30
0.0
 11
3691.7090923668838514
 21
172.3276333545547061
 31
0.0
  0
LINE
  5
17D6B
  8
0
 10
3691.7090923668838514
 20
172.3276333545547061
 30
0.0
 11
3691.7085869512861791
 21
172.3294798729326942
 31
0.0
  0
ARC
  5
17D6C
  8
0
 10
3691.9610573784161716
 20
172.8817442174234031
 30
0.0
 40
0.6087078243529792
 50
245.5477814957118881
 51
251.3014876537770022
  0
ARC
  5
17D6D
  8
0
 10
3691.9642673943289992
 20
172.8912286117979136
 30
0.0
 40
0.6187207129880244
 50
251.3014876537770022
 51
262.9291682684706188
  0
ARC
  5
17D6E
  8
0
 10
3691.9657050850141786
 20
172.9028191865824056
 30
0.0
 40
0.6304001127303711
 50
262.9291682684706188
 51
269.9709921030216151
  0
LINE
  5
17D6F
  8
0
 10
3691.7255840660718604
 20
172.3258247899150035
 30
0.0
 11
3691.7597619218718137
 21
172.3258247899150035
 31
0.0
  0
LINE
  5
17D70
  8
0
 10
3691.7597619218718137
 20
172.3258247899150035
 30
0.0
 11
3691.7597619218718137
 21
172.3422903816048972
 31
0.0
  0
LINE
  5
17D71
  8
0
 10
3691.7255840660718604
 20
172.3258247899150035
 30
0.0
 11
3691.7255840660718604
 21
172.337172150977409
 31
0.0
  0
LINE
  5
17D72
  8
0
 10
3691.7328304742718501
 20
172.3258247899150035
 30
0.0
 11
3691.7328304742718501
 21
172.3453859762190916
 31
0.0
  0
LINE
  5
17D73
  8
0
 10
3691.752515513671824
 20
172.3258247899150035
 30
0.0
 11
3691.752515513671824
 21
172.3448837272862875
 31
0.0
  0
LINE
  5
17D74
  8
0
 10
3691.7812617653721645
 20
172.3351942183122958
 30
0.0
 11
3691.7812617653721645
 21
172.3258247899150035
 31
0.0
  0
LINE
  5
17D75
  8
0
 10
3691.7812617653721645
 20
172.3258247899150035
 30
0.0
 11
3691.8148947532890816
 21
172.3258247899150035
 31
0.0
  0
LINE
  5
17D76
  8
0
 10
3691.7885081735707899
 20
172.3258247899150035
 30
0.0
 11
3691.7885081735707899
 21
172.3330000187170015
 31
0.0
  0
LINE
  5
17D77
  8
0
 10
3691.8081932129721281
 20
172.3258247899150035
 30
0.0
 11
3691.8081932129721281
 21
172.3275296000464891
 31
0.0
  0
LINE
  5
17D78
  8
0
 10
3691.9752263108721309
 20
172.4177154890504937
 30
0.0
 11
3691.9752263108721309
 21
172.3929985822834965
 31
0.0
  0
LINE
  5
17D79
  8
0
 10
3691.9752263108721309
 20
172.3785250650228988
 30
0.0
 11
3691.9752263108721309
 21
172.3574093050079057
 31
0.0
  0
LINE
  5
17D7A
  8
0
 10
3691.9752263108721309
 20
172.3451077952477135
 30
0.0
 11
3691.9752263108721309
 21
172.3272910680150005
 31
0.0
  0
LINE
  5
17D7B
  8
0
 10
3691.955541271472157
 20
172.3272910680150005
 30
0.0
 11
3691.955541271472157
 21
172.345107795206701
 31
0.0
  0
LINE
  5
17D7C
  8
0
 10
3691.955541271472157
 20
172.3574093050092984
 30
0.0
 11
3691.955541271472157
 21
172.3785250650228988
 31
0.0
  0
LINE
  5
17D7D
  8
0
 10
3691.955541271472157
 20
172.3929985822819901
 30
0.0
 11
3691.955541271472157
 21
172.4177154890504937
 31
0.0
  0
LINE
  5
17D7E
  8
0
 10
3691.947387461209928
 20
172.3305979671438024
 30
0.0
 11
3691.947387461209928
 21
172.322472447489389
 31
0.0
  0
LINE
  5
17D7F
  8
0
 10
3691.9277024218699808
 20
172.3314840326588921
 30
0.0
 11
3691.9277024218699808
 21
172.3233548022390096
 31
0.0
  0
LINE
  5
17D80
  8
0
 10
3691.9473874612558575
 20
172.3418761026267987
 30
0.0
 11
3691.9473595747717809
 21
172.3613164034728982
 31
0.0
  0
LINE
  5
17D81
  8
0
 10
3691.9277024218631595
 20
172.3622210117322879
 30
0.0
 11
3691.9277801691150671
 21
172.3427637710649094
 31
0.0
  0
LINE
  5
17D82
  8
0
 10
3691.9195486115709173
 20
172.3289088009244949
 30
0.0
 11
3691.9195486115881977
 21
172.3467439699732893
 31
0.0
  0
LINE
  5
17D83
  8
0
 10
3691.8998635721709434
 20
172.3485393738631899
 30
0.0
 11
3691.9000458938548945
 21
172.3306644913704133
 31
0.0
  0
LINE
  5
17D84
  8
0
 10
3691.8917097618841581
 20
172.3347365688269122
 30
0.0
 11
3691.8917097618841581
 21
172.3265979912341095
 31
0.0
  0
LINE
  5
17D85
  8
0
 10
3691.8720247225719504
 20
172.3374195104559021
 30
0.0
 11
3691.8720247225719504
 21
172.3292695098637068
 31
0.0
  0
LINE
  5
17D86
  8
0
 10
3691.891709761904167
 20
172.3460446501082117
 30
0.0
 11
3691.8917097619719243
 21
172.3655452180150007
 31
0.0
  0
LINE
  5
17D87
  8
0
 10
3691.8720247225442108
 20
172.3682879506507959
 30
0.0
 11
3691.8722651784842128
 21
172.3487103067465966
 31
0.0
  0
LINE
  5
17D88
  8
0
 10
3691.8998635721709434
 20
172.3608730146150094
 30
0.0
 11
3691.8998635722041399
 21
172.3820508277327974
 31
0.0
  0
LINE
  5
17D89
  8
0
 10
3691.9195486115982021
 20
172.3802059911224092
 30
0.0
 11
3691.9195486115941094
 21
172.3590609918836947
 31
0.0
  0
LINE
  5
17D8A
  8
0
 10
3691.9277024218099541
 20
172.3984901624411918
 30
0.0
 11
3691.9277024218708902
 21
172.3755974635149926
 31
0.0
  0
LINE
  5
17D8B
  8
0
 10
3691.9473874612708642
 20
172.3746817636541948
 30
0.0
 11
3691.9473874612708642
 21
172.3975545962445892
 31
0.0
  0
LINE
  5
17D8C
  8
0
 10
3691.9195486115868334
 20
172.3947025032128124
 30
0.0
 11
3691.9195074824028779
 21
172.4194667274053074
 31
0.0
  0
LINE
  5
17D8D
  8
0
 10
3691.8998635722218751
 20
172.4213823453773102
 30
0.0
 11
3691.8998635722218751
 21
172.3965727503475875
 31
0.0
  0
LINE
  5
17D8E
  8
0
 10
3691.9277024218708902
 20
172.4408705552368133
 30
0.0
 11
3691.9277024218708902
 21
172.4141513316149883
 31
0.0
  0
LINE
  5
17D8F
  8
0
 10
3691.9473874612708642
 20
172.4132005597149941
 30
0.0
 11
3691.9473874612708642
 21
172.4398908252863123
 31
0.0
  0
LINE
  5
17D90
  8
0
 10
3691.8917097619191736
 20
172.417643407430802
 30
0.0
 11
3691.8917097619719243
 21
172.4444699701149943
 31
0.0
  0
LINE
  5
17D91
  8
0
 10
3691.8720247225887761
 20
172.4205263615779984
 30
0.0
 11
3691.8720247225887761
 21
172.4461881703558959
 31
0.0
  0
LINE
  5
17D92
  8
0
 10
3691.8441858728720035
 20
172.4304305178559105
 30
0.0
 11
3691.8441858728720035
 21
172.4055364946231919
 31
0.0
  0
LINE
  5
17D93
  8
0
 10
3691.8638709122719774
 20
172.4266831761150058
 30
0.0
 11
3691.8638709122719774
 21
172.4017372708150049
 31
0.0
  0
LINE
  5
17D94
  8
0
 10
3691.8720247225878666
 20
172.4047617859548041
 30
0.0
 11
3691.8720247225719504
 21
172.3817340925558881
 31
0.0
  0
LINE
  5
17D95
  8
0
 10
3691.8917097619128072
 20
172.3789596537721991
 30
0.0
 11
3691.8917097619628294
 21
172.4019259105209869
 31
0.0
  0
LINE
  5
17D96
  8
0
 10
3691.8638709123379158
 20
172.3875521837651945
 30
0.0
 11
3691.8638709123379158
 21
172.3658746448629984
 31
0.0
  0
LINE
  5
17D97
  8
0
 10
3691.8441858728901934
 20
172.3695520247482875
 30
0.0
 11
3691.8441858728901934
 21
172.3908902380404982
 31
0.0
  0
LINE
  5
17D98
  8
0
 10
3691.8360320625711211
 20
172.3885605329139139
 30
0.0
 11
3691.8360320625711211
 21
172.4117423039683956
 31
0.0
  0
LINE
  5
17D99
  8
0
 10
3691.8163470231820611
 20
172.4165707507414993
 30
0.0
 11
3691.8163470232721011
 21
172.3932799645149885
 31
0.0
  0
LINE
  5
17D9A
  8
0
 10
3691.8081932129980487
 20
172.3995559350011888
 30
0.0
 11
3691.8081932129721281
 21
172.3780551879150096
 31
0.0
  0
LINE
  5
17D9B
  8
0
 10
3691.7885081735780659
 20
172.3837128247378985
 30
0.0
 11
3691.7885081735707899
 21
172.4053248044913005
 31
0.0
  0
LINE
  5
17D9C
  8
0
 10
3691.7606693239708875
 20
172.3968180051149943
 30
0.0
 11
3691.7606693238981279
 21
172.3768343490440031
 31
0.0
  0
LINE
  5
17D9D
  8
0
 10
3691.7803543632007859
 20
172.369672538718504
 30
0.0
 11
3691.7803543632007859
 21
172.3900805576193136
 31
0.0
  0
LINE
  5
17D9E
  8
0
 10
3691.7885081735707899
 20
172.3711597419442967
 30
0.0
 11
3691.7885081735880703
 21
172.3530357171921139
 31
0.0
  0
LINE
  5
17D9F
  8
0
 10
3691.808193212995775
 20
172.3475028410016989
 30
0.0
 11
3691.808193212995775
 21
172.3655582465385976
 31
0.0
  0
LINE
  5
17DA0
  8
0
 10
3691.8163470232670988
 20
172.3599861224612937
 30
0.0
 11
3691.8163470232329928
 21
172.3796982399053093
 31
0.0
  0
LINE
  5
17DA1
  8
0
 10
3691.8360320625711211
 20
172.3750349500149923
 30
0.0
 11
3691.8360320625711211
 21
172.355393776927599
 31
0.0
  0
LINE
  5
17DA2
  8
0
 10
3691.8441858728720035
 20
172.357137216305091
 30
0.0
 11
3691.8441858728810985
 21
172.3391822865573033
 31
0.0
  0
LINE
  5
17DA3
  8
0
 10
3691.8638709122778891
 20
172.3355821158577044
 30
0.0
 11
3691.8638709122719774
 21
172.3534945492149859
 31
0.0
  0
LINE
  5
17DA4
  8
0
 10
3691.752515513671824
 20
172.3650388099150064
 30
0.0
 11
3691.7525155136959256
 21
172.3836236344976101
 31
0.0
  0
LINE
  5
17DA5
  8
0
 10
3691.7328304742718501
 20
172.3910671752149995
 30
0.0
 11
3691.7328304742181899
 21
172.3726869733505112
 31
0.0
  0
LINE
  5
17DA6
  8
0
 10
3691.7246766640610076
 20
172.379310072175997
 30
0.0
 11
3691.7246766640610076
 21
172.3704231975800099
 31
0.0
  0
LINE
  5
17DA7
  8
0
 10
3691.7166981854720689
 20
172.3660634280149964
 30
0.0
 11
3691.7166981854720689
 21
172.3828873039595067
 31
0.0
  0
LINE
  5
17DA8
  8
0
 10
3691.7049916246241992
 20
172.3713597954173053
 30
0.0
 11
3691.7049916246141947
 21
172.3881360592338012
 31
0.0
  0
LINE
  5
17DA9
  8
0
 10
3691.7246766639400448
 20
172.3909726200276111
 30
0.0
 11
3691.7246766639718771
 21
172.4111988139150071
 31
0.0
  0
LINE
  5
17DAA
  8
0
 10
3691.704991624655122
 20
172.3998765585710942
 30
0.0
 11
3691.704991624655122
 21
172.4039300115182982
 31
0.0
  0
LINE
  5
17DAB
  8
0
 10
3691.7328304743200533
 20
172.4030065425147029
 30
0.0
 11
3691.7328304743200533
 21
172.4160827364484874
 31
0.0
  0
LINE
  5
17DAC
  8
0
 10
3691.752515513671824
 20
172.4178586580198953
 30
0.0
 11
3691.752515513623166
 21
172.3958447321892891
 31
0.0
  0
LINE
  5
17DAD
  8
0
 10
3691.7606693239072229
 20
172.4106149980538873
 30
0.0
 11
3691.7606693239072229
 21
172.4250208758539884
 31
0.0
  0
LINE
  5
17DAE
  8
0
 10
3691.7803543632721812
 20
172.4037910613149904
 30
0.0
 11
3691.7803543632990113
 21
172.4273323117253085
 31
0.0
  0
LINE
  5
17DAF
  8
0
 10
3691.7885081736339998
 20
172.4201837489887055
 30
0.0
 11
3691.7885081736339998
 21
172.432419724648696
 31
0.0
  0
LINE
  5
17DB0
  8
0
 10
3691.8081932130221503
 20
172.4143283896898993
 30
0.0
 11
3691.8081932130221503
 21
172.4367562565034859
 31
0.0
  0
LINE
  5
17DB1
  8
0
 10
3691.8163470232721011
 20
172.4325372747150027
 30
0.0
 11
3691.8163470232721011
 21
172.4383402406392065
 31
0.0
  0
LINE
  5
17DB2
  8
0
 10
3691.8360320624801716
 20
172.4276250810034128
 30
0.0
 11
3691.8360320624801716
 21
172.4416602514442047
 31
0.0
  0
LINE
  5
17DB3
  8
0
 10
3691.6968378142569236
 20
172.3630791949503873
 30
0.0
 11
3691.6968378145038514
 21
172.3781531907316946
 31
0.0
  0
LINE
  5
17DB4
  8
0
 10
3691.6783366794220456
 20
172.3875142084665981
 30
0.0
 11
3691.6775804696158048
 21
172.372780865900495
 31
0.0
  0
LINE
  5
17DB5
  8
0
 10
3691.6771527749720008
 20
172.3645175756149968
 30
0.0
 11
3691.6771527751670874
 21
172.3528562316373893
 31
0.0
  0
LINE
  5
17DB6
  8
0
 10
3691.6968378143828886
 20
172.3429611191596109
 30
0.0
 11
3691.6968378145820679
 21
172.3546224628641141
 31
0.0
  0
LINE
  5
17DB7
  8
0
 10
3691.6771527747109758
 20
172.3383937727826094
 30
0.0
 11
3691.6771527750329369
 21
172.3465718889403888
 31
0.0
  0
LINE
  5
17DB8
  8
0
 10
3691.6968378142751135
 20
172.3366547493417897
 30
0.0
 11
3691.6961883048438722
 21
172.3284575216686108
 31
0.0
  0
LINE
  5
17DB9
  8
0
 10
3691.7070093735537739
 20
172.3401795404288066
 30
0.0
 11
3691.7049916246128305
 21
172.3311313497150081
 31
0.0
  0
LINE
  5
17DBA
  8
0
 10
3691.7246766640400892
 20
172.3504839835264875
 30
0.0
 11
3691.7246766639718771
 21
172.3388226398149925
 31
0.0
  0
LINE
  5
17DBB
  8
0
 10
3691.7049916246210159
 20
172.3258924551188045
 30
0.0
 11
3691.704991624782906
 21
172.319346031245999
 31
0.0
  0
LINE
  5
17DBC
  8
0
 10
3691.7216070103709171
 20
172.3150525019150052
 30
0.0
 11
3691.7246766639718771
 21
172.3105200443150125
 31
0.0
  0
LINE
  5
17DBD
  8
0
 10
3691.7049916246642169
 20
172.3163234289708043
 30
0.0
 11
3691.7049916246642169
 21
172.3133871373808859
 31
0.0
  0
LINE
  5
17DBE
  8
0
 10
3691.7246766640000715
 20
172.3043229965956868
 30
0.0
 11
3691.7246766638218105
 21
172.3074194904179137
 31
0.0
  0
LINE
  5
17DBF
  8
0
 10
3691.7328304742718501
 20
172.3081767383150122
 30
0.0
 11
3691.7328304742718501
 21
172.3032342526149989
 31
0.0
  0
LINE
  5
17DC0
  8
0
 10
3691.73283047429004
 20
172.3012341915998036
 30
0.0
 11
3691.7328304742718501
 21
172.299940456414987
 31
0.0
  0
LINE
  5
17DC1
  8
0
 10
3691.7511102766520708
 20
172.2939594256189082
 30
0.0
 11
3691.7512871971380264
 21
172.2927241244136951
 31
0.0
  0
LINE
  5
17DC2
  8
0
 10
3691.7530738875288989
 20
172.295389705589912
 30
0.0
 11
3691.7525155137050206
 21
172.3005285749692064
 31
0.0
  0
LINE
  5
17DC3
  8
0
 10
3691.7606693239708875
 20
172.2965000026150051
 30
0.0
 11
3691.7606693239708875
 21
172.2997984373284908
 31
0.0
  0
LINE
  5
17DC4
  8
0
 10
3691.7803543632808214
 20
172.2899247769736917
 30
0.0
 11
3691.7803543632721812
 21
172.2932584323635865
 31
0.0
  0
LINE
  5
17DC5
  8
0
 10
3691.7606693239122251
 20
172.293281219436011
 30
0.0
 11
3691.7611026846479945
 21
172.2897938648482921
 31
0.0
  0
LINE
  5
17DC6
  8
0
 10
3691.7803543633190202
 20
172.2832047403084914
 30
0.0
 11
3691.7803543633108347
 21
172.2866527753880064
 31
0.0
  0
LINE
  5
17DC7
  8
0
 10
3691.788508173604896
 20
172.2833268193352012
 30
0.0
 11
3691.7885081736149004
 21
172.2885254823094954
 31
0.0
  0
LINE
  5
17DC8
  8
0
 10
3691.7885081736149004
 20
172.2811168004097908
 30
0.0
 11
3691.788733040059924
 21
172.2798076452369003
 31
0.0
  0
LINE
  5
17DC9
  8
0
 10
3691.8081932130107816
 20
172.2777253240201958
 30
0.0
 11
3691.8081932128297922
 21
172.2829926060165064
 31
0.0
  0
LINE
  5
17DCA
  8
0
 10
3691.8163470232270811
 20
172.2797844421600075
 30
0.0
 11
3691.8163470232721011
 21
172.2831715653705089
 31
0.0
  0
LINE
  5
17DCB
  8
0
 10
3691.8158011336890922
 20
172.2730333706782915
 30
0.0
 11
3691.8159777039090841
 21
172.2764520675688118
 31
0.0
  0
LINE
  5
17DCC
  8
0
 10
3691.8081932129721281
 20
172.274030298343007
 30
0.0
 11
3691.8081932129721281
 21
172.275459163451103
 31
0.0
  0
LINE
  5
17DCD
  8
0
 10
3691.8360320626429711
 20
172.2681591327263106
 30
0.0
 11
3691.8360320626798057
 21
172.2718406472739048
 31
0.0
  0
LINE
  5
17DCE
  8
0
 10
3691.8360320625711211
 20
172.2752268092150132
 30
0.0
 11
3691.8360320625711211
 21
172.2786369332484071
 31
0.0
  0
LINE
  5
17DCF
  8
0
 10
3691.8441858729438536
 20
172.274672051655898
 30
0.0
 11
3691.8441858728469924
 21
172.2693042937310963
 31
0.0
  0
LINE
  5
17DD0
  8
0
 10
3691.8638709122560613
 20
172.2656616265408047
 30
0.0
 11
3691.8638709122919863
 21
172.2710718808357058
 31
0.0
  0
LINE
  5
17DD1
  8
0
 10
3691.8720247227702203
 20
172.2686294825109883
 30
0.0
 11
3691.8711173009119193
 21
172.2722022835174016
 31
0.0
  0
LINE
  5
17DD2
  8
0
 10
3691.8917097615972125
 20
172.2659465408499102
 30
0.0
 11
3691.8917097619719243
 21
172.2694052549150001
 31
0.0
  0
LINE
  5
17DD3
  8
0
 10
3691.8720247220371675
 20
172.2614121334796948
 30
0.0
 11
3691.8718181832650771
 21
172.2651828100667899
 31
0.0
  0
LINE
  5
17DD4
  8
0
 10
3691.891709761941911
 20
172.2586694006828907
 30
0.0
 11
3691.8922248012081582
 21
172.2624208094435971
 31
0.0
  0
LINE
  5
17DD5
  8
0
 10
3691.8998635722250583
 20
172.2607064513092894
 30
0.0
 11
3691.8988722013759798
 21
172.2659875041487965
 31
0.0
  0
LINE
  5
17DD6
  8
0
 10
3691.9186939602709572
 20
172.2589889970869876
 30
0.0
 11
3691.9191847111069364
 21
172.2644313795692881
 31
0.0
  0
LINE
  5
17DD7
  8
0
 10
3691.8998635710108829
 20
172.2561321159082013
 30
0.0
 11
3691.8998249292990295
 21
172.258276293801913
 31
0.0
  0
LINE
  5
17DD8
  8
0
 10
3691.9195486115709173
 20
172.2564649676149884
 30
0.0
 11
3691.9195830958988154
 21
172.2542878253173058
 31
0.0
  0
LINE
  5
17DD9
  8
0
 10
3691.9277024218458791
 20
172.2553451943080915
 30
0.0
 11
3691.9276915977388853
 21
172.2592159017908102
 31
0.0
  0
LINE
  5
17DDA
  8
0
 10
3691.9277024219732084
 20
172.2626940046922073
 30
0.0
 11
3691.9277024219732084
 21
172.2661685447104958
 31
0.0
  0
LINE
  5
17DDB
  8
0
 10
3691.9473874612708642
 20
172.2618079393149912
 30
0.0
 11
3691.9473874612708642
 21
172.2652866974150072
 31
0.0
  0
LINE
  5
17DDC
  8
0
 10
3691.9473874604959747
 20
172.2544397570268018
 30
0.0
 11
3691.9473874604959747
 21
172.2583229729968934
 31
0.0
  0
LINE
  5
17DDD
  8
0
 10
3691.9752263106588543
 20
172.2572748725636131
 30
0.0
 11
3691.9752263106588543
 21
172.2627808330628056
 31
0.0
  0
LINE
  5
17DDE
  8
0
 10
3691.9555412717741092
 20
172.2572748726047109
 30
0.0
 11
3691.9555412717741092
 21
172.2627808330628056
 31
0.0
  0
LINE
  5
17DDF
  8
0
 10
3691.9752263111568027
 20
172.2548137453358095
 30
0.0
 11
3691.9752263111568027
 21
172.2526063530590079
 31
0.0
  0
LINE
  5
17DE0
  8
0
 10
3691.955541272019218
 20
172.2526063530301883
 30
0.0
 11
3691.9555412718318621
 21
172.2548137453374864
 31
0.0
  0
LINE
  5
17DE1
  8
0
 10
3691.9195486115709173
 20
172.4363843813555945
 30
0.0
 11
3691.9195486115709173
 21
172.4499057455994944
 31
0.0
  0
LINE
  5
17DE2
  8
0
 10
3691.8998635721709434
 20
172.4383403628247038
 30
0.0
 11
3691.8998635721709434
 21
172.4486946520453046
 31
0.0
  0
ARC
  5
17DE3
  8
0
 10
3692.2347817276158821
 20
172.3412352161388981
 30
0.0
 40
0.045803629057125
 50
21.9199163587774386
 51
34.2167348976129517
  0
ARC
  5
17DE4
  8
0
 10
3692.2044624380059759
 20
172.3201655594936028
 30
0.0
 40
0.0827239823951451
 50
34.4754628046806673
 51
51.9574009100896888
  0
ARC
  5
17DE5
  8
0
 10
3692.1240149164477771
 20
172.2088417165390979
 30
0.0
 40
0.2200354983047793
 50
53.3236409924146173
 51
71.6885491753299249
  0
ARC
  5
17DE6
  8
0
 10
3692.0097650606908246
 20
171.8778089512557017
 30
0.0
 40
0.570218372708486
 50
71.2404068911858843
 51
83.1083288168057237
  0
ARC
  5
17DE7
  8
0
 10
3691.967324078189904
 20
171.5829752133959971
 30
0.0
 40
0.8680407724388242
 50
82.6623561675613558
 51
88.0520799946735622
  0
ARC
  5
17DE8
  8
0
 10
3691.965406930250083
 20
171.5336053524175952
 30
0.0
 40
0.9174473011378655
 50
88.037222470256765
 51
90.0013118694293155
  0
ARC
  5
17DE9
  8
0
 10
3692.232347497003957
 20
172.3768395297979907
 30
0.0
 40
0.0485885113508923
 50
328.157552476117587
 51
337.6131291631771774
  0
ARC
  5
17DEA
  8
0
 10
3692.2020463590379222
 20
172.3982495231551013
 30
0.0
 40
0.085653282301483
 50
305.3725529628715094
 51
326.6848155526178061
  0
ARC
  5
17DEB
  8
0
 10
3692.087266283435838
 20
172.5730084611473103
 30
0.0
 40
0.2946950865545726
 50
291.5963968020291759
 51
303.8998160393929879
  0
ARC
  5
17DEC
  8
0
 10
3691.9615692216430034
 20
172.8594176211884132
 30
0.0
 40
0.6073710848736831
 50
284.2170667785802038
 51
292.6771127258977003
  0
ARC
  5
17DED
  8
0
 10
3691.9860692086381277
 20
172.7264277468410967
 30
0.0
 40
0.4725213441572571
 50
276.2446036858495972
 51
285.2977827024287762
  0
ARC
  5
17DEE
  8
0
 10
3691.9663364146199456
 20
172.8199345162865086
 30
0.0
 40
0.5676982694717351
 50
271.154668340085891
 51
277.1978654182423156
  0
ARC
  5
17DEF
  8
0
 10
3691.9653911616710502
 20
172.8421711074163056
 30
0.0
 40
0.5899496027240342
 50
269.9968371162922836
 51
271.2029332434955791
  0
ARC
  5
17DF0
  8
0
 10
3691.9086627201668307
 20
173.6105971257875069
 30
0.0
 40
1.3054103235764229
 50
272.4892222719333859
 51
275.5472885533635008
  0
ARC
  5
17DF1
  8
0
 10
3691.9656086235058865
 20
172.9308347116069058
 30
0.0
 40
0.6233920265506371
 50
276.3774055571909116
 51
285.1905537907488792
  0
ARC
  5
17DF2
  8
0
 10
3691.9691919589040481
 20
172.9176372471233947
 30
0.0
 40
0.6097167436882733
 50
285.1905537907488792
 51
290.7706252471364792
  0
ARC
  5
17DF3
  8
0
 10
3691.9662350709850216
 20
172.9254333475155931
 30
0.0
 40
0.618054751093302
 50
290.7706252471364792
 51
293.436748767096617
  0
ARC
  5
17DF4
  8
0
 10
3691.981189786433788
 20
172.8909357617675937
 30
0.0
 40
0.5804551907689149
 50
293.436748767096617
 51
294.4760128927321148
  0
LINE
  5
17DF5
  8
0
 10
3692.2216794810360625
 20
172.3626432904218007
 30
0.0
 11
3692.2221848966491962
 21
172.3601841114833064
 31
0.0
  0
LINE
  5
17DF6
  8
0
 10
3692.219638372119789
 20
172.3617188870605901
 30
0.0
 11
3692.2221848966360085
 21
172.3601841115446121
 31
0.0
  0
LINE
  5
17DF7
  8
0
 10
3692.2221848966360085
 20
172.3601841115446121
 30
0.0
 11
3692.2257802232711583
 21
172.3618355882150013
 31
0.0
  0
LINE
  5
17DF8
  8
0
 10
3692.2257802232711583
 20
172.3618355882150013
 30
0.0
 11
3692.23562274294909
 21
172.3595609425844088
 31
0.0
  0
LINE
  5
17DF9
  8
0
 10
3692.23562274294909
 20
172.3595609425844088
 30
0.0
 11
3692.2257802232711583
 21
172.3484882818133883
 31
0.0
  0
LINE
  5
17DFA
  8
0
 10
3692.2257802232711583
 20
172.3484882818133883
 30
0.0
 11
3692.2237624744579989
 21
172.3475610914547929
 31
0.0
  0
LINE
  5
17DFB
  8
0
 10
3692.2237624744579989
 20
172.3475610914547929
 30
0.0
 11
3692.2082016746098816
 21
172.3567106977178867
 31
0.0
  0
LINE
  5
17DFC
  8
0
 10
3692.0030694260722157
 20
172.4408705552368133
 30
0.0
 11
3692.012911945743781
 21
172.4279375298748107
 31
0.0
  0
LINE
  5
17DFD
  8
0
 10
3692.012911945743781
 20
172.4279375298748107
 30
0.0
 11
3692.0030694260722157
 21
172.4141513316149883
 31
0.0
  0
LINE
  5
17DFE
  8
0
 10
3692.0030694260722157
 20
172.4141513316149883
 30
0.0
 11
3691.9833843866708776
 21
172.4132005597149941
 31
0.0
  0
LINE
  5
17DFF
  8
0
 10
3691.9833843866708776
 20
172.4132005597149941
 30
0.0
 11
3691.9735418670120453
 21
172.4260076768694887
 31
0.0
  0
LINE
  5
17E00
  8
0
 10
3691.9735418670120453
 20
172.4260076768694887
 30
0.0
 11
3691.9833843866708776
 21
172.4398908252863123
 31
0.0
  0
LINE
  5
17E01
  8
0
 10
3691.9833843866708776
 20
172.4398908252863123
 30
0.0
 11
3692.0030694260722157
 21
172.4408705552368133
 31
0.0
  0
LINE
  5
17E02
  8
0
 10
3692.0309082757221404
 20
172.4213823453773102
 30
0.0
 11
3692.0407507953959794
 21
172.4098848739085952
 31
0.0
  0
LINE
  5
17E03
  8
0
 10
3692.0407507953959794
 20
172.4098848739085952
 30
0.0
 11
3692.0309082757707984
 21
172.3965727504150038
 31
0.0
  0
LINE
  5
17E04
  8
0
 10
3692.0309082757707984
 20
172.3965727504150038
 30
0.0
 11
3692.0112232363558178
 21
172.3947025032128124
 31
0.0
  0
LINE
  5
17E05
  8
0
 10
3692.0112232363558178
 20
172.3947025032128124
 30
0.0
 11
3692.0013807165310027
 21
172.4060966312659104
 31
0.0
  0
LINE
  5
17E06
  8
0
 10
3692.0013807165310027
 20
172.4060966312659104
 30
0.0
 11
3692.0112643655397733
 21
172.4194667274053074
 31
0.0
  0
LINE
  5
17E07
  8
0
 10
3692.0112643655397733
 20
172.4194667274053074
 30
0.0
 11
3692.0309082757221404
 21
172.4213823453773102
 31
0.0
  0
LINE
  5
17E08
  8
0
 10
3692.0598036316928301
 20
172.4460756216915911
 30
0.0
 11
3692.0685896450318069
 21
172.4353956394357965
 31
0.0
  0
LINE
  5
17E09
  8
0
 10
3692.0685896450318069
 20
172.4353956394357965
 30
0.0
 11
3692.0587471253529657
 21
172.4205263615779984
 31
0.0
  0
LINE
  5
17E0A
  8
0
 10
3692.0587471253529657
 20
172.4205263615779984
 30
0.0
 11
3692.0390620860239324
 21
172.417643407430802
 31
0.0
  0
LINE
  5
17E0B
  8
0
 10
3692.0390620860239324
 20
172.417643407430802
 30
0.0
 11
3692.0292195661209007
 21
172.4295419262078042
 31
0.0
  0
LINE
  5
17E0C
  8
0
 10
3692.0292195661209007
 20
172.4295419262078042
 30
0.0
 11
3692.0390620859711817
 21
172.4444699701149943
 31
0.0
  0
LINE
  5
17E0D
  8
0
 10
3692.0390620859711817
 20
172.4444699701149943
 30
0.0
 11
3692.0542200244290143
 21
172.4466556387521905
 31
0.0
  0
LINE
  5
17E0E
  8
0
 10
3692.0865859750711024
 20
172.4304305178559105
 30
0.0
 11
3692.0964284946931002
 21
172.4199515550274953
 31
0.0
  0
LINE
  5
17E0F
  8
0
 10
3692.0964284946931002
 20
172.4199515550274953
 30
0.0
 11
3692.0865859750711024
 21
172.4055364946231919
 31
0.0
  0
LINE
  5
17E10
  8
0
 10
3692.0865859750711024
 20
172.4055364946231919
 30
0.0
 11
3692.0669009356711285
 21
172.4017372708150049
 31
0.0
  0
LINE
  5
17E11
  8
0
 10
3692.0669009356711285
 20
172.4017372708150049
 30
0.0
 11
3692.0570584158408565
 21
172.4122528517397086
 31
0.0
  0
LINE
  5
17E12
  8
0
 10
3692.0570584158408565
 20
172.4122528517397086
 30
0.0
 11
3692.0669009356711285
 21
172.4266831761150058
 31
0.0
  0
LINE
  5
17E13
  8
0
 10
3692.0669009356711285
 20
172.4266831761150058
 30
0.0
 11
3692.0865859750711024
 21
172.4304305178559105
 31
0.0
  0
LINE
  5
17E14
  8
0
 10
3692.0587471253561489
 20
172.4047617859548041
 30
0.0
 11
3692.0685896450418113
 21
172.3946247100554956
 31
0.0
  0
LINE
  5
17E15
  8
0
 10
3692.0685896450418113
 20
172.3946247100554956
 30
0.0
 11
3692.0587471253711556
 21
172.3817340925558881
 31
0.0
  0
LINE
  5
17E16
  8
0
 10
3692.0587471253711556
 20
172.3817340925558881
 30
0.0
 11
3692.0390620860298441
 21
172.3789596537721991
 31
0.0
  0
LINE
  5
17E17
  8
0
 10
3692.0390620860298441
 20
172.3789596537721991
 30
0.0
 11
3692.029219566205029
 21
172.3890153433692092
 31
0.0
  0
LINE
  5
17E18
  8
0
 10
3692.029219566205029
 20
172.3890153433692092
 30
0.0
 11
3692.0390620859789124
 21
172.4019259105209869
 31
0.0
  0
LINE
  5
17E19
  8
0
 10
3692.0390620859789124
 20
172.4019259105209869
 30
0.0
 11
3692.0587471253561489
 21
172.4047617859548041
 31
0.0
  0
LINE
  5
17E1A
  8
0
 10
3692.0030694261340614
 20
172.3984901624411918
 30
0.0
 11
3692.0129119458101741
 21
172.3874769810987004
 31
0.0
  0
LINE
  5
17E1B
  8
0
 10
3692.0129119458101741
 20
172.3874769810987004
 30
0.0
 11
3692.0030694260722157
 21
172.3755974635149926
 31
0.0
  0
LINE
  5
17E1C
  8
0
 10
3692.0030694260722157
 20
172.3755974635149926
 30
0.0
 11
3691.9833843866708776
 21
172.3746817636541948
 31
0.0
  0
LINE
  5
17E1D
  8
0
 10
3691.9833843866708776
 20
172.3746817636541948
 30
0.0
 11
3691.9735418667842168
 21
172.3856260326462859
 31
0.0
  0
LINE
  5
17E1E
  8
0
 10
3691.9735418667842168
 20
172.3856260326462859
 30
0.0
 11
3691.9833843866617826
 21
172.3975545962441061
 31
0.0
  0
LINE
  5
17E1F
  8
0
 10
3691.9833843866617826
 20
172.3975545962441061
 30
0.0
 11
3692.0030694261340614
 21
172.3984901624411918
 31
0.0
  0
LINE
  5
17E20
  8
0
 10
3692.0309082757380565
 20
172.3820508277327974
 30
0.0
 11
3692.0407507953527784
 21
172.3723569795268133
 31
0.0
  0
LINE
  5
17E21
  8
0
 10
3692.0407507953527784
 20
172.3723569795268133
 30
0.0
 11
3692.0309082757707984
 21
172.3608730146150094
 31
0.0
  0
LINE
  5
17E22
  8
0
 10
3692.0309082757707984
 20
172.3608730146150094
 30
0.0
 11
3692.0112232363489966
 21
172.3590609918836947
 31
0.0
  0
LINE
  5
17E23
  8
0
 10
3692.0112232363489966
 20
172.3590609918836947
 30
0.0
 11
3692.0013807164400532
 21
172.3687005458143062
 31
0.0
  0
LINE
  5
17E24
  8
0
 10
3692.0013807164400532
 20
172.3687005458143062
 30
0.0
 11
3692.0112232363439944
 21
172.3802059911224092
 31
0.0
  0
LINE
  5
17E25
  8
0
 10
3692.0112232363439944
 20
172.3802059911224092
 30
0.0
 11
3692.0309082757380565
 21
172.3820508277327974
 31
0.0
  0
LINE
  5
17E26
  8
0
 10
3692.0587471253988952
 20
172.3682879506507959
 30
0.0
 11
3692.0685896450590917
 21
172.3600338946698969
 31
0.0
  0
LINE
  5
17E27
  8
0
 10
3692.0685896450590917
 20
172.3600338946698969
 30
0.0
 11
3692.0585066694598027
 21
172.3487103067465966
 31
0.0
  0
LINE
  5
17E28
  8
0
 10
3692.0585066694598027
 20
172.3487103067465966
 30
0.0
 11
3692.0390620860398485
 21
172.3460446501082117
 31
0.0
  0
LINE
  5
17E29
  8
0
 10
3692.0390620860398485
 20
172.3460446501082117
 30
0.0
 11
3692.0292195662209451
 21
172.3544245279834968
 31
0.0
  0
LINE
  5
17E2A
  8
0
 10
3692.0292195662209451
 20
172.3544245279834968
 30
0.0
 11
3692.0390620859711817
 21
172.3655452180150007
 31
0.0
  0
LINE
  5
17E2B
  8
0
 10
3692.0390620859711817
 20
172.3655452180150007
 30
0.0
 11
3692.0587471253988952
 21
172.3682879506507959
 31
0.0
  0
LINE
  5
17E2C
  8
0
 10
3692.0865859750238087
 20
172.3908902380667882
 30
0.0
 11
3692.0964284948067871
 21
172.3820641900823034
 31
0.0
  0
LINE
  5
17E2D
  8
0
 10
3692.0964284948067871
 20
172.3820641900823034
 30
0.0
 11
3692.0865859750529125
 21
172.3695520247482875
 31
0.0
  0
LINE
  5
17E2E
  8
0
 10
3692.0865859750529125
 20
172.3695520247482875
 30
0.0
 11
3692.066900935682952
 21
172.3658746448776071
 31
0.0
  0
LINE
  5
17E2F
  8
0
 10
3692.066900935682952
 20
172.3658746448776071
 30
0.0
 11
3692.0570584158299425
 21
172.3746416166133884
 31
0.0
  0
LINE
  5
17E30
  8
0
 10
3692.0570584158299425
 20
172.3746416166133884
 30
0.0
 11
3692.0669009356051902
 21
172.3875521837651945
 31
0.0
  0
LINE
  5
17E31
  8
0
 10
3692.0669009356051902
 20
172.3875521837651945
 30
0.0
 11
3692.0865859750238087
 21
172.3908902380667882
 31
0.0
  0
LINE
  5
17E32
  8
0
 10
3692.1144248247619544
 20
172.4165707507414993
 30
0.0
 11
3692.1242673444448883
 21
172.407295365563499
 31
0.0
  0
LINE
  5
17E33
  8
0
 10
3692.1242673444448883
 20
172.407295365563499
 30
0.0
 11
3692.1144248246719144
 21
172.3932799645149885
 31
0.0
  0
LINE
  5
17E34
  8
0
 10
3692.1144248246719144
 20
172.3932799645149885
 30
0.0
 11
3692.0947397853719849
 21
172.3885605329139139
 31
0.0
  0
LINE
  5
17E35
  8
0
 10
3692.0947397853719849
 20
172.3885605329139139
 30
0.0
 11
3692.0848972654362115
 21
172.397749036983214
 31
0.0
  0
LINE
  5
17E36
  8
0
 10
3692.0848972654362115
 20
172.397749036983214
 30
0.0
 11
3692.0947397853719849
 21
172.4117423039683956
 31
0.0
  0
LINE
  5
17E37
  8
0
 10
3692.0947397853719849
 20
172.4117423039683956
 30
0.0
 11
3692.1144248247619544
 21
172.4165707507414993
 31
0.0
  0
LINE
  5
17E38
  8
0
 10
3692.0030694260808559
 20
172.3622210117322879
 30
0.0
 11
3692.0129119457637898
 21
172.3529306672988071
 31
0.0
  0
LINE
  5
17E39
  8
0
 10
3692.0129119457637898
 20
172.3529306672988071
 30
0.0
 11
3692.0029916788280389
 21
172.3427637710649094
 31
0.0
  0
LINE
  5
17E3A
  8
0
 10
3692.0029916788280389
 20
172.3427637710649094
 30
0.0
 11
3691.983384386688158
 21
172.3418761026267987
 31
0.0
  0
LINE
  5
17E3B
  8
0
 10
3691.983384386688158
 20
172.3418761026267987
 30
0.0
 11
3691.9735418669938554
 21
172.3511329308915947
 31
0.0
  0
LINE
  5
17E3C
  8
0
 10
3691.9735418669938554
 20
172.3511329308915947
 30
0.0
 11
3691.9834122731708703
 21
172.3613164034728982
 31
0.0
  0
LINE
  5
17E3D
  8
0
 10
3691.9834122731708703
 20
172.3613164034728982
 30
0.0
 11
3692.0030694260808559
 21
172.3622210117322879
 31
0.0
  0
LINE
  5
17E3E
  8
0
 10
3692.0309082757707984
 20
172.3485393738631899
 30
0.0
 11
3692.0407507954000721
 21
172.3404975258183072
 31
0.0
  0
LINE
  5
17E3F
  8
0
 10
3692.0407507954000721
 20
172.3404975258183072
 30
0.0
 11
3692.0307259540882114
 21
172.3306644913704133
 31
0.0
  0
LINE
  5
17E40
  8
0
 10
3692.0307259540882114
 20
172.3306644913704133
 30
0.0
 11
3692.0112232363708245
 21
172.3289088009244949
 31
0.0
  0
LINE
  5
17E41
  8
0
 10
3692.0112232363708245
 20
172.3289088009244949
 30
0.0
 11
3692.0013807167219966
 21
172.3369272409919972
 31
0.0
  0
LINE
  5
17E42
  8
0
 10
3692.0013807167219966
 20
172.3369272409919972
 30
0.0
 11
3692.0112232363549083
 21
172.3467439699732893
 31
0.0
  0
LINE
  5
17E43
  8
0
 10
3692.0112232363549083
 20
172.3467439699732893
 30
0.0
 11
3692.0309082757707984
 21
172.3485393738631899
 31
0.0
  0
LINE
  5
17E44
  8
0
 10
3692.0865859750711024
 20
172.357137216305091
 30
0.0
 11
3692.0964284947749547
 21
172.3499703358220074
 31
0.0
  0
LINE
  5
17E45
  8
0
 10
3692.0964284947749547
 20
172.3499703358220074
 30
0.0
 11
3692.0865859750620075
 21
172.3391822865573033
 31
0.0
  0
LINE
  5
17E46
  8
0
 10
3692.0865859750620075
 20
172.3391822865573033
 30
0.0
 11
3692.0669009356638526
 21
172.3355821158577044
 31
0.0
  0
LINE
  5
17E47
  8
0
 10
3692.0669009356638526
 20
172.3355821158577044
 30
0.0
 11
3692.057058415965912
 21
172.3427277471431864
 31
0.0
  0
LINE
  5
17E48
  8
0
 10
3692.057058415965912
 20
172.3427277471431864
 30
0.0
 11
3692.0669009356711285
 21
172.3534945492149859
 31
0.0
  0
LINE
  5
17E49
  8
0
 10
3692.0669009356711285
 20
172.3534945492149859
 30
0.0
 11
3692.0865859750711024
 21
172.357137216305091
 31
0.0
  0
LINE
  5
17E4A
  8
0
 10
3692.1144248247110227
 20
172.3796982399053093
 30
0.0
 11
3692.1242673443957756
 21
172.3721558166402872
 31
0.0
  0
LINE
  5
17E4B
  8
0
 10
3692.1242673443957756
 20
172.3721558166402872
 30
0.0
 11
3692.1144248246760071
 21
172.3599861224612937
 31
0.0
  0
LINE
  5
17E4C
  8
0
 10
3692.1144248246760071
 20
172.3599861224612937
 30
0.0
 11
3692.0947397853719849
 21
172.355393776927599
 31
0.0
  0
LINE
  5
17E4D
  8
0
 10
3692.0947397853719849
 20
172.355393776927599
 30
0.0
 11
3692.0848972656490332
 21
172.3629007250264067
 31
0.0
  0
LINE
  5
17E4E
  8
0
 10
3692.0848972656490332
 20
172.3629007250264067
 30
0.0
 11
3692.0947397853719849
 21
172.3750349500149923
 31
0.0
  0
LINE
  5
17E4F
  8
0
 10
3692.0947397853719849
 20
172.3750349500149923
 30
0.0
 11
3692.1144248247110227
 21
172.3796982399053093
 31
0.0
  0
LINE
  5
17E50
  8
0
 10
3692.1422636743718613
 20
172.4053248044913005
 30
0.0
 11
3692.1521061940561594
 21
172.3973748959629972
 31
0.0
  0
LINE
  5
17E51
  8
0
 10
3692.1521061940561594
 20
172.3973748959629972
 30
0.0
 11
3692.1422636743650401
 21
172.3837128247378985
 31
0.0
  0
LINE
  5
17E52
  8
0
 10
3692.1422636743650401
 20
172.3837128247378985
 30
0.0
 11
3692.1225786349718874
 21
172.3780551879150096
 31
0.0
  0
LINE
  5
17E53
  8
0
 10
3692.1225786349718874
 20
172.3780551879150096
 30
0.0
 11
3692.1127361152912272
 21
172.3859494725141133
 31
0.0
  0
LINE
  5
17E54
  8
0
 10
3692.1127361152912272
 20
172.3859494725141133
 30
0.0
 11
3692.1225786349459668
 21
172.3995559350011888
 31
0.0
  0
LINE
  5
17E55
  8
0
 10
3692.1225786349459668
 20
172.3995559350011888
 30
0.0
 11
3692.1422636743718613
 21
172.4053248044913005
 31
0.0
  0
LINE
  5
17E56
  8
0
 10
3692.1422636743718613
 20
172.3711597419442967
 30
0.0
 11
3692.1521061940211439
 21
172.3648936229448054
 31
0.0
  0
LINE
  5
17E57
  8
0
 10
3692.1521061940211439
 20
172.3648936229448054
 30
0.0
 11
3692.1422636743550356
 21
172.3530357171921139
 31
0.0
  0
LINE
  5
17E58
  8
0
 10
3692.1422636743550356
 20
172.3530357171921139
 30
0.0
 11
3692.1225786349468763
 21
172.3475028410016989
 31
0.0
  0
LINE
  5
17E59
  8
0
 10
3692.1225786349468763
 20
172.3475028410016989
 30
0.0
 11
3692.1127361152998674
 21
172.353759409914403
 31
0.0
  0
LINE
  5
17E5A
  8
0
 10
3692.1127361152998674
 20
172.353759409914403
 30
0.0
 11
3692.1225786349718874
 21
172.3655582465675877
 31
0.0
  0
LINE
  5
17E5B
  8
0
 10
3692.1225786349718874
 20
172.3655582465675877
 30
0.0
 11
3692.1422636743718613
 21
172.3711597419442967
 31
0.0
  0
LINE
  5
17E5C
  8
0
 10
3692.1701025239708542
 20
172.3968180051149943
 30
0.0
 11
3692.1799450436428742
 21
172.3901835992593874
 31
0.0
  0
LINE
  5
17E5D
  8
0
 10
3692.1799450436428742
 20
172.3901835992593874
 30
0.0
 11
3692.1701025240449781
 21
172.3768343490440031
 31
0.0
  0
LINE
  5
17E5E
  8
0
 10
3692.1701025240449781
 20
172.3768343490440031
 30
0.0
 11
3692.1504174847418653
 21
172.369672538718504
 31
0.0
  0
LINE
  5
17E5F
  8
0
 10
3692.1504174847418653
 20
172.369672538718504
 30
0.0
 11
3692.1405749650430153
 21
172.3768181700040998
 31
0.0
  0
LINE
  5
17E60
  8
0
 10
3692.1405749650430153
 20
172.3768181700040998
 30
0.0
 11
3692.1504174846718342
 21
172.390080557595212
 31
0.0
  0
LINE
  5
17E61
  8
0
 10
3692.1504174846718342
 20
172.390080557595212
 30
0.0
 11
3692.1701025239708542
 21
172.3968180051149943
 31
0.0
  0
LINE
  5
17E62
  8
0
 10
3692.1979413736721654
 20
172.3910671752149995
 30
0.0
 11
3692.2077838932591476
 21
172.3857600079504095
 31
0.0
  0
LINE
  5
17E63
  8
0
 10
3692.2077838932591476
 20
172.3857600079504095
 30
0.0
 11
3692.197941373724916
 21
172.3726869733505112
 31
0.0
  0
LINE
  5
17E64
  8
0
 10
3692.197941373724916
 20
172.3726869733505112
 30
0.0
 11
3692.1782563342721915
 21
172.3650388099150064
 31
0.0
  0
LINE
  5
17E65
  8
0
 10
3692.1782563342721915
 20
172.3650388099150064
 30
0.0
 11
3692.1684138146188161
 21
172.3703612469064126
 31
0.0
  0
LINE
  5
17E66
  8
0
 10
3692.1684138146188161
 20
172.3703612469064126
 30
0.0
 11
3692.1782563342471803
 21
172.3836236344976101
 31
0.0
  0
LINE
  5
17E67
  8
0
 10
3692.1782563342471803
 20
172.3836236344976101
 30
0.0
 11
3692.1979413736721654
 21
172.3910671752149995
 31
0.0
  0
LINE
  5
17E68
  8
0
 10
3692.2284144702648518
 20
172.402586581540902
 30
0.0
 11
3692.225780223287984
 21
172.3998765585710942
 31
0.0
  0
LINE
  5
17E69
  8
0
 10
3692.225780223287984
 20
172.3998765585710942
 30
0.0
 11
3692.2060951840030611
 21
172.3909726200276111
 31
0.0
  0
LINE
  5
17E6A
  8
0
 10
3692.2060951840030611
 20
172.3909726200276111
 30
0.0
 11
3692.1962526643201272
 21
172.3966367760444029
 31
0.0
  0
LINE
  5
17E6B
  8
0
 10
3692.1962526643201272
 20
172.3966367760444029
 30
0.0
 11
3692.2060951839707741
 21
172.4111988139150071
 31
0.0
  0
LINE
  5
17E6C
  8
0
 10
3692.2060951839707741
 20
172.4111988139150071
 30
0.0
 11
3692.2087139588338687
 21
172.4119222245477943
 31
0.0
  0
LINE
  5
17E6D
  8
0
 10
3692.205485655576922
 20
172.4132387301667961
 30
0.0
 11
3692.1979413736230526
 21
172.4030065425147029
 31
0.0
  0
LINE
  5
17E6E
  8
0
 10
3692.1979413736230526
 20
172.4030065425147029
 30
0.0
 11
3692.1782563343199399
 21
172.3958447321892891
 31
0.0
  0
LINE
  5
17E6F
  8
0
 10
3692.1782563343199399
 20
172.3958447321892891
 30
0.0
 11
3692.1684138146219993
 21
172.4029903634747996
 31
0.0
  0
LINE
  5
17E70
  8
0
 10
3692.1684138146219993
 20
172.4029903634747996
 30
0.0
 11
3692.1782563342721915
 21
172.4178586580198953
 31
0.0
  0
LINE
  5
17E71
  8
0
 10
3692.1782563342721915
 20
172.4178586580198953
 30
0.0
 11
3692.1849011569938739
 21
172.4204656939083975
 31
0.0
  0
LINE
  5
17E72
  8
0
 10
3692.1779034293981567
 20
172.4226745140715025
 30
0.0
 11
3692.1701025240349736
 21
172.4106149980538873
 31
0.0
  0
LINE
  5
17E73
  8
0
 10
3692.1701025240349736
 20
172.4106149980538873
 30
0.0
 11
3692.1504174846718342
 21
172.4037910613149904
 31
0.0
  0
LINE
  5
17E74
  8
0
 10
3692.1504174846718342
 20
172.4037910613149904
 30
0.0
 11
3692.140574964958887
 21
172.4121086032498908
 31
0.0
  0
LINE
  5
17E75
  8
0
 10
3692.140574964958887
 20
172.4121086032498908
 30
0.0
 11
3692.1504174846440947
 21
172.4273323117253085
 31
0.0
  0
LINE
  5
17E76
  8
0
 10
3692.1504174846440947
 20
172.4273323117253085
 30
0.0
 11
3692.1555473838297985
 21
172.429077041058207
 31
0.0
  0
LINE
  5
17E77
  8
0
 10
3692.1489743981610445
 20
172.4307734645252879
 30
0.0
 11
3692.1422636743091061
 21
172.4201837489887055
 31
0.0
  0
LINE
  5
17E78
  8
0
 10
3692.1422636743091061
 20
172.4201837489887055
 30
0.0
 11
3692.1225786349209557
 21
172.4143283896898993
 31
0.0
  0
LINE
  5
17E79
  8
0
 10
3692.1225786349209557
 20
172.4143283896898993
 30
0.0
 11
3692.1127361153230595
 21
172.4239847386155873
 31
0.0
  0
LINE
  5
17E7A
  8
0
 10
3692.1127361153230595
 20
172.4239847386155873
 30
0.0
 11
3692.1210506330558019
 21
172.4370624840632047
 31
0.0
  0
LINE
  5
17E7B
  8
0
 10
3692.1177409567849281
 20
172.4377109055629091
 30
0.0
 11
3692.1144248246719144
 21
172.4325372747150027
 31
0.0
  0
LINE
  5
17E7C
  8
0
 10
3692.1144248246719144
 20
172.4325372747150027
 30
0.0
 11
3692.0947397854629344
 21
172.4276250810034128
 31
0.0
  0
LINE
  5
17E7D
  8
0
 10
3692.0947397854629344
 20
172.4276250810034128
 30
0.0
 11
3692.0848972657149716
 21
172.4386585430220862
 31
0.0
  0
LINE
  5
17E7E
  8
0
 10
3692.0848972657149716
 20
172.4386585430220862
 30
0.0
 11
3692.0875205922420719
 21
172.4427010381959064
 31
0.0
  0
LINE
  5
17E7F
  8
0
 10
3692.0372745258300711
 20
172.4481929417690935
 30
0.0
 11
3692.0309082757707984
 21
172.4383403628245901
 31
0.0
  0
LINE
  5
17E80
  8
0
 10
3692.0309082757707984
 20
172.4383403628245901
 30
0.0
 11
3692.0112232363298972
 21
172.4363843814122959
 31
0.0
  0
LINE
  5
17E81
  8
0
 10
3692.0112232363298972
 20
172.4363843814122959
 30
0.0
 11
3692.0013807166719744
 21
172.4497491784150043
 31
0.0
  0
LINE
  5
17E82
  8
0
 10
3692.0013807166719744
 20
172.4497491784150043
 30
0.0
 11
3692.001765475205957
 21
172.4503315584514951
 31
0.0
  0
LINE
  5
17E83
  8
0
 10
3692.2240915138459059
 20
172.3657119725314999
 30
0.0
 11
3692.2339340336861824
 21
172.3630791949503873
 31
0.0
  0
LINE
  5
17E84
  8
0
 10
3692.2339340336861824
 20
172.3630791949503873
 30
0.0
 11
3692.2536190729219925
 21
172.3729963344559053
 31
0.0
  0
LINE
  5
17E85
  8
0
 10
3692.2536190729219925
 20
172.3729963344559053
 30
0.0
 11
3692.2601953672501622
 21
172.3812973667716051
 31
0.0
  0
LINE
  5
17E86
  8
0
 10
3692.2524351685210604
 20
172.3875142084665981
 30
0.0
 11
3692.2339340334378903
 21
172.3781531907316946
 31
0.0
  0
LINE
  5
17E87
  8
0
 10
3692.2339340334378903
 20
172.3781531907316946
 30
0.0
 11
3692.2240915141569531
 21
172.3657119724485938
 31
0.0
  0
LINE
  5
17E88
  8
0
 10
3692.2356227429668252
 20
172.3841910041786889
 30
0.0
 11
3692.2257802233280017
 21
172.3881360592338012
 31
0.0
  0
LINE
  5
17E89
  8
0
 10
3692.2257802233280017
 20
172.3881360592338012
 30
0.0
 11
3692.2060951838830078
 21
172.379310072175997
 31
0.0
  0
LINE
  5
17E8A
  8
0
 10
3692.2060951838830078
 20
172.379310072175997
 30
0.0
 11
3692.1962526642491866
 21
172.3666274160933938
 31
0.0
  0
LINE
  5
17E8B
  8
0
 10
3692.1962526642491866
 20
172.3666274160933938
 30
0.0
 11
3692.2091648375439945
 21
172.3716070138150087
 31
0.0
  0
LINE
  5
17E8C
  8
0
 10
3692.2091648375439945
 20
172.3716070138150087
 30
0.0
 11
3692.2140736624719466
 21
172.3660634280149964
 31
0.0
  0
LINE
  5
17E8D
  8
0
 10
3692.2140736624719466
 20
172.3660634280149964
 30
0.0
 11
3692.2257802233189068
 21
172.3713597954173053
 31
0.0
  0
LINE
  5
17E8E
  8
0
 10
3692.2257802233189068
 20
172.3713597954173053
 30
0.0
 11
3692.2356227429668252
 21
172.3841910041786889
 31
0.0
  0
LINE
  5
17E8F
  8
0
 10
3692.1799450436819825
 20
172.3603127043060113
 30
0.0
 11
3692.1701025239690352
 21
172.3652900304975901
 31
0.0
  0
LINE
  5
17E90
  8
0
 10
3692.1701025239690352
 20
172.3652900304975901
 30
0.0
 11
3692.1504174846409114
 21
172.3587148049109032
 31
0.0
  0
LINE
  5
17E91
  8
0
 10
3692.1504174846409114
 20
172.3587148049109032
 30
0.0
 11
3692.1405749648770325
 21
172.347223327281597
 31
0.0
  0
LINE
  5
17E92
  8
0
 10
3692.1405749648770325
 20
172.347223327281597
 30
0.0
 11
3692.1799450436819825
 21
172.3603127043060113
 31
0.0
  0
LINE
  5
17E93
  8
0
 10
3692.1242673443721287
 20
172.3426540213150133
 30
0.0
 11
3692.1144248246728239
 21
172.3485744700415125
 31
0.0
  0
LINE
  5
17E94
  8
0
 10
3692.1144248246728239
 20
172.3485744700415125
 30
0.0
 11
3692.0947397853428811
 21
172.3440168370896117
 31
0.0
  0
LINE
  5
17E95
  8
0
 10
3692.0947397853428811
 20
172.3440168370896117
 30
0.0
 11
3692.0848972656208389
 21
172.3335789026781129
 31
0.0
  0
LINE
  5
17E96
  8
0
 10
3692.0848972656208389
 20
172.3335789026781129
 30
0.0
 11
3692.124267344358941
 21
172.3426540212770135
 31
0.0
  0
LINE
  5
17E97
  8
0
 10
3692.0685896451150256
 20
172.3306052691903858
 30
0.0
 11
3692.0587471253711556
 21
172.3374195104559021
 31
0.0
  0
LINE
  5
17E98
  8
0
 10
3692.0587471253711556
 20
172.3374195104559021
 30
0.0
 11
3692.0390620860589479
 21
172.3347365688269122
 31
0.0
  0
LINE
  5
17E99
  8
0
 10
3692.0390620860589479
 20
172.3347365688269122
 30
0.0
 11
3692.0292195663710118
 21
172.3252622319149907
 31
0.0
  0
LINE
  5
17E9A
  8
0
 10
3692.0292195663710118
 20
172.3252622319149907
 30
0.0
 11
3692.0685896451150256
 21
172.3306052691903858
 31
0.0
  0
LINE
  5
17E9B
  8
0
 10
3691.9735418670470608
 20
172.3220312700931061
 30
0.0
 11
3691.983384386733178
 21
172.3305979671438024
 31
0.0
  0
LINE
  5
17E9C
  8
0
 10
3691.983384386733178
 20
172.3305979671438024
 30
0.0
 11
3692.0030694260731252
 21
172.3314840326588921
 31
0.0
  0
LINE
  5
17E9D
  8
0
 10
3692.0030694260731252
 20
172.3314840326588921
 30
0.0
 11
3692.0129119457719753
 21
172.3237959796149994
 31
0.0
  0
LINE
  5
17E9E
  8
0
 10
3692.0129119457719753
 20
172.3237959796149994
 30
0.0
 11
3691.9735418670711624
 21
172.3220312701149908
 31
0.0
  0
LINE
  5
17E9F
  8
0
 10
3692.2634615926108381
 20
172.3637110984213052
 30
0.0
 11
3692.2536190729711052
 21
172.3645175756149968
 31
0.0
  0
LINE
  5
17EA0
  8
0
 10
3692.2536190729711052
 20
172.3645175756149968
 30
0.0
 11
3692.2339340333601285
 21
172.3546224628641141
 31
0.0
  0
LINE
  5
17EA1
  8
0
 10
3692.2339340333601285
 20
172.3546224628641141
 30
0.0
 11
3692.2240915138409036
 21
172.3439178329500123
 31
0.0
  0
LINE
  5
17EA2
  8
0
 10
3692.2240915138409036
 20
172.3439178329500123
 30
0.0
 11
3692.2339340335602174
 21
172.3429611191596109
 31
0.0
  0
LINE
  5
17EA3
  8
0
 10
3692.2339340335602174
 20
172.3429611191596109
 30
0.0
 11
3692.2536190727760186
 21
172.3528562316373893
 31
0.0
  0
LINE
  5
17EA4
  8
0
 10
3692.2536190727760186
 20
172.3528562316373893
 30
0.0
 11
3692.2634615926690458
 21
172.3637110984186904
 31
0.0
  0
LINE
  5
17EA5
  8
0
 10
3692.2634615926558581
 20
172.347533791394909
 30
0.0
 11
3692.2536190729101691
 21
172.3465718889403888
 31
0.0
  0
LINE
  5
17EA6
  8
0
 10
3692.2536190729101691
 20
172.3465718889403888
 30
0.0
 11
3692.2339340336679925
 21
172.3366547493417897
 31
0.0
  0
LINE
  5
17EA7
  8
0
 10
3692.2339340336679925
 20
172.3366547493417897
 30
0.0
 11
3692.2240915139532262
 21
172.3276261830554006
 31
0.0
  0
LINE
  5
17EA8
  8
0
 10
3692.2240915139532262
 20
172.3276261830554006
 30
0.0
 11
3692.2339340335711313
 21
172.3284060576150125
 31
0.0
  0
LINE
  5
17EA9
  8
0
 10
3692.2339340335711313
 20
172.3284060576150125
 30
0.0
 11
3692.2536190732321302
 21
172.3383937727826094
 31
0.0
  0
LINE
  5
17EAA
  8
0
 10
3692.2536190732321302
 20
172.3383937727826094
 30
0.0
 11
3692.2634615926558581
 21
172.347533791394909
 31
0.0
  0
LINE
  5
17EAB
  8
0
 10
3692.2356227428667808
 20
172.327062319987192
 30
0.0
 11
3692.22578022332209
 21
172.3258924551188045
 31
0.0
  0
LINE
  5
17EAC
  8
0
 10
3692.22578022332209
 20
172.3258924551188045
 30
0.0
 11
3692.2140736624719466
 21
172.3205960877149892
 31
0.0
  0
LINE
  5
17EAD
  8
0
 10
3692.2140736624719466
 20
172.3205960877149892
 30
0.0
 11
3692.2091648375708246
 21
172.3150525019150052
 31
0.0
  0
LINE
  5
17EAE
  8
0
 10
3692.2091648375708246
 20
172.3150525019150052
 30
0.0
 11
3692.1964949734219772
 21
172.3096792360649943
 31
0.0
  0
LINE
  5
17EAF
  8
0
 10
3692.1964949734219772
 20
172.3096792360649943
 30
0.0
 11
3692.2060951839707741
 21
172.3105200443150125
 31
0.0
  0
LINE
  5
17EB0
  8
0
 10
3692.2060951839707741
 20
172.3105200443150125
 30
0.0
 11
3692.2257802231602
 21
172.319346031245999
 31
0.0
  0
LINE
  5
17EB1
  8
0
 10
3692.2257802231602
 20
172.319346031245999
 30
0.0
 11
3692.2356227430068429
 21
172.3270623200095031
 31
0.0
  0
LINE
  5
17EB2
  8
0
 10
3692.235622742950909
 20
172.3193905537866044
 30
0.0
 11
3692.225780223278889
 21
172.3163234289708043
 31
0.0
  0
LINE
  5
17EB3
  8
0
 10
3692.225780223278889
 20
172.3163234289708043
 30
0.0
 11
3692.2060951841208407
 21
172.3074194904179137
 31
0.0
  0
LINE
  5
17EB4
  8
0
 10
3692.2060951841208407
 20
172.3074194904179137
 30
0.0
 11
3692.1962526642778357
 21
172.3014223025716092
 31
0.0
  0
LINE
  5
17EB5
  8
0
 10
3692.1962526642778357
 20
172.3014223025716092
 30
0.0
 11
3692.2060951839430345
 21
172.3043229965956868
 31
0.0
  0
LINE
  5
17EB6
  8
0
 10
3692.2060951839430345
 20
172.3043229965956868
 30
0.0
 11
3692.2257802224080478
 21
172.3133871373808859
 31
0.0
  0
LINE
  5
17EB7
  8
0
 10
3692.2257802224080478
 20
172.3133871373808859
 30
0.0
 11
3692.2356227430268518
 21
172.3193905538362003
 31
0.0
  0
LINE
  5
17EB8
  8
0
 10
3692.2077838933041676
 20
172.3095884292112032
 30
0.0
 11
3692.1979413736721654
 21
172.3081767383150122
 31
0.0
  0
LINE
  5
17EB9
  8
0
 10
3692.1979413736721654
 20
172.3081767383150122
 30
0.0
 11
3692.1782563342380854
 21
172.3005285749692064
 31
0.0
  0
LINE
  5
17EBA
  8
0
 10
3692.1782563342380854
 20
172.3005285749692064
 30
0.0
 11
3692.1684138144928511
 21
172.294189668105389
 31
0.0
  0
LINE
  5
17EBB
  8
0
 10
3692.1684138144928511
 20
172.294189668105389
 30
0.0
 11
3692.177697960414207
 21
172.295389705589912
 31
0.0
  0
LINE
  5
17EBC
  8
0
 10
3692.177697960414207
 20
172.295389705589912
 30
0.0
 11
3692.1979413736721654
 21
172.3032342526149989
 31
0.0
  0
LINE
  5
17EBD
  8
0
 10
3692.1979413736721654
 20
172.3032342526149989
 30
0.0
 11
3692.2077838929881182
 21
172.309588429165899
 31
0.0
  0
LINE
  5
17EBE
  8
0
 10
3692.1799450437251835
 20
172.3031840201736031
 30
0.0
 11
3692.1701025239708542
 21
172.2997984373284908
 31
0.0
  0
LINE
  5
17EBF
  8
0
 10
3692.1701025239708542
 20
172.2997984373284908
 30
0.0
 11
3692.1504174846718342
 21
172.2932584323635865
 31
0.0
  0
LINE
  5
17EC0
  8
0
 10
3692.1504174846718342
 20
172.2932584323635865
 30
0.0
 11
3692.1405749648952224
 21
172.2900946431932141
 31
0.0
  0
LINE
  5
17EC1
  8
0
 10
3692.1405749648952224
 20
172.2900946431932141
 30
0.0
 11
3692.150417484663194
 21
172.2899247769736917
 31
0.0
  0
LINE
  5
17EC2
  8
0
 10
3692.150417484663194
 20
172.2899247769736917
 30
0.0
 11
3692.1701025239708542
 21
172.2965000026150051
 31
0.0
  0
LINE
  5
17EC3
  8
0
 10
3692.1701025239708542
 20
172.2965000026150051
 30
0.0
 11
3692.1799450437079031
 21
172.303184020237012
 31
0.0
  0
LINE
  5
17EC4
  8
0
 10
3692.2077838933359999
 20
172.3045664399251109
 30
0.0
 11
3692.1979413736721654
 21
172.299940456414987
 31
0.0
  0
LINE
  5
17EC5
  8
0
 10
3692.1979413736721654
 20
172.299940456414987
 30
0.0
 11
3692.1782563342721915
 21
172.2922438690634976
 31
0.0
  0
LINE
  5
17EC6
  8
0
 10
3692.1782563342721915
 20
172.2922438690634976
 30
0.0
 11
3692.1684138140208233
 21
172.2887329951018955
 31
0.0
  0
LINE
  5
17EC7
  8
0
 10
3692.1684138140208233
 20
172.2887329951018955
 30
0.0
 11
3692.1782563337292231
 21
172.2934001868368057
 31
0.0
  0
LINE
  5
17EC8
  8
0
 10
3692.1782563337292231
 20
172.2934001868368057
 30
0.0
 11
3692.1979413736539755
 21
172.3012341915998036
 31
0.0
  0
LINE
  5
17EC9
  8
0
 10
3692.1979413736539755
 20
172.3012341915998036
 30
0.0
 11
3692.2077838942559538
 21
172.3045664402785064
 31
0.0
  0
LINE
  5
17ECA
  8
0
 10
3691.9735418670429681
 20
172.2559184574259064
 30
0.0
 11
3691.9833843866981624
 21
172.2583229729968934
 31
0.0
  0
LINE
  5
17ECB
  8
0
 10
3691.9833843866981624
 20
172.2583229729968934
 30
0.0
 11
3692.0030694260581186
 21
172.259215411068908
 31
0.0
  0
LINE
  5
17ECC
  8
0
 10
3692.0030694260581186
 20
172.259215411068908
 30
0.0
 11
3692.0129119458110836
 21
172.257716193773291
 31
0.0
  0
LINE
  5
17ECD
  8
0
 10
3692.0129119458110836
 20
172.257716193773291
 30
0.0
 11
3692.0030694260972268
 21
172.2553451943080915
 31
0.0
  0
LINE
  5
17ECE
  8
0
 10
3692.0030694260972268
 20
172.2553451943080915
 30
0.0
 11
3691.9833843874471313
 21
172.2544397570268018
 31
0.0
  0
LINE
  5
17ECF
  8
0
 10
3691.9833843874471313
 20
172.2544397570268018
 30
0.0
 11
3691.9735418670111358
 21
172.2559184574051017
 31
0.0
  0
LINE
  5
17ED0
  8
0
 10
3691.9735418670529725
 20
172.264902586107695
 30
0.0
 11
3691.9833843866708776
 21
172.2652866974150072
 31
0.0
  0
LINE
  5
17ED1
  8
0
 10
3691.9833843866708776
 20
172.2652866974150072
 30
0.0
 11
3692.0030694260722157
 21
172.2661685447149864
 31
0.0
  0
LINE
  5
17ED2
  8
0
 10
3692.0030694260722157
 20
172.2661685447149864
 30
0.0
 11
3692.0129119457719753
 21
172.266667295514992
 31
0.0
  0
LINE
  5
17ED3
  8
0
 10
3692.0129119457719753
 20
172.266667295514992
 30
0.0
 11
3692.0030694259698976
 21
172.2626940046922073
 31
0.0
  0
LINE
  5
17ED4
  8
0
 10
3692.0030694259698976
 20
172.2626940046922073
 30
0.0
 11
3691.9833843866708776
 21
172.2618079393149912
 31
0.0
  0
LINE
  5
17ED5
  8
0
 10
3691.9833843866708776
 20
172.2618079393149912
 30
0.0
 11
3691.9735418670529725
 21
172.264902586107695
 31
0.0
  0
LINE
  5
17ED6
  8
0
 10
3692.0013807167019877
 20
172.2607556622008929
 30
0.0
 11
3692.0112232363708245
 21
172.2643985659150019
 31
0.0
  0
LINE
  5
17ED7
  8
0
 10
3692.0112232363708245
 20
172.2643985659150019
 30
0.0
 11
3692.0309082757707984
 21
172.2661736064540889
 31
0.0
  0
LINE
  5
17ED8
  8
0
 10
3692.0309082757707984
 20
172.2661736064540889
 30
0.0
 11
3692.0407507952240849
 21
172.2643259470632131
 31
0.0
  0
LINE
  5
17ED9
  8
0
 10
3692.0407507952240849
 20
172.2643259470632131
 30
0.0
 11
3692.0309082757171382
 21
172.2607064513092894
 31
0.0
  0
LINE
  5
17EDA
  8
0
 10
3692.0309082757171382
 20
172.2607064513092894
 30
0.0
 11
3692.0112232364781448
 21
172.258911047323096
 31
0.0
  0
LINE
  5
17EDB
  8
0
 10
3692.0112232364781448
 20
172.258911047323096
 30
0.0
 11
3692.0013807165951221
 21
172.2607556622245113
 31
0.0
  0
LINE
  5
17EDC
  8
0
 10
3692.0407507954569155
 20
172.2580996113603078
 30
0.0
 11
3692.0309082757457873
 21
172.2582769902122948
 31
0.0
  0
LINE
  5
17EDD
  8
0
 10
3692.0309082757457873
 20
172.2582769902122948
 30
0.0
 11
3692.0112232363708245
 21
172.2564649676149884
 31
0.0
  0
LINE
  5
17EDE
  8
0
 10
3692.0112232363708245
 20
172.2564649676149884
 30
0.0
 11
3692.0013807164200443
 21
172.2544431773646068
 31
0.0
  0
LINE
  5
17EDF
  8
0
 10
3692.0013807164200443
 20
172.2544431773646068
 30
0.0
 11
3692.0112232363708245
 21
172.2542872791109971
 31
0.0
  0
LINE
  5
17EE0
  8
0
 10
3692.0112232363708245
 20
172.2542872791109971
 30
0.0
 11
3692.0309082769322231
 21
172.2561321159082013
 31
0.0
  0
LINE
  5
17EE1
  8
0
 10
3692.0309082769322231
 20
172.2561321159082013
 30
0.0
 11
3692.0407507956620066
 21
172.2580996113638889
 31
0.0
  0
LINE
  5
17EE2
  8
0
 10
3692.0292195663241728
 20
172.2592100541444893
 30
0.0
 11
3692.0390620859711817
 21
172.2624915203280125
 31
0.0
  0
LINE
  5
17EE3
  8
0
 10
3692.0390620859711817
 20
172.2624915203280125
 30
0.0
 11
3692.058747125418904
 21
172.2651941232525985
 31
0.0
  0
LINE
  5
17EE4
  8
0
 10
3692.058747125418904
 20
172.2651941232525985
 30
0.0
 11
3692.0685896451009285
 21
172.2646549993382052
 31
0.0
  0
LINE
  5
17EE5
  8
0
 10
3692.0685896451009285
 20
172.2646549993382052
 30
0.0
 11
3692.0587471259059384
 21
172.2614121334796948
 31
0.0
  0
LINE
  5
17EE6
  8
0
 10
3692.0587471259059384
 20
172.2614121334796948
 30
0.0
 11
3692.0390620860021045
 21
172.2586694006828907
 31
0.0
  0
LINE
  5
17EE7
  8
0
 10
3692.0390620860021045
 20
172.2586694006828907
 30
0.0
 11
3692.0292195663710118
 21
172.2592100541419029
 31
0.0
  0
LINE
  5
17EE8
  8
0
 10
3692.0292195663009807
 20
172.2681335478723952
 30
0.0
 11
3692.039062086346803
 21
172.2659465408499102
 31
0.0
  0
LINE
  5
17EE9
  8
0
 10
3692.039062086346803
 20
172.2659465408499102
 30
0.0
 11
3692.0587471251728857
 21
172.2686294825109883
 31
0.0
  0
LINE
  5
17EEA
  8
0
 10
3692.0587471251728857
 20
172.2686294825109883
 30
0.0
 11
3692.0685896450709151
 21
172.2734765851149916
 31
0.0
  0
LINE
  5
17EEB
  8
0
 10
3692.0685896450709151
 20
172.2734765851149916
 30
0.0
 11
3692.0587471253711556
 21
172.2720728692831074
 31
0.0
  0
LINE
  5
17EEC
  8
0
 10
3692.0587471253711556
 20
172.2720728692831074
 30
0.0
 11
3692.0390620859711817
 21
172.2694052549150001
 31
0.0
  0
LINE
  5
17EED
  8
0
 10
3692.0390620859711817
 20
172.2694052549150001
 30
0.0
 11
3692.029219566285974
 21
172.2681335478756068
 31
0.0
  0
LINE
  5
17EEE
  8
0
 10
3692.0570584159449936
 20
172.2665561683215003
 30
0.0
 11
3692.0669009356511197
 21
172.2710718808357058
 31
0.0
  0
LINE
  5
17EEF
  8
0
 10
3692.0669009356511197
 20
172.2710718808357058
 30
0.0
 11
3692.0865859749987976
 21
172.274672051655898
 31
0.0
  0
LINE
  5
17EF0
  8
0
 10
3692.0865859749987976
 20
172.274672051655898
 30
0.0
 11
3692.0964284945971485
 21
172.2737987570262987
 31
0.0
  0
LINE
  5
17EF1
  8
0
 10
3692.0964284945971485
 20
172.2737987570262987
 30
0.0
 11
3692.0865859750961135
 21
172.2693042937310963
 31
0.0
  0
LINE
  5
17EF2
  8
0
 10
3692.0865859750961135
 20
172.2693042937310963
 30
0.0
 11
3692.0669009356879542
 21
172.2656616265408047
 31
0.0
  0
LINE
  5
17EF3
  8
0
 10
3692.0669009356879542
 20
172.2656616265408047
 30
0.0
 11
3692.0570584160668659
 21
172.2665561683735973
 31
0.0
  0
LINE
  5
17EF4
  8
0
 10
3692.084897265644031
 20
172.2764502185405036
 30
0.0
 11
3692.0947397853719849
 21
172.2786369332484071
 31
0.0
  0
LINE
  5
17EF5
  8
0
 10
3692.0947397853719849
 20
172.2786369332484071
 30
0.0
 11
3692.1144248246719144
 21
172.2831715653705089
 31
0.0
  0
LINE
  5
17EF6
  8
0
 10
3692.1144248246719144
 20
172.2831715653705089
 30
0.0
 11
3692.1242673444171487
 21
172.2855253371855895
 31
0.0
  0
LINE
  5
17EF7
  8
0
 10
3692.1242673444171487
 20
172.2855253371855895
 30
0.0
 11
3692.1144248247169344
 21
172.2797844421600075
 31
0.0
  0
LINE
  5
17EF8
  8
0
 10
3692.1144248247169344
 20
172.2797844421600075
 30
0.0
 11
3692.0947397853719849
 21
172.2752268092150132
 31
0.0
  0
LINE
  5
17EF9
  8
0
 10
3692.0947397853719849
 20
172.2752268092150132
 30
0.0
 11
3692.0848972657499871
 21
172.2764502185640083
 31
0.0
  0
LINE
  5
17EFA
  8
0
 10
3692.1242673445422042
 20
172.2769413432085059
 30
0.0
 11
3692.1144248246719144
 21
172.2764329928149891
 31
0.0
  0
LINE
  5
17EFB
  8
0
 10
3692.1144248246719144
 20
172.2764329928149891
 30
0.0
 11
3692.0947397852628455
 21
172.2718406472739048
 31
0.0
  0
LINE
  5
17EFC
  8
0
 10
3692.0947397852628455
 20
172.2718406472739048
 30
0.0
 11
3692.084897265642212
 21
172.2676862515475875
 31
0.0
  0
LINE
  5
17EFD
  8
0
 10
3692.084897265642212
 20
172.2676862515475875
 30
0.0
 11
3692.0947397852992253
 21
172.2681591327263106
 31
0.0
  0
LINE
  5
17EFE
  8
0
 10
3692.0947397852992253
 20
172.2681591327263106
 30
0.0
 11
3692.1149707142540137
 21
172.2730333706782915
 31
0.0
  0
LINE
  5
17EFF
  8
0
 10
3692.1149707142540137
 20
172.2730333706782915
 30
0.0
 11
3692.1242673445422042
 21
172.2769413432085059
 31
0.0
  0
LINE
  5
17F00
  8
0
 10
3692.1127361153021411
 20
172.2775878310754933
 30
0.0
 11
3692.1225786351142233
 21
172.2829926060165064
 31
0.0
  0
LINE
  5
17F01
  8
0
 10
3692.1225786351142233
 20
172.2829926060165064
 30
0.0
 11
3692.1422636743282055
 21
172.2885254823094954
 31
0.0
  0
LINE
  5
17F02
  8
0
 10
3692.1422636743282055
 20
172.2885254823094954
 30
0.0
 11
3692.1521061940088657
 21
172.2887220442281091
 31
0.0
  0
LINE
  5
17F03
  8
0
 10
3692.1521061940088657
 20
172.2887220442281091
 30
0.0
 11
3692.1422636743368457
 21
172.2833268193352012
 31
0.0
  0
LINE
  5
17F04
  8
0
 10
3692.1422636743368457
 20
172.2833268193352012
 30
0.0
 11
3692.1225786349327791
 21
172.2777253240201958
 31
0.0
  0
LINE
  5
17F05
  8
0
 10
3692.1225786349327791
 20
172.2777253240201958
 30
0.0
 11
3692.1127361152762205
 21
172.2775878310760049
 31
0.0
  0
LINE
  5
17F06
  8
0
 10
3692.1521061937819468
 20
172.2831175277513864
 30
0.0
 11
3692.1422636743268413
 21
172.2811168004097908
 31
0.0
  0
LINE
  5
17F07
  8
0
 10
3692.1422636743268413
 20
172.2811168004097908
 30
0.0
 11
3692.1225786349718874
 21
172.275459163451103
 31
0.0
  0
LINE
  5
17F08
  8
0
 10
3692.1225786349718874
 20
172.275459163451103
 30
0.0
 11
3692.1127361152748563
 21
172.2716921043395075
 31
0.0
  0
LINE
  5
17F09
  8
0
 10
3692.1127361152748563
 20
172.2716921043395075
 30
0.0
 11
3692.1225786349718874
 21
172.274030298343007
 31
0.0
  0
LINE
  5
17F0A
  8
0
 10
3692.1225786349718874
 20
172.274030298343007
 30
0.0
 11
3692.1422636743718613
 21
172.2798744037243921
 31
0.0
  0
LINE
  5
17F0B
  8
0
 10
3692.1422636743718613
 20
172.2798744037243921
 30
0.0
 11
3692.1521061940588879
 21
172.2831175278654996
 31
0.0
  0
LINE
  5
17F0C
  8
0
 10
3692.140574964957068
 20
172.2816036965679984
 30
0.0
 11
3692.1504174846331807
 21
172.2866527753880064
 31
0.0
  0
LINE
  5
17F0D
  8
0
 10
3692.1504174846331807
 20
172.2866527753880064
 30
0.0
 11
3692.1701025240299714
 21
172.293281219436011
 31
0.0
  0
LINE
  5
17F0E
  8
0
 10
3692.1701025240299714
 20
172.293281219436011
 30
0.0
 11
3692.1799450436819825
 21
172.2949691258216092
 31
0.0
  0
LINE
  5
17F0F
  8
0
 10
3692.1799450436819825
 20
172.2949691258216092
 30
0.0
 11
3692.1701025238680813
 21
172.2899421878504995
 31
0.0
  0
LINE
  5
17F10
  8
0
 10
3692.1701025238680813
 20
172.2899421878504995
 30
0.0
 11
3692.1504174846240858
 21
172.2832047403084914
 31
0.0
  0
LINE
  5
17F11
  8
0
 10
3692.1504174846240858
 20
172.2832047403084914
 30
0.0
 11
3692.140574964957068
 21
172.2816036965679984
 31
0.0
  0
LINE
  5
17F12
  8
0
 10
3692.1962526642851117
 20
172.3499676768363997
 30
0.0
 11
3692.2060951839039262
 21
172.3504839835264875
 31
0.0
  0
LINE
  5
17F13
  8
0
 10
3692.2060951839039262
 20
172.3504839835264875
 30
0.0
 11
3692.2237624743897868
 21
172.3401795404288066
 31
0.0
  0
LINE
  5
17F14
  8
0
 10
3692.2237624743897868
 20
172.3401795404288066
 30
0.0
 11
3692.2257802232711583
 21
172.3411067309149871
 31
0.0
  0
LINE
  5
17F15
  8
0
 10
3692.2257802232711583
 20
172.3411067309149871
 30
0.0
 11
3692.2356227430268518
 21
172.3405180478384011
 31
0.0
  0
LINE
  5
17F16
  8
0
 10
3692.2356227430268518
 20
172.3405180478384011
 30
0.0
 11
3692.2257802233298207
 21
172.3311313497150081
 31
0.0
  0
LINE
  5
17F17
  8
0
 10
3692.2257802233298207
 20
172.3311313497150081
 30
0.0
 11
3692.2221848966569269
 21
172.3294798729326942
 31
0.0
  0
LINE
  5
17F18
  8
0
 10
3692.2221848966569269
 20
172.3294798729326942
 30
0.0
 11
3692.2060951839707741
 21
172.3388226398149925
 31
0.0
  0
LINE
  5
17F19
  8
0
 10
3692.2060951839707741
 20
172.3388226398149925
 30
0.0
 11
3692.1962526642851117
 21
172.3499676768363997
 31
0.0
  0
LINE
  5
17F1A
  8
0
 10
3692.1902171512201676
 20
172.3493919400777941
 30
0.0
 11
3692.1979413736289644
 21
172.3453859762414027
 31
0.0
  0
LINE
  5
17F1B
  8
0
 10
3692.1979413736289644
 20
172.3453859762414027
 30
0.0
 11
3692.2051877819249057
 21
172.3371721509165013
 31
0.0
  0
LINE
  5
17F1C
  8
0
 10
3692.2051877819249057
 20
172.3371721509165013
 30
0.0
 11
3692.2216794810587999
 21
172.3276333545547061
 31
0.0
  0
LINE
  5
17F1D
  8
0
 10
3692.2216794810587999
 20
172.3276333545547061
 30
0.0
 11
3692.2221848966569269
 21
172.3294798729326942
 31
0.0
  0
ARC
  5
17F1E
  8
0
 10
3691.9697144695278439
 20
172.8817442174234031
 30
0.0
 40
0.6087078243529792
 50
288.6985123462230263
 51
294.4522185042881119
  0
ARC
  5
17F1F
  8
0
 10
3691.9665044536141068
 20
172.8912286117979136
 30
0.0
 40
0.6187207129880244
 50
277.0708317315293812
 51
288.6985123462230263
  0
ARC
  5
17F20
  8
0
 10
3691.9650667629289273
 20
172.9028191865824056
 30
0.0
 40
0.6304001127303711
 50
270.0290078969783849
 51
277.0708317315293812
  0
LINE
  5
17F21
  8
0
 10
3692.2051877818707908
 20
172.3258247899150035
 30
0.0
 11
3692.1710099260722018
 21
172.3258247899150035
 31
0.0
  0
LINE
  5
17F22
  8
0
 10
3692.1710099260722018
 20
172.3258247899150035
 30
0.0
 11
3692.1710099260722018
 21
172.3422903816048972
 31
0.0
  0
LINE
  5
17F23
  8
0
 10
3692.2051877818707908
 20
172.3258247899150035
 30
0.0
 11
3692.2051877818707908
 21
172.337172150977409
 31
0.0
  0
LINE
  5
17F24
  8
0
 10
3692.1979413736721654
 20
172.3258247899150035
 30
0.0
 11
3692.1979413736721654
 21
172.3453859762190916
 31
0.0
  0
LINE
  5
17F25
  8
0
 10
3692.1782563342721915
 20
172.3258247899150035
 30
0.0
 11
3692.1782563342721915
 21
172.3448837272862875
 31
0.0
  0
LINE
  5
17F26
  8
0
 10
3692.1495100825718509
 20
172.3351942183122958
 30
0.0
 11
3692.1495100825718509
 21
172.3258247899150035
 31
0.0
  0
LINE
  5
17F27
  8
0
 10
3692.1495100825718509
 20
172.3258247899150035
 30
0.0
 11
3692.1158770946540244
 21
172.3258247899150035
 31
0.0
  0
LINE
  5
17F28
  8
0
 10
3692.1422636743718613
 20
172.3258247899150035
 30
0.0
 11
3692.1422636743718613
 21
172.3330000187170015
 31
0.0
  0
LINE
  5
17F29
  8
0
 10
3692.1225786349718874
 20
172.3258247899150035
 30
0.0
 11
3692.1225786349718874
 21
172.3275296000464891
 31
0.0
  0
LINE
  5
17F2A
  8
0
 10
3691.983384386733178
 20
172.3305979671438024
 30
0.0
 11
3691.983384386733178
 21
172.322472447489389
 31
0.0
  0
LINE
  5
17F2B
  8
0
 10
3692.0030694260731252
 20
172.3314840326588921
 30
0.0
 11
3692.0030694260731252
 21
172.3233548022390096
 31
0.0
  0
LINE
  5
17F2C
  8
0
 10
3691.983384386688158
 20
172.3418761026267987
 30
0.0
 11
3691.9834122731708703
 21
172.3613164034728982
 31
0.0
  0
LINE
  5
17F2D
  8
0
 10
3692.0030694260808559
 20
172.3622210117322879
 30
0.0
 11
3692.0029916788280389
 21
172.3427637710649094
 31
0.0
  0
LINE
  5
17F2E
  8
0
 10
3692.0112232363708245
 20
172.3289088009244949
 30
0.0
 11
3692.0112232363549083
 21
172.3467439699732893
 31
0.0
  0
LINE
  5
17F2F
  8
0
 10
3692.0309082757707984
 20
172.3485393738631899
 30
0.0
 11
3692.0307259540882114
 21
172.3306644913704133
 31
0.0
  0
LINE
  5
17F30
  8
0
 10
3692.0390620860589479
 20
172.3347365688269122
 30
0.0
 11
3692.0390620860589479
 21
172.3265979912341095
 31
0.0
  0
LINE
  5
17F31
  8
0
 10
3692.0587471253711556
 20
172.3374195104559021
 30
0.0
 11
3692.0587471253711556
 21
172.3292695098637068
 31
0.0
  0
LINE
  5
17F32
  8
0
 10
3692.0390620860398485
 20
172.3460446501082117
 30
0.0
 11
3692.0390620859711817
 21
172.3655452180150007
 31
0.0
  0
LINE
  5
17F33
  8
0
 10
3692.0587471253988952
 20
172.3682879506507959
 30
0.0
 11
3692.0585066694598027
 21
172.3487103067465966
 31
0.0
  0
LINE
  5
17F34
  8
0
 10
3692.0309082757707984
 20
172.3608730146150094
 30
0.0
 11
3692.0309082757380565
 21
172.3820508277327974
 31
0.0
  0
LINE
  5
17F35
  8
0
 10
3692.0112232363439944
 20
172.3802059911224092
 30
0.0
 11
3692.0112232363489966
 21
172.3590609918836947
 31
0.0
  0
LINE
  5
17F36
  8
0
 10
3692.0030694261340614
 20
172.3984901624411918
 30
0.0
 11
3692.0030694260722157
 21
172.3755974635149926
 31
0.0
  0
LINE
  5
17F37
  8
0
 10
3691.9833843866708776
 20
172.3746817636541948
 30
0.0
 11
3691.9833843866708776
 21
172.3975545962445892
 31
0.0
  0
LINE
  5
17F38
  8
0
 10
3692.0112232363558178
 20
172.3947025032128124
 30
0.0
 11
3692.0112643655397733
 21
172.4194667274053074
 31
0.0
  0
LINE
  5
17F39
  8
0
 10
3692.0309082757221404
 20
172.4213823453773102
 30
0.0
 11
3692.0309082757221404
 21
172.3965727503475875
 31
0.0
  0
LINE
  5
17F3A
  8
0
 10
3692.0030694260722157
 20
172.4408705552368133
 30
0.0
 11
3692.0030694260722157
 21
172.4141513316149883
 31
0.0
  0
LINE
  5
17F3B
  8
0
 10
3691.9833843866708776
 20
172.4132005597149941
 30
0.0
 11
3691.9833843866708776
 21
172.4398908252863123
 31
0.0
  0
LINE
  5
17F3C
  8
0
 10
3692.0390620860239324
 20
172.417643407430802
 30
0.0
 11
3692.0390620859711817
 21
172.4444699701149943
 31
0.0
  0
LINE
  5
17F3D
  8
0
 10
3692.0587471253529657
 20
172.4205263615779984
 30
0.0
 11
3692.0587471253529657
 21
172.4461881703558959
 31
0.0
  0
LINE
  5
17F3E
  8
0
 10
3692.0865859750711024
 20
172.4304305178559105
 30
0.0
 11
3692.0865859750711024
 21
172.4055364946231919
 31
0.0
  0
LINE
  5
17F3F
  8
0
 10
3692.0669009356711285
 20
172.4266831761150058
 30
0.0
 11
3692.0669009356711285
 21
172.4017372708150049
 31
0.0
  0
LINE
  5
17F40
  8
0
 10
3692.0587471253561489
 20
172.4047617859548041
 30
0.0
 11
3692.0587471253711556
 21
172.3817340925558881
 31
0.0
  0
LINE
  5
17F41
  8
0
 10
3692.0390620860298441
 20
172.3789596537721991
 30
0.0
 11
3692.0390620859789124
 21
172.4019259105209869
 31
0.0
  0
LINE
  5
17F42
  8
0
 10
3692.0669009356051902
 20
172.3875521837651945
 30
0.0
 11
3692.0669009356051902
 21
172.3658746448629984
 31
0.0
  0
LINE
  5
17F43
  8
0
 10
3692.0865859750529125
 20
172.3695520247482875
 30
0.0
 11
3692.0865859750529125
 21
172.3908902380404982
 31
0.0
  0
LINE
  5
17F44
  8
0
 10
3692.0947397853719849
 20
172.3885605329139139
 30
0.0
 11
3692.0947397853719849
 21
172.4117423039683956
 31
0.0
  0
LINE
  5
17F45
  8
0
 10
3692.1144248247619544
 20
172.4165707507414993
 30
0.0
 11
3692.1144248246719144
 21
172.3932799645149885
 31
0.0
  0
LINE
  5
17F46
  8
0
 10
3692.1225786349459668
 20
172.3995559350011888
 30
0.0
 11
3692.1225786349718874
 21
172.3780551879150096
 31
0.0
  0
LINE
  5
17F47
  8
0
 10
3692.1422636743650401
 20
172.3837128247378985
 30
0.0
 11
3692.1422636743718613
 21
172.4053248044913005
 31
0.0
  0
LINE
  5
17F48
  8
0
 10
3692.1701025239708542
 20
172.3968180051149943
 30
0.0
 11
3692.1701025240449781
 21
172.3768343490440031
 31
0.0
  0
LINE
  5
17F49
  8
0
 10
3692.1504174847418653
 20
172.369672538718504
 30
0.0
 11
3692.1504174847418653
 21
172.3900805576193136
 31
0.0
  0
LINE
  5
17F4A
  8
0
 10
3692.1422636743718613
 20
172.3711597419442967
 30
0.0
 11
3692.1422636743550356
 21
172.3530357171921139
 31
0.0
  0
LINE
  5
17F4B
  8
0
 10
3692.1225786349468763
 20
172.3475028410016989
 30
0.0
 11
3692.1225786349468763
 21
172.3655582465385976
 31
0.0
  0
LINE
  5
17F4C
  8
0
 10
3692.1144248246760071
 20
172.3599861224612937
 30
0.0
 11
3692.1144248247110227
 21
172.3796982399053093
 31
0.0
  0
LINE
  5
17F4D
  8
0
 10
3692.0947397853719849
 20
172.3750349500149923
 30
0.0
 11
3692.0947397853719849
 21
172.355393776927599
 31
0.0
  0
LINE
  5
17F4E
  8
0
 10
3692.0865859750711024
 20
172.357137216305091
 30
0.0
 11
3692.0865859750620075
 21
172.3391822865573033
 31
0.0
  0
LINE
  5
17F4F
  8
0
 10
3692.0669009356638526
 20
172.3355821158577044
 30
0.0
 11
3692.0669009356711285
 21
172.3534945492149859
 31
0.0
  0
LINE
  5
17F50
  8
0
 10
3692.1782563342721915
 20
172.3650388099150064
 30
0.0
 11
3692.1782563342471803
 21
172.3836236344976101
 31
0.0
  0
LINE
  5
17F51
  8
0
 10
3692.1979413736721654
 20
172.3910671752149995
 30
0.0
 11
3692.197941373724916
 21
172.3726869733505112
 31
0.0
  0
LINE
  5
17F52
  8
0
 10
3692.2060951838830078
 20
172.379310072175997
 30
0.0
 11
3692.2060951838830078
 21
172.3704231975800099
 31
0.0
  0
LINE
  5
17F53
  8
0
 10
3692.2140736624719466
 20
172.3660634280149964
 30
0.0
 11
3692.2140736624719466
 21
172.3828873039595067
 31
0.0
  0
LINE
  5
17F54
  8
0
 10
3692.2257802233189068
 20
172.3713597954173053
 30
0.0
 11
3692.2257802233280017
 21
172.3881360592338012
 31
0.0
  0
LINE
  5
17F55
  8
0
 10
3692.2060951840030611
 20
172.3909726200276111
 30
0.0
 11
3692.2060951839707741
 21
172.4111988139150071
 31
0.0
  0
LINE
  5
17F56
  8
0
 10
3692.225780223287984
 20
172.3998765585710942
 30
0.0
 11
3692.225780223287984
 21
172.4039300115182982
 31
0.0
  0
LINE
  5
17F57
  8
0
 10
3692.1979413736230526
 20
172.4030065425147029
 30
0.0
 11
3692.1979413736230526
 21
172.4160827364484874
 31
0.0
  0
LINE
  5
17F58
  8
0
 10
3692.1782563342721915
 20
172.4178586580198953
 30
0.0
 11
3692.1782563343199399
 21
172.3958447321892891
 31
0.0
  0
LINE
  5
17F59
  8
0
 10
3692.1701025240349736
 20
172.4106149980538873
 30
0.0
 11
3692.1701025240349736
 21
172.4250208758539884
 31
0.0
  0
LINE
  5
17F5A
  8
0
 10
3692.1504174846718342
 20
172.4037910613149904
 30
0.0
 11
3692.1504174846440947
 21
172.4273323117253085
 31
0.0
  0
LINE
  5
17F5B
  8
0
 10
3692.1422636743091061
 20
172.4201837489887055
 30
0.0
 11
3692.1422636743091061
 21
172.432419724648696
 31
0.0
  0
LINE
  5
17F5C
  8
0
 10
3692.1225786349209557
 20
172.4143283896898993
 30
0.0
 11
3692.1225786349209557
 21
172.4367562565034859
 31
0.0
  0
LINE
  5
17F5D
  8
0
 10
3692.1144248246719144
 20
172.4325372747150027
 30
0.0
 11
3692.1144248246719144
 21
172.4383402406392065
 31
0.0
  0
LINE
  5
17F5E
  8
0
 10
3692.0947397854629344
 20
172.4276250810034128
 30
0.0
 11
3692.0947397854629344
 21
172.4416602514442047
 31
0.0
  0
LINE
  5
17F5F
  8
0
 10
3692.2339340336861824
 20
172.3630791949503873
 30
0.0
 11
3692.2339340334378903
 21
172.3781531907316946
 31
0.0
  0
LINE
  5
17F60
  8
0
 10
3692.2524351685210604
 20
172.3875142084665981
 30
0.0
 11
3692.2531913783268465
 21
172.372780865900495
 31
0.0
  0
LINE
  5
17F61
  8
0
 10
3692.2536190729711052
 20
172.3645175756149968
 30
0.0
 11
3692.2536190727760186
 21
172.3528562316373893
 31
0.0
  0
LINE
  5
17F62
  8
0
 10
3692.2339340335602174
 20
172.3429611191596109
 30
0.0
 11
3692.2339340333601285
 21
172.3546224628641141
 31
0.0
  0
LINE
  5
17F63
  8
0
 10
3692.2536190732321302
 20
172.3383937727826094
 30
0.0
 11
3692.2536190729101691
 21
172.3465718889403888
 31
0.0
  0
LINE
  5
17F64
  8
0
 10
3692.2339340336679925
 20
172.3366547493417897
 30
0.0
 11
3692.2345835431001433
 21
172.3284575216686108
 31
0.0
  0
LINE
  5
17F65
  8
0
 10
3692.2237624743897868
 20
172.3401795404288066
 30
0.0
 11
3692.2257802233298207
 21
172.3311313497150081
 31
0.0
  0
LINE
  5
17F66
  8
0
 10
3692.2060951839039262
 20
172.3504839835264875
 30
0.0
 11
3692.2060951839707741
 21
172.3388226398149925
 31
0.0
  0
LINE
  5
17F67
  8
0
 10
3692.22578022332209
 20
172.3258924551188045
 30
0.0
 11
3692.2257802231602
 21
172.319346031245999
 31
0.0
  0
LINE
  5
17F68
  8
0
 10
3692.2091648375708246
 20
172.3150525019150052
 30
0.0
 11
3692.2060951839707741
 21
172.3105200443150125
 31
0.0
  0
LINE
  5
17F69
  8
0
 10
3692.225780223278889
 20
172.3163234289708043
 30
0.0
 11
3692.225780223278889
 21
172.3133871373808859
 31
0.0
  0
LINE
  5
17F6A
  8
0
 10
3692.2060951839430345
 20
172.3043229965956868
 30
0.0
 11
3692.2060951841208407
 21
172.3074194904179137
 31
0.0
  0
LINE
  5
17F6B
  8
0
 10
3692.1979413736721654
 20
172.3081767383150122
 30
0.0
 11
3692.1979413736721654
 21
172.3032342526149989
 31
0.0
  0
LINE
  5
17F6C
  8
0
 10
3692.1979413736539755
 20
172.3012341915998036
 30
0.0
 11
3692.1979413736721654
 21
172.299940456414987
 31
0.0
  0
LINE
  5
17F6D
  8
0
 10
3692.1796615712910352
 20
172.2939594256189082
 30
0.0
 11
3692.1794846508041701
 21
172.2927241244136951
 31
0.0
  0
LINE
  5
17F6E
  8
0
 10
3692.177697960414207
 20
172.295389705589912
 30
0.0
 11
3692.1782563342380854
 21
172.3005285749692064
 31
0.0
  0
LINE
  5
17F6F
  8
0
 10
3692.1701025239708542
 20
172.2965000026150051
 30
0.0
 11
3692.1701025239708542
 21
172.2997984373284908
 31
0.0
  0
LINE
  5
17F70
  8
0
 10
3692.150417484663194
 20
172.2899247769736917
 30
0.0
 11
3692.1504174846718342
 21
172.2932584323635865
 31
0.0
  0
LINE
  5
17F71
  8
0
 10
3692.1701025240299714
 20
172.293281219436011
 30
0.0
 11
3692.1696691632951115
 21
172.2897938648482921
 31
0.0
  0
LINE
  5
17F72
  8
0
 10
3692.1504174846240858
 20
172.2832047403084914
 30
0.0
 11
3692.1504174846331807
 21
172.2866527753880064
 31
0.0
  0
LINE
  5
17F73
  8
0
 10
3692.1422636743368457
 20
172.2833268193352012
 30
0.0
 11
3692.1422636743282055
 21
172.2885254823094954
 31
0.0
  0
LINE
  5
17F74
  8
0
 10
3692.1422636743268413
 20
172.2811168004097908
 30
0.0
 11
3692.142038807883182
 21
172.2798076452369003
 31
0.0
  0
LINE
  5
17F75
  8
0
 10
3692.1225786349327791
 20
172.2777253240201958
 30
0.0
 11
3692.1225786351142233
 21
172.2829926060165064
 31
0.0
  0
LINE
  5
17F76
  8
0
 10
3692.1144248247169344
 20
172.2797844421600075
 30
0.0
 11
3692.1144248246719144
 21
172.2831715653705089
 31
0.0
  0
LINE
  5
17F77
  8
0
 10
3692.1149707142540137
 20
172.2730333706782915
 30
0.0
 11
3692.1147941440331124
 21
172.2764520675688118
 31
0.0
  0
LINE
  5
17F78
  8
0
 10
3692.1225786349718874
 20
172.274030298343007
 30
0.0
 11
3692.1225786349718874
 21
172.275459163451103
 31
0.0
  0
LINE
  5
17F79
  8
0
 10
3692.0947397852992253
 20
172.2681591327263106
 30
0.0
 11
3692.0947397852628455
 21
172.2718406472739048
 31
0.0
  0
LINE
  5
17F7A
  8
0
 10
3692.0947397853719849
 20
172.2752268092150132
 30
0.0
 11
3692.0947397853719849
 21
172.2786369332484071
 31
0.0
  0
LINE
  5
17F7B
  8
0
 10
3692.0865859749987976
 20
172.274672051655898
 30
0.0
 11
3692.0865859750961135
 21
172.2693042937310963
 31
0.0
  0
LINE
  5
17F7C
  8
0
 10
3692.0669009356879542
 20
172.2656616265408047
 30
0.0
 11
3692.0669009356511197
 21
172.2710718808357058
 31
0.0
  0
LINE
  5
17F7D
  8
0
 10
3692.0587471251728857
 20
172.2686294825109883
 30
0.0
 11
3692.0596545470311867
 21
172.2722022835174016
 31
0.0
  0
LINE
  5
17F7E
  8
0
 10
3692.039062086346803
 20
172.2659465408499102
 30
0.0
 11
3692.0390620859711817
 21
172.2694052549150001
 31
0.0
  0
LINE
  5
17F7F
  8
0
 10
3692.0587471259059384
 20
172.2614121334796948
 30
0.0
 11
3692.0589536646780289
 21
172.2651828100667899
 31
0.0
  0
LINE
  5
17F80
  8
0
 10
3692.0390620860021045
 20
172.2586694006828907
 30
0.0
 11
3692.0385470467349478
 21
172.2624208094435971
 31
0.0
  0
LINE
  5
17F81
  8
0
 10
3692.0309082757171382
 20
172.2607064513092894
 30
0.0
 11
3692.0318996465671262
 21
172.2659875041487965
 31
0.0
  0
LINE
  5
17F82
  8
0
 10
3692.0120778876707845
 20
172.2589889970869876
 30
0.0
 11
3692.0115871368361695
 21
172.2644313795692881
 31
0.0
  0
LINE
  5
17F83
  8
0
 10
3692.0309082769322231
 20
172.2561321159082013
 30
0.0
 11
3692.0309469186440765
 21
172.258276293801913
 31
0.0
  0
LINE
  5
17F84
  8
0
 10
3692.0112232363708245
 20
172.2564649676149884
 30
0.0
 11
3692.0111887520438358
 21
172.2542878253173058
 31
0.0
  0
LINE
  5
17F85
  8
0
 10
3692.0030694260972268
 20
172.2553451943080915
 30
0.0
 11
3692.0030802502028564
 21
172.2592159017908102
 31
0.0
  0
LINE
  5
17F86
  8
0
 10
3692.0030694259698976
 20
172.2626940046922073
 30
0.0
 11
3692.0030694259698976
 21
172.2661685447104958
 31
0.0
  0
LINE
  5
17F87
  8
0
 10
3691.9833843866708776
 20
172.2618079393149912
 30
0.0
 11
3691.9833843866708776
 21
172.2652866974150072
 31
0.0
  0
LINE
  5
17F88
  8
0
 10
3691.9833843874471313
 20
172.2544397570268018
 30
0.0
 11
3691.9833843874471313
 21
172.2583229729968934
 31
0.0
  0
LINE
  5
17F89
  8
0
 10
3692.0112232363708245
 20
172.4363843813555945
 30
0.0
 11
3692.0112232363708245
 21
172.4499057455994944
 31
0.0
  0
LINE
  5
17F8A
  8
0
 10
3692.0309082757707984
 20
172.4383403628247038
 30
0.0
 11
3692.0309082757707984
 21
172.4486946520453046
 31
0.0
  0
ARC
  5
17F8B
  8
0
 10
3692.2416929433661608
 20
172.3433352409676047
 30
0.0
 40
0.0386132576402845
 50
335.3634893922256879
 51
22.8574777385769501
  0
ARC
  5
17F8C
  8
0
 10
3692.2187452417520035
 20
172.3538592123634885
 30
0.0
 40
0.063859068843848
 50
307.8518719131066064
 51
335.3634893922256879
  0
ARC
  5
17F8D
  8
0
 10
3692.1291457121192252
 20
172.4691545450830858
 30
0.0
 40
0.209876497452108
 50
292.4609103071724121
 51
307.8518719131066064
  0
ARC
  5
17F8E
  8
0
 10
3692.0504238768221512
 20
172.6595732102767045
 30
0.0
 40
0.4159259949196633
 50
279.7969467507559784
 51
292.4609103071724121
  0
ARC
  5
17F8F
  8
0
 10
3691.9296253311181317
 20
173.3591444619997048
 30
0.0
 40
1.1258500928918269
 50
275.4841807673341805
 51
279.7969467507559784
  0
ARC
  5
17F90
  8
0
 10
3691.9660302981360473
 20
173.1313158780079959
 30
0.0
 40
0.895701910226457
 50
270.8871389672804071
 51
274.5588806161522939
  0
ARC
  5
17F91
  8
0
 10
3691.9653788243758754
 20
173.1588028524533058
 30
0.0
 40
0.9231957041989499
 50
269.9987445055560897
 51
270.9011537974402017
  0
ARC
  5
17F92
  8
0
 10
3711.020592033622961
 20
172.3294142573186036
 30
0.0
 40
18.4640739315784614
 50
177.5077761025798111
 51
177.6830872506581898
  0
ARC
  5
17F93
  8
0
 10
3579.6394551607918402
 20
177.6450703318940043
 30
0.0
 40
113.0245541907833058
 50
357.4679670445207762
 51
357.683087250658275
  0
ARC
  5
17F94
  8
0
 10
3691.3530201353578377
 20
172.7049732747395012
 30
0.0
 40
1.201814292939414
 50
350.0501520632830079
 51
357.4679670445207762
  0
ARC
  5
17F95
  8
0
 10
3692.0014000059732098
 20
172.5912315040976068
 30
0.0
 40
0.5435334660830752
 50
338.4472389704022817
 51
350.0501520632830079
  0
LINE
  5
17F96
  8
0
 10
3690.9808483681058533
 20
168.5938273490556014
 30
0.0
 11
3691.0804228074898674
 21
172.7652319340556062
 31
0.0
  0
ARC
  5
17F97
  8
0
 10
3691.1537351551542088
 20
172.7634865518774063
 30
0.0
 40
0.0733331212952492
 50
117.8432251706471021
 51
178.6361895604017889
  0
ARC
  5
17F98
  8
0
 10
3691.7088673602438575
 20
171.4578936561759122
 30
0.0
 40
1.4918000061494501
 50
109.1434246672624937
 51
113.2710628703788984
  0
ARC
  5
17F99
  8
0
 10
3691.0373580694008524
 20
173.356611452487499
 30
0.0
 40
0.5222621771912094
 50
290.4294255912898279
 51
298.9697613633239826
  0
ARC
  5
17F9A
  8
0
 10
3691.2323854690380358
 20
173.0078033272872062
 30
0.0
 40
0.1226488974309289
 50
298.1848359010515992
 51
314.7538729485639806
  0
LINE
  5
17F9B
  8
0
 10
3691.3187379863888964
 20
172.9207057108556
 30
0.0
 11
3691.357149666389887
 21
173.134614208955611
 31
0.0
  0
ARC
  5
17F9C
  8
0
 10
3691.4094850063820559
 20
173.1271770301831907
 30
0.0
 40
0.0528611335503707
 50
119.7397294044408937
 51
171.9120647491164107
  0
ARC
  5
17F9D
  8
0
 10
3691.4555166128961901
 20
173.0466049012624978
 30
0.0
 40
0.1456554046936956
 50
106.5928332532020022
 51
119.7397294044408937
  0
ARC
  5
17F9E
  8
0
 10
3691.7487033100278495
 20
171.6824814864843063
 30
0.0
 40
1.5405300212980171
 50
93.2945928932187343
 51
102.5514172960698005
  0
ARC
  5
17F9F
  8
0
 10
3692.0075512662438086
 20
169.242313331790001
 30
0.0
 40
3.9932903711641878
 50
91.7852024573181922
 51
94.9905480400233415
  0
ARC
  5
17FA0
  8
0
 10
3692.2008316276869664
 20
159.596273332561907
 30
0.0
 40
13.64109186717147
 50
90.9906631369940442
 51
91.3344586537934333
  0
ARC
  5
17FA1
  8
0
 10
3691.964838427369159
 20
171.0349510013334111
 30
0.0
 40
1.5659370499011691
 50
89.980967688783565
 51
95.544987880871048
  0
ARC
  5
17FA2
  8
0
 10
3691.9369660716920407
 20
171.3220534275226044
 30
0.0
 40
1.277484850508066
 50
95.544987880871048
 51
102.5806108021405976
  0
ARC
  5
17FA3
  8
0
 10
3691.8217403706821642
 20
171.8383642369788902
 30
0.0
 40
0.7484727389883296
 50
102.5806108021405976
 51
110.3567770296381951
  0
ARC
  5
17FA4
  8
0
 10
3691.7109163022419125
 20
172.1370506585585076
 30
0.0
 40
0.429889072455101
 50
110.3567770296381951
 51
123.9561108321052956
  0
ARC
  5
17FA5
  8
0
 10
3691.5475377882030443
 20
172.3796699486549073
 30
0.0
 40
0.1373883736926364
 50
123.9561108321052956
 51
149.3687098043718038
  0
ARC
  5
17FA6
  8
0
 10
3691.485900875130028
 20
172.4161673660661052
 30
0.0
 40
0.0657561844839263
 50
149.3687098043718038
 51
186.5037619270948142
  0
ARC
  5
17FA7
  8
0
 10
3691.5411649449260949
 20
172.4224675871352872
 30
0.0
 40
0.1213782142565333
 50
186.5037619270964058
 51
204.9978865075418923
  0
ARC
  5
17FA8
  8
0
 10
3691.600192121406053
 20
172.4394896465811087
 30
0.0
 40
0.1823177255362642
 50
202.0058399258954012
 51
227.5096451004255869
  0
ARC
  5
17FA9
  8
0
 10
3691.6540205828209764
 20
172.5016000014927045
 30
0.0
 40
0.2644863085814239
 50
227.9994117982674027
 51
250.5800892947524119
  0
ARC
  5
17FAA
  8
0
 10
3691.7464357629050937
 20
172.7816564698252932
 30
0.0
 40
0.5593683268367873
 50
251.1904004535450099
 51
267.7276309514219861
  0
ARC
  5
17FAB
  8
0
 10
3691.8404323056452085
 20
174.5563986891260981
 30
0.0
 40
2.3365606273813069
 50
267.150038040555728
 51
270.7098846644095147
  0
ARC
  5
17FAC
  8
0
 10
3691.9173698682038776
 20
94.3772062492878092
 30
0.0
 40
77.8428259423547502
 50
89.9646781621693776
 51
90.0353218378306366
  0
ARC
  5
17FAD
  8
0
 10
3691.9725455144048283
 20
171.5513621303944092
 30
0.0
 40
1.0026676445966021
 50
90.4106881149673853
 51
101.2172597800519043
  0
ARC
  5
17FAE
  8
0
 10
3691.8724609232290277
 20
172.0651125968088877
 30
0.0
 40
0.4792653769461005
 50
101.428523206130194
 51
113.2715672698631977
  0
ARC
  5
17FAF
  8
0
 10
3691.7580432101790393
 20
172.3311508806023937
 30
0.0
 40
0.1896660304283013
 50
113.2715672698631977
 51
133.176438375523702
  0
ARC
  5
17FB0
  8
0
 10
3691.6664672336100921
 20
172.4287497892802037
 30
0.0
 40
0.055831406882418
 50
133.1764383755225936
 51
168.6741098963979084
  0
ARC
  5
17FB1
  8
0
 10
3691.6532118873301442
 20
172.4320548408217917
 30
0.0
 40
0.0421899348472388
 50
169.5398709742283927
 51
179.9119602483702067
  0
LINE
  5
17FB2
  8
0
 10
3691.6110220022901558
 20
172.4321196691556963
 30
0.0
 11
3691.6110446196271369
 21
172.375287085338698
 31
0.0
  0
ARC
  5
17FB3
  8
0
 10
3691.6910429041417956
 20
172.3775957901588924
 30
0.0
 40
0.0800310853679379
 50
181.6402823461162086
 51
208.8703941074003012
  0
ARC
  5
17FB4
  8
0
 10
3691.7212890769760634
 20
172.3942721889264931
 30
0.0
 40
0.1145699511130967
 50
208.8703941074003012
 51
233.3123748342937915
  0
ARC
  5
17FB5
  8
0
 10
3691.7723346417619723
 20
172.4449306227396903
 30
0.0
 40
0.1859966312125727
 50
230.0244139594898911
 51
247.3410392893979122
  0
ARC
  5
17FB6
  8
0
 10
3691.8804898764519749
 20
172.6992201605555124
 30
0.0
 40
0.4623285996450749
 50
247.1125909148335893
 51
258.8419037384776971
  0
ARC
  5
17FB7
  8
0
 10
3691.9516002058448976
 20
173.0333763568478957
 30
0.0
 40
0.8039454569564924
 50
258.4783430366575203
 51
266.1034849451608011
  0
ARC
  5
17FB8
  8
0
 10
3691.9656128233341406
 20
173.2004974871165928
 30
0.0
 40
0.971636036319215
 50
265.9487768362378119
 51
269.7032630975413099
  0
ARC
  5
17FB9
  8
0
 10
3691.9639393447459952
 20
171.1949628891958071
 30
0.0
 40
1.379577446191482
 50
89.941056549608362
 51
96.8324499730206156
  0
ARC
  5
17FBA
  8
0
 10
3691.9204548392099241
 20
171.5578871020252905
 30
0.0
 40
1.0140574241959821
 50
96.832453835186584
 51
106.5009395904670981
  0
ARC
  5
17FBB
  8
0
 10
3691.7570479050750691
 20
172.1095064481166048
 30
0.0
 40
0.4387438322258648
 50
106.5009395904670981
 51
120.1895325198977957
  0
ARC
  5
17FBC
  8
0
 10
3691.6194230478781719
 20
172.3460690272162026
 30
0.0
 40
0.165060703135471
 50
120.1895325198977957
 51
147.0543862676348112
  0
ARC
  5
17FBD
  8
0
 10
3691.5347526429791287
 20
172.4060956430427041
 30
0.0
 40
0.0615136645188282
 50
151.0872603171337119
 51
212.8026659106456862
  0
ARC
  5
17FBE
  8
0
 10
3691.5938225454051462
 20
172.443326638135801
 30
0.0
 40
0.1313360563871182
 50
212.4943342872969083
 51
234.3716998887738043
  0
ARC
  5
17FBF
  8
0
 10
3691.730616270056089
 20
172.6425673119300086
 30
0.0
 40
0.3729990475830215
 50
235.1205375866724125
 51
252.5114829461402906
  0
ARC
  5
17FC0
  8
0
 10
3691.871884069898897
 20
173.0490787017978107
 30
0.0
 40
0.8032718268245607
 50
251.6144697406344903
 51
261.5756511647600746
  0
ARC
  5
17FC1
  8
0
 10
3691.9794322040720544
 20
171.3255518254009075
 30
0.0
 40
1.143255437206629
 50
90.7053356165819764
 51
96.0855253513108494
  0
ARC
  5
17FC2
  8
0
 10
3691.9417004449392152
 20
171.7115517582508915
 30
0.0
 40
0.7554383148736394
 50
96.3435359210366755
 51
104.3949950321104012
  0
ARC
  5
17FC3
  8
0
 10
3691.8498675741698207
 20
172.0693469258229129
 30
0.0
 40
0.3860460327511951
 50
104.3949950321104012
 51
115.7442967945819987
  0
ARC
  5
17FC4
  8
0
 10
3691.7536592446008399
 20
172.2688581859659109
 30
0.0
 40
0.164549338414023
 50
115.7442967945819987
 51
134.1171122905631137
  0
ARC
  5
17FC5
  8
0
 10
3691.6785587486251643
 20
172.3463095855530014
 30
0.0
 40
0.0566660505796662
 50
134.1171122905631137
 51
166.184599913096207
  0
ARC
  5
17FC6
  8
0
 10
3691.6599892157591967
 20
172.3508759929256939
 30
0.0
 40
0.0375432990218899
 50
166.184599913096207
 51
197.2919492459946866
  0
ARC
  5
17FC7
  8
0
 10
3691.685310507327813
 20
172.3587587940668868
 30
0.0
 40
0.0640632228634041
 50
197.291949245996193
 51
221.3296171330567859
  0
ARC
  5
17FC8
  8
0
 10
3691.8641213093769693
 20
173.0163856652189907
 30
0.0
 40
0.7566390484002588
 50
253.0281352028829929
 51
256.1627323132348124
  0
ARC
  5
17FC9
  8
0
 10
3691.7911762721701052
 20
172.7773734879961864
 30
0.0
 40
0.5067434715809737
 50
241.376564908340697
 51
253.0281352028829929
  0
ARC
  5
17FCA
  8
0
 10
3691.6291637328208708
 20
172.4805104419164934
 30
0.0
 40
0.1685486593290771
 50
219.4078161277913068
 51
241.376564908340697
  0
ARC
  5
17FCB
  8
0
 10
3691.5529924169018159
 20
172.417925213612989
 30
0.0
 40
0.0699637711841975
 50
182.0097854297279127
 51
219.4078161277913068
  0
ARC
  5
17FCC
  8
0
 10
3691.5312259879310659
 20
172.4171613911645125
 30
0.0
 40
0.0481839443965266
 50
158.3716129688887975
 51
182.0097854297279127
  0
ARC
  5
17FCD
  8
0
 10
3691.5783576718190488
 20
172.3984736203310888
 30
0.0
 40
0.0988853093173736
 50
142.4035300383148126
 51
158.3716129688887975
  0
ARC
  5
17FCE
  8
0
 10
3691.5898173963728368
 20
172.3896495690819961
 30
0.0
 40
0.1133486826211121
 50
137.5303309008428982
 51
142.4035300383148126
  0
ARC
  5
17FCF
  8
0
 10
3691.5404443619108861
 20
172.441694960904897
 30
0.0
 40
0.0568982278181674
 50
191.9097665545642997
 51
207.5934430471500889
  0
ARC
  5
17FD0
  8
0
 10
3691.5881780354338844
 20
172.4666425671395018
 30
0.0
 40
0.1107581075517573
 50
207.5934430471500889
 51
237.3660196479457909
  0
ARC
  5
17FD1
  8
0
 10
3691.7013823887032231
 20
172.6167949729677957
 30
0.0
 40
0.2985996210714834
 50
234.6094684100854124
 51
246.9612177242682947
  0
ARC
  5
17FD2
  8
0
 10
3691.7893671600359085
 20
172.8109302493027997
 30
0.0
 40
0.5117082470026855
 50
246.4023144527868112
 51
251.8984348819377033
  0
ARC
  5
17FD3
  8
0
 10
3691.6890242463141476
 20
172.3433352409676047
 30
0.0
 40
0.0386132576402845
 50
157.1425222614230108
 51
204.6365106077743121
  0
ARC
  5
17FD4
  8
0
 10
3691.7119719479278501
 20
172.3538592123634885
 30
0.0
 40
0.063859068843848
 50
204.6365106077743121
 51
232.1481280868935073
  0
ARC
  5
17FD5
  8
0
 10
3691.8015714775610832
 20
172.4691545450830858
 30
0.0
 40
0.209876497452108
 50
232.1481280868935073
 51
247.5390896928275879
  0
ARC
  5
17FD6
  8
0
 10
3691.8802933128581572
 20
172.6595732102767045
 30
0.0
 40
0.4159259949196633
 50
247.5390896928275879
 51
260.2030532492439079
  0
ARC
  5
17FD7
  8
0
 10
3692.0010918585621766
 20
173.3591444619997048
 30
0.0
 40
1.1258500928918269
 50
260.2030532492439079
 51
264.5158192326658195
  0
ARC
  5
17FD8
  8
0
 10
3691.9646868915428968
 20
173.1313158780079959
 30
0.0
 40
0.895701910226457
 50
265.4411193838475924
 51
269.1128610327195929
  0
ARC
  5
17FD9
  8
0
 10
3691.9653383653030687
 20
173.1588028524533058
 30
0.0
 40
0.9231957041989499
 50
269.0988462025597983
 51
270.0012554944437966
  0
ARC
  5
17FDA
  8
0
 10
3672.9101251560559831
 20
172.3294142573186036
 30
0.0
 40
18.4640739315784614
 50
2.316912749341772
 51
2.4922238974201321
  0
ARC
  5
17FDB
  8
0
 10
3804.2912620288880134
 20
177.6450703318940043
 30
0.0
 40
113.0245541907833058
 50
182.3169127493418102
 51
182.5320329554791954
  0
ARC
  5
17FDC
  8
0
 10
3692.5776970543201969
 20
172.7049732747395012
 30
0.0
 40
1.201814292939414
 50
182.5320329554791954
 51
189.9498479367169921
  0
ARC
  5
17FDD
  8
0
 10
3691.9293171837061891
 20
172.5912315040976068
 30
0.0
 40
0.5435334660830752
 50
189.9498479367169921
 51
201.5527610295976046
  0
LINE
  5
17FDE
  8
0
 10
3694.9614157030900969
 20
168.5938273490556014
 30
0.0
 11
3694.9636720236899237
 21
168.849904643055595
 31
0.0
  0
ARC
  5
17FDF
  8
0
 10
3694.9833570668670291
 20
168.8497321009371888
 30
0.0
 40
0.0196857993411334
 50
90.0027529902052379
 51
179.4978074508495069
  0
LINE
  5
17FE0
  8
0
 10
3694.9833561209889012
 20
168.8694179002555984
 30
0.0
 11
3696.9477056189271025
 21
168.8694179002555984
 31
0.0
  0
ARC
  5
17FE1
  8
0
 10
3696.9475440315081869
 20
168.8498958646331971
 30
0.0
 40
0.0195227043551219
 50
0.0257631608898725
 51
89.5257633013549849
  0
LINE
  5
17FE2
  8
0
 10
3696.9670667338900785
 20
168.849904643055595
 30
0.0
 11
3696.9692897187937888
 21
168.5938273490556014
 31
0.0
  0
ARC
  5
17FE3
  8
0
 10
3695.0917125363412197
 20
168.9186304987779863
 30
0.0
 40
0.0492125985223275
 50
270.0000000569825147
 51
357.219247371097083
  0
LINE
  5
17FE4
  8
0
 10
3695.1408671865901852
 20
168.9162429870555968
 30
0.0
 11
3695.2113051320129671
 21
170.3664358967554051
 31
0.0
  0
ARC
  5
17FE5
  8
0
 10
3695.2309669959749954
 20
170.3654808918788035
 30
0.0
 40
0.0196850432762411
 50
90.0336721681611039
 51
177.2192473711002947
  0
LINE
  5
17FE6
  8
0
 10
3695.2309554272719652
 20
170.3851659317556937
 30
0.0
 11
3696.6997617158458525
 21
170.3851659317556937
 31
0.0
  0
ARC
  5
17FE7
  8
0
 10
3696.6997619694870991
 20
170.3654808923542987
 30
0.0
 40
0.0196850394029634
 50
2.7807524704576849
 51
90.0007382553726245
  0
LINE
  5
17FE8
  8
0
 10
3696.7194238295828654
 20
170.3664358969886052
 30
0.0
 11
3696.7898617709970495
 21
168.9162429870785047
 31
0.0
  0
ARC
  5
17FE9
  8
0
 10
3696.8390229160809213
 20
168.9186334465661048
 30
0.0
 40
0.049219228788659
 50
182.7838132658613972
 51
269.2991210293221229
  0
LINE
  5
17FEA
  8
0
 10
3695.2244796446289001
 20
170.4245361454555905
 30
0.0
 11
3696.706254264789095
 21
170.4245361454555905
 31
0.0
  0
ARC
  5
17FEB
  8
0
 10
3696.706254264789095
 20
170.4343617656950016
 30
0.0
 40
0.0098256202393685
 50
270.0
 51
3.4030369955136002
  0
LINE
  5
17FEC
  8
0
 10
3696.7160625593451186
 20
170.4349450074946049
 30
0.0
 11
3696.6869458053652124
 21
171.0319365892385974
 31
0.0
  0
ARC
  5
17FED
  8
0
 10
3697.2149887852069696
 20
171.1047203678612902
 30
0.0
 40
0.5330355213216151
 50
155.7356671145203109
 51
187.8480173564364009
  0
ARC
  5
17FEE
  8
0
 10
3696.9954206085499209
 20
171.2036946988770865
 30
0.0
 40
0.2921909606596103
 50
102.3020991380848983
 51
155.7356671145203109
  0
ARC
  5
17FEF
  8
0
 10
3697.1012317149211412
 20
170.7184865521726067
 30
0.0
 40
0.7888024142728439
 50
90.853729041765888
 51
102.3020991380848983
  0
LINE
  5
17FF0
  8
0
 10
3697.0894786919889157
 20
171.5072014025556086
 30
0.0
 11
3698.4061630091900952
 21
171.562556663655613
 31
0.0
  0
ARC
  5
17FF1
  8
0
 10
3698.4016034739252063
 20
171.834538565504289
 30
0.0
 40
0.2720201174454194
 50
270.960422942818127
 51
297.4766402988580012
  0
ARC
  5
17FF2
  8
0
 10
3698.4684167317909669
 20
171.689913315719707
 30
0.0
 40
0.1131276513745221
 50
301.2533595220638176
 51
341.3430598832495093
  0
ARC
  5
17FF3
  8
0
 10
3698.4408798523259065
 20
171.6988849258960101
 30
0.0
 40
0.142087857538525
 50
341.4676276958132917
 51
351.0056730660123208
  0
ARC
  5
17FF4
  8
0
 10
3698.5532891453440243
 20
171.6810917745796132
 30
0.0
 40
0.0282790468584911
 50
351.0070287363847115
 51
79.2475539638449646
  0
ARC
  5
17FF5
  8
0
 10
3698.222338511559883
 20
170.0314291622183873
 30
0.0
 40
1.7108098994099681
 50
78.6658475647862616
 51
88.8573030693991512
  0
ARC
  5
17FF6
  8
0
 10
3698.1121814142511539
 20
165.0326139358469959
 30
0.0
 40
6.7108359427294593
 50
88.7681145285673523
 51
89.8357336077356052
  0
LINE
  5
17FF7
  8
0
 10
3698.131421283374948
 20
171.7434222983071948
 30
0.0
 11
3695.9450529675991675
 21
171.7434222983071948
 31
0.0
  0
ARC
  5
17FF8
  8
0
 10
3695.9586082534879097
 20
153.2368013281675019
 30
0.0
 40
18.5066259344644415
 50
90.0419666308962547
 51
90.9572949259407011
  0
ARC
  5
17FF9
  8
0
 10
3695.6871203286568743
 20
169.4795209547573904
 30
0.0
 40
2.261637583936464
 50
90.9552647478735992
 51
99.8208937871634276
  0
ARC
  5
17FFA
  8
0
 10
3695.3067923172930023
 20
171.6766081386095948
 30
0.0
 40
0.031874930720777
 50
99.820893787136626
 51
173.232359576267811
  0
LINE
  5
17FFB
  8
0
 10
3695.2751394840101966
 20
171.6803643805727972
 30
0.0
 11
3695.2146841186709025
 21
170.4347671660229082
 31
0.0
  0
ARC
  5
17FFC
  8
0
 10
3695.2245190985890986
 20
170.4343787146252112
 30
0.0
 40
0.0098426482449633
 50
177.7381689495153978
 51
269.7703309141459158
  0
LINE
  5
17FFD
  8
0
 10
3695.3349278525902264
 20
170.4245360037556054
 30
0.0
 11
3695.3347545648430241
 21
170.4046791888555958
 31
0.0
  0
ARC
  5
17FFE
  8
0
 10
3695.315070274989921
 20
170.4048509710555948
 30
0.0
 40
0.0196850394000006
 50
270.0
 51
359.4999999857769239
  0
LINE
  5
17FFF
  8
0
 10
3696.5958011048901426
 20
170.4245360037556054
 30
0.0
 11
3696.5959743926891861
 21
170.4046791888594043
 31
0.0
  0
ARC
  5
18000
  8
0
 10
3696.6156586825441082
 20
170.4048509710561063
 30
0.0
 40
0.0196850394004759
 50
180.5000000046815956
 51
269.9999998415328832
  0
LINE
  5
18001
  8
0
 10
3695.3042782797301697
 20
171.7083837711539047
 30
0.0
 11
3698.560695319405113
 21
171.7083837711539047
 31
0.0
  0
ARC
  5
18002
  8
0
 10
3691.9671337452641637
 20
171.5393869079921103
 30
0.0
 40
0.9183994756791587
 50
81.8671708959623459
 51
89.9060473122626149
  0
ARC
  5
18003
  8
0
 10
3692.0037752210141662
 20
171.7958585395562068
 30
0.0
 40
0.6593236269174853
 50
75.2298467196398803
 51
81.8663292417685255
  0
ARC
  5
18004
  8
0
 10
3692.0746229088990731
 20
172.0576700977509006
 30
0.0
 40
0.3881052176060279
 50
65.2213725685634813
 51
75.4896513375659453
  0
ARC
  5
18005
  8
0
 10
3692.16690420799614
 20
172.254726934596988
 30
0.0
 40
0.1705185025225731
 50
48.6905906419037677
 51
65.6232934433416659
  0
ARC
  5
18006
  8
0
 10
3692.2295430692820446
 20
172.3274618985913094
 30
0.0
 40
0.0745399527936545
 50
29.5470692730129798
 51
47.9506356201713402
  0
ARC
  5
18007
  8
0
 10
3692.2548063852909763
 20
172.3421938118137007
 30
0.0
 40
0.0452986494433052
 50
7.7244788870068586
 51
29.0945922474958607
  0
ARC
  5
18008
  8
0
 10
3692.2599457121641535
 20
172.3433152409515117
 30
0.0
 40
0.0400574336393563
 50
341.8015868680882932
 51
7.123040331325825
  0
ARC
  5
18009
  8
0
 10
3692.2464144225928067
 20
172.3480983401614992
 30
0.0
 40
0.054406629494253
 50
322.6805920629140019
 51
341.4667890858801229
  0
ARC
  5
1800A
  8
0
 10
3692.2186269542721675
 20
172.3690214969387
 30
0.0
 40
0.0891901857383037
 50
311.8750397895466904
 51
322.813472227597515
  0
ARC
  5
1800B
  8
0
 10
3691.963593283911905
 20
171.5392944087321894
 30
0.0
 40
0.9184924366365295
 50
90.1101205891687727
 51
98.1326204302272629
  0
ARC
  5
1800C
  8
0
 10
3691.9269419686661422
 20
171.7958585395562068
 30
0.0
 40
0.6593236269174853
 50
98.1336707582314887
 51
104.7701532803601054
  0
ARC
  5
1800D
  8
0
 10
3691.856094280779871
 20
172.0576700977509006
 30
0.0
 40
0.3881052176060279
 50
104.5103486624339979
 51
114.7786274314365045
  0
ARC
  5
1800E
  8
0
 10
3691.7638129816841683
 20
172.254726934596988
 30
0.0
 40
0.1705185025225731
 50
114.3767065566583057
 51
131.3094093580961896
  0
ARC
  5
1800F
  8
0
 10
3691.7011741203968995
 20
172.3274618985913094
 30
0.0
 40
0.0745399527936545
 50
132.049364379828603
 51
150.452930726987006
  0
ARC
  5
18010
  8
0
 10
3691.6759108043879678
 20
172.3421938118137007
 30
0.0
 40
0.0452986494433052
 50
150.9054077525040896
 51
172.2755211129914983
  0
ARC
  5
18011
  8
0
 10
3691.6707714775170643
 20
172.3433152409515117
 30
0.0
 40
0.0400574336393563
 50
172.8769596686742034
 51
198.1984131319117068
  0
ARC
  5
18012
  8
0
 10
3691.6843027670861375
 20
172.3480983401614992
 30
0.0
 40
0.054406629494253
 50
198.5332109141199055
 51
217.3194079370861118
  0
ARC
  5
18013
  8
0
 10
3691.7120902354067766
 20
172.3690214969387
 30
0.0
 40
0.0891901857383037
 50
217.1865277724025134
 51
228.1249602104533096
  0
LINE
  5
18014
  8
0
 10
3688.9693014865902114
 20
168.5938273490556014
 30
0.0
 11
3688.96704516598993
 21
168.849904643055595
 31
0.0
  0
ARC
  5
18015
  8
0
 10
3688.9473601228119151
 20
168.8497321009371888
 30
0.0
 40
0.0196857993411334
 50
0.5021925491504428
 51
89.9972470097947763
  0
LINE
  5
18016
  8
0
 10
3688.9473610686900429
 20
168.8694179002555984
 30
0.0
 11
3686.9830115707518416
 21
168.8694179002555984
 31
0.0
  0
ARC
  5
18017
  8
0
 10
3686.983173158171212
 20
168.8498958646331971
 30
0.0
 40
0.0195227043551219
 50
90.4742366986450008
 51
179.9742368391100911
  0
LINE
  5
18018
  8
0
 10
3686.9636504557897752
 20
168.849904643055595
 30
0.0
 11
3686.9614274708851553
 21
168.5938273490556014
 31
0.0
  0
ARC
  5
18019
  8
0
 10
3688.8390046533390887
 20
168.9186304987779863
 30
0.0
 40
0.0492125985223275
 50
182.7807526289028885
 51
269.9999999430174853
  0
LINE
  5
1801A
  8
0
 10
3688.7898500030901232
 20
168.9162429870555968
 30
0.0
 11
3688.719412057665977
 21
170.3664358967554051
 31
0.0
  0
ARC
  5
1801B
  8
0
 10
3688.6997501937039488
 20
170.3654808918788035
 30
0.0
 40
0.0196850432762411
 50
2.780752628899676
 51
89.9663278318128334
  0
LINE
  5
1801C
  8
0
 10
3688.6997617624101622
 20
170.3851659317556937
 30
0.0
 11
3687.2309554738349107
 21
170.3851659317556937
 31
0.0
  0
ARC
  5
1801D
  8
0
 10
3687.2309552201932092
 20
170.3654808923542987
 30
0.0
 40
0.0196850394029634
 50
89.9992617446273755
 51
177.2192475295422867
  0
LINE
  5
1801E
  8
0
 10
3687.2112933600960787
 20
170.3664358969886052
 30
0.0
 11
3687.1408554186818947
 21
168.9162429870785047
 31
0.0
  0
ARC
  5
1801F
  8
0
 10
3687.0916942735989323
 20
168.9186334465661048
 30
0.0
 40
0.049219228788659
 50
270.7008789706778202
 51
357.2161867341386028
  0
LINE
  5
18020
  8
0
 10
3688.7062375450532272
 20
170.4245361454555905
 30
0.0
 11
3687.2244629248898491
 21
170.4245361454555905
 31
0.0
  0
ARC
  5
18021
  8
0
 10
3687.2244629248898491
 20
170.4343617656950016
 30
0.0
 40
0.0098256202393685
 50
176.5969630044864118
 51
270.0
  0
LINE
  5
18022
  8
0
 10
3687.2146546303338255
 20
170.4349450074946049
 30
0.0
 11
3687.2437713843141864
 21
171.0319365892385974
 31
0.0
  0
ARC
  5
18023
  8
0
 10
3686.715728404472884
 20
171.1047203678612902
 30
0.0
 40
0.5330355213216151
 50
352.1519826435634855
 51
24.2643328854797318
  0
ARC
  5
18024
  8
0
 10
3686.9352965811290233
 20
171.2036946988770865
 30
0.0
 40
0.2921909606596103
 50
24.2643328854797318
 51
77.6979008619151017
  0
ARC
  5
18025
  8
0
 10
3686.8294854747578029
 20
170.7184865521726067
 30
0.0
 40
0.7888024142728439
 50
77.6979008619151017
 51
89.1462709582340977
  0
LINE
  5
18026
  8
0
 10
3686.8412384976900285
 20
171.5072014025556086
 30
0.0
 11
3685.5245541804902132
 21
171.562556663655613
 31
0.0
  0
ARC
  5
18027
  8
0
 10
3685.5291137157541925
 20
171.834538565504289
 30
0.0
 40
0.2720201174454194
 50
242.5233597011419988
 51
269.039577057181873
  0
ARC
  5
18028
  8
0
 10
3685.4623004578888867
 20
171.689913315719707
 30
0.0
 40
0.1131276513745221
 50
198.6569401167504907
 51
238.7466404779360971
  0
ARC
  5
18029
  8
0
 10
3685.4898373373530376
 20
171.6988849258960101
 30
0.0
 40
0.142087857538525
 50
188.9943269339877077
 51
198.5323723041850883
  0
ARC
  5
1802A
  8
0
 10
3685.3774280443349198
 20
171.6810917745796132
 30
0.0
 40
0.0282790468584911
 50
100.7524460361550069
 51
188.9929712636136117
  0
ARC
  5
1802B
  8
0
 10
3685.7083786781199706
 20
170.0314291622183873
 30
0.0
 40
1.7108098994099681
 50
91.1426969306008488
 51
101.3341524352136958
  0
ARC
  5
1802C
  8
0
 10
3685.8185357754277902
 20
165.0326139358469959
 30
0.0
 40
6.7108359427294593
 50
90.1642663922643948
 51
91.2318854714326619
  0
LINE
  5
1802D
  8
0
 10
3685.7992959063049057
 20
171.7434222983071948
 30
0.0
 11
3687.9856642220797767
 21
171.7434222983071948
 31
0.0
  0
ARC
  5
1802E
  8
0
 10
3687.9721089361919439
 20
153.2368013281675019
 30
0.0
 40
18.5066259344644415
 50
89.0427050740592989
 51
89.9580333691037453
  0
ARC
  5
1802F
  8
0
 10
3688.2435968610229793
 20
169.4795209547573904
 30
0.0
 40
2.261637583936464
 50
80.1791062128365866
 51
89.0447352521264008
  0
ARC
  5
18030
  8
0
 10
3688.6239248723868513
 20
171.6766081386095948
 30
0.0
 40
0.0318749307207799
 50
6.7676404237289489
 51
80.179106212863104
  0
LINE
  5
18031
  8
0
 10
3688.6555777056692023
 20
171.6803643805727972
 30
0.0
 11
3688.7160330710080416
 21
170.4347671660229082
 31
0.0
  0
ARC
  5
18032
  8
0
 10
3688.7061980910912098
 20
170.4343787146252112
 30
0.0
 40
0.0098426482449753
 50
270.2296690860364947
 51
2.2618310504813279
  0
LINE
  5
18033
  8
0
 10
3688.595789337090082
 20
170.4245360037556054
 30
0.0
 11
3688.59596262483592
 21
170.4046791888555958
 31
0.0
  0
ARC
  5
18034
  8
0
 10
3688.6156469146899326
 20
170.4048509710555948
 30
0.0
 40
0.0196850394000006
 50
180.5000000142229908
 51
270.0
  0
LINE
  5
18035
  8
0
 10
3687.3349160847901658
 20
170.4245360037556054
 30
0.0
 11
3687.3347427969902128
 21
170.4046791888594043
 31
0.0
  0
ARC
  5
18036
  8
0
 10
3687.315058507134836
 20
170.4048509710561063
 30
0.0
 40
0.0196850394004759
 50
270.0000001584671168
 51
359.499999995318376
  0
LINE
  5
18037
  8
0
 10
3688.6264389099487744
 20
171.7083837711539047
 30
0.0
 11
3685.3700218702738312
 21
171.7083837711539047
 31
0.0
  0
LINE
  5
18038
  8
0
 10
3696.9692897187937888
 20
168.5938273490556014
 30
0.0
 11
3694.9614157030900969
 21
168.5938273490556014
 31
0.0
  0
LINE
  5
18039
  8
0
 10
3692.9496193259901702
 20
168.5938273490556014
 30
0.0
 11
3690.9808483681058533
 21
168.5938273490556014
 31
0.0
  0
LINE
  5
1803A
  8
0
 10
3688.9693014865902114
 20
168.5938273490556014
 30
0.0
 11
3686.9614274708851553
 21
168.5938273490556014
 31
0.0
  0
LINE
  5
1803B
  8
0
 10
3691.9605807078569342
 20
172.228874481579993
 30
0.0
 11
3691.9698869862381798
 21
172.228874481579993
 31
0.0
  0
LINE
  5
1803C
  8
0
 10
3691.9618279729779715
 20
172.4577851489337093
 30
0.0
 11
3691.968639721118052
 21
172.4577851489337093
 31
0.0
  0
LINE
  5
1803D
  8
0
 10
3691.9654833426311598
 20
173.2353262099032065
 30
0.0
 11
3691.9649843514639542
 21
173.2353262099032065
 31
0.0
  0
LINE
  5
1803F
  8
0
 10
3691.946901015901858
 20
172.4508668389609909
 30
0.0
 11
3691.945548780513036
 21
172.448928849712388
 31
0.0
  0
LINE
  5
18040
  8
0
 10
3691.945548780513036
 20
172.448928849712388
 30
0.0
 11
3691.9553913002478112
 21
172.4346029804017917
 31
0.0
  0
LINE
  5
18041
  8
0
 10
3691.9553913002478112
 20
172.4346029804017917
 30
0.0
 11
3691.9750763395891227
 21
172.4346029804007969
 31
0.0
  0
LINE
  5
18042
  8
0
 10
3691.9750763395891227
 20
172.4346029804007969
 30
0.0
 11
3691.9849188593379949
 21
172.4489288497055099
 31
0.0
  0
LINE
  5
18043
  8
0
 10
3691.9849188593379949
 20
172.4489288497055099
 30
0.0
 11
3691.9835623041280996
 21
172.4508729975270001
 31
0.0
  0
LINE
  5
18044
  8
0
 10
3691.9750763396477851
 20
172.4346029804856926
 30
0.0
 11
3691.9750763396477851
 21
172.4510016969094863
 31
0.0
  0
LINE
  5
18045
  8
0
 10
3691.9553912982210022
 20
172.434602983352903
 30
0.0
 11
3691.9553913007780466
 21
172.450998440101813
 31
0.0
  0
ENDSEC
  0
EOF
