  0
SECTION
  2
HEADER
  9
$ACADVER
  1
AC1009
  9
$INSBASE
 10
2743.2174056267708693
 20
135.0072573159079923
 30
0.0
  9
$EXTMIN
 10
2738.917531172838153
 20
124.5205896293383034
 30
-0.0015258207003583
  9
$EXTMAX
 10
2757.335202713848048
 20
153.3727452777380904
 30
0.0000000349246037
  9
$LIMMIN
 10
0.0
 20
0.0
  9
$LIMMAX
 10
11.6929133858000007
 20
8.2677165353999982
  9
$ORTHOMODE
 70
     1
  9
$REGENMODE
 70
     1
  9
$FILLMODE
 70
     1
  9
$QTEXTMODE
 70
     0
  9
$MIRRTEXT
 70
     0
  9
$DRAGMODE
 70
     2
  9
$LTSCALE
 40
0.6431102362
  9
$OSMODE
 70
  4095
  9
$ATTMODE
 70
     1
  9
$TEXTSIZE
 40
0.2
  9
$TRACEWID
 40
0.05
  9
$TEXTSTYLE
  7
STANDARD
  9
$CLAYER
  8
0
  9
$CELTYPE
  6
BYLAYER
  9
$CECOLOR
 62
   256
  9
$DIMSCALE
 40
1.0
  9
$DIMASZ
 40
0.1875
  9
$DIMEXO
 40
0.0625
  9
$DIMDLI
 40
0.4443307087
  9
$DIMRND
 40
0.0
  9
$DIMDLE
 40
0.0
  9
$DIMEXE
 40
0.125
  9
$DIMTP
 40
0.01
  9
$DIMTM
 40
0.01
  9
$DIMTXT
 40
2.0
  9
$DIMCEN
 40
0.1052362205
  9
$DIMTSZ
 40
0.0
  9
$DIMTOL
 70
     1
  9
$DIMLIM
 70
     0
  9
$DIMTIH
 70
     1
  9
$DIMTOH
 70
     1
  9
$DIMSE1
 70
     0
  9
$DIMSE2
 70
     0
  9
$DIMTAD
 70
     0
  9
$DIMZIN
 70
     0
  9
$DIMBLK
  1

  9
$DIMASO
 70
     1
  9
$DIMSHO
 70
     1
  9
$DIMPOST
  1
\X
  9
$DIMAPOST
  1

  9
$DIMALT
 70
     1
  9
$DIMALTD
 70
     2
  9
$DIMALTF
 40
25.3999999999999986
  9
$DIMLFAC
 40
1.0
  9
$DIMTOFL
 70
     0
  9
$DIMTVP
 40
0.0
  9
$DIMTIX
 70
     0
  9
$DIMSOXD
 70
     0
  9
$DIMSAH
 70
     0
  9
$DIMBLK1
  1

  9
$DIMBLK2
  1

  9
$DIMSTYLE
  2
STANDARD
  9
$DIMCLRD
 70
     0
  9
$DIMCLRE
 70
     0
  9
$DIMCLRT
 70
     0
  9
$DIMTFAC
 40
1.0
  9
$DIMGAP
 40
0.09
  9
$LUNITS
 70
     2
  9
$LUPREC
 70
     4
  9
$SKETCHINC
 40
0.1
  9
$FILLETRAD
 40
0.0
  9
$AUNITS
 70
     0
  9
$AUPREC
 70
     0
  9
$MENU
  1
.
  9
$ELEVATION
 40
0.0
  9
$PELEVATION
 40
0.0
  9
$THICKNESS
 40
0.0
  9
$LIMCHECK
 70
     0
  9
$BLIPMODE
 70
     0
  9
$CHAMFERA
 40
0.0
  9
$CHAMFERB
 40
0.0
  9
$SKPOLY
 70
     0
  9
$TDCREATE
 40
2458060.468368056230247
  9
$TDUPDATE
 40
2459447.7355787041597068
  9
$TDINDWG
 40
0.6758866898
  9
$TDUSRTIMER
 40
0.6758866898
  9
$USRTIMER
 70
     1
  9
$ANGBASE
 50
0.0
  9
$ANGDIR
 70
     0
  9
$PDMODE
 70
     0
  9
$PDSIZE
 40
0.3125
  9
$PLINEWID
 40
0.0
  9
$COORDS
 70
     1
  9
$SPLFRAME
 70
     0
  9
$SPLINETYPE
 70
     6
  9
$SPLINESEGS
 70
     8
  9
$ATTDIA
 70
     1
  9
$ATTREQ
 70
     1
  9
$HANDLING
 70
     1
  9
$HANDSEED
  5
39D82
  9
$SURFTAB1
 70
     6
  9
$SURFTAB2
 70
     6
  9
$SURFTYPE
 70
     6
  9
$SURFU
 70
     6
  9
$SURFV
 70
     6
  9
$UCSNAME
  2

  9
$UCSORG
 10
0.0
 20
0.0
 30
0.0
  9
$UCSXDIR
 10
1.0
 20
0.0
 30
0.0
  9
$UCSYDIR
 10
0.0
 20
1.0
 30
0.0
  9
$PUCSNAME
  2

  9
$PUCSORG
 10
0.0
 20
0.0
 30
0.0
  9
$PUCSXDIR
 10
1.0
 20
0.0
 30
0.0
  9
$PUCSYDIR
 10
0.0
 20
1.0
 30
0.0
  9
$USERI1
 70
     0
  9
$USERI2
 70
     0
  9
$USERI3
 70
     0
  9
$USERI4
 70
     0
  9
$USERI5
 70
     0
  9
$USERR1
 40
0.0
  9
$USERR2
 40
0.0
  9
$USERR3
 40
0.0
  9
$USERR4
 40
0.0
  9
$USERR5
 40
0.0
  9
$WORLDVIEW
 70
     1
  9
$SHADEDGE
 70
     3
  9
$SHADEDIF
 70
    70
  9
$TILEMODE
 70
     1
  9
$MAXACTVP
 70
    64
  9
$PLIMCHECK
 70
     0
  9
$PEXTMIN
 10
1.0000000000000000E+20
 20
1.0000000000000000E+20
 30
1.0000000000000000E+20
  9
$PEXTMAX
 10
-1.0000000000000000E+20
 20
-1.0000000000000000E+20
 30
-1.0000000000000000E+20
  9
$PLIMMIN
 10
0.0
 20
0.0
  9
$PLIMMAX
 10
12.0
 20
9.0
  9
$UNITMODE
 70
     0
  9
$VISRETAIN
 70
     1
  9
$PLINEGEN
 70
     0
  9
$PSLTSCALE
 70
     1
  0
ENDSEC
  0
SECTION
  2
TABLES
  0
TABLE
  2
VPORT
 70
     1
  0
VPORT
  2
*ACTIVE
 70
     0
 10
0.0
 20
0.0
 11
1.0
 21
1.0
 12
-555.5667482910321269
 22
-56.3148441223495695
 13
0.0
 23
0.0
 14
1.0
 24
1.0
 15
0.0
 25
0.0
 16
0.0
 26
0.0
 36
96.5995694866707311
 17
3303.693115234375
 27
195.2615115758877096
 37
0.0
 40
29.0796365076512906
 41
2.5092105263157891
 42
50.0
 43
0.0
 44
0.0
 50
0.0
 51
0.0
 71
     0
 72
   100
 73
     1
 74
     1
 75
     0
 76
     0
 77
     0
 78
     0
  0
ENDTAB
  0
TABLE
  2
LTYPE
 70
     2
  0
LTYPE
  2
CONTINUOUS
 70
     0
  3
Solid line
 72
    65
 73
     0
 40
0.0
  0
LTYPE
  2
PHANTOM2
 70
     0
  3
___ _ _ ___ _ _ ___ _ _ ___ _ _
 72
    65
 73
     6
 40
1.25
 49
0.625
 49
-0.125
 49
0.125
 49
-0.125
 49
0.125
 49
-0.125
  0
ENDTAB
  0
TABLE
  2
LAYER
 70
     2
  0
LAYER
  2
0
 70
     0
 62
   255
  6
CONTINUOUS
  0
LAYER
  2
DEFPOINTS
 70
     0
 62
     7
  6
CONTINUOUS
  0
ENDTAB
  0
TABLE
  2
STYLE
 70
     1
  0
STYLE
  2
STANDARD
 70
     0
 40
0.0
 41
0.8
 50
0.0
 71
     0
 42
0.2
  3
txt
  4

  0
ENDTAB
  0
TABLE
  2
VIEW
 70
     0
  0
ENDTAB
  0
TABLE
  2
UCS
 70
     0
  0
ENDTAB
  0
TABLE
  2
APPID
 70
     9
  0
APPID
  2
ACAD
 70
     0
  0
APPID
  2
ACAD_MLEADERVER
 70
     0
  0
APPID
  2
ACAD_EXEMPT_FROM_CAD_STANDARDS
 70
     0
  0
APPID
  2
ACAD_NAV_VCDISPLAY
 70
     0
  0
APPID
  2
ACAECLAYERSTANDARD
 70
     0
  0
APPID
  2
ACCMTRANSPARENCY
 70
     0
  0
APPID
  2
ACAD_DSTYLE_DIMJAG
 70
     0
  0
APPID
  2
ACAD_DSTYLE_DIMTALN
 70
     0
  0
APPID
  2
ACDBATTR
 70
     0
  0
ENDTAB
  0
TABLE
  2
DIMSTYLE
 70
     1
  0
DIMSTYLE
  2
STANDARD
 70
     0
  3

  4

  5

  6

  7

 40
1.0
 41
0.1875
 42
0.0625
 43
0.38
 44
0.125
 45
0.0
 46
0.0
 47
0.01
 48
0.01
140
0.15625
141
0.09
142
0.0
143
25.3999999999999986
144
1.0
145
0.0
146
1.0
147
0.09
 71
     1
 72
     0
 73
     1
 74
     1
 75
     0
 76
     0
 77
     0
 78
     4
170
     0
171
     2
172
     0
173
     0
174
     0
175
     0
176
     0
177
     0
178
     0
  0
ENDTAB
  0
ENDSEC
  0
SECTION
  2
BLOCKS
  0
BLOCK
  8
0
  2
$MODEL_SPACE
 70
     0
 10
0.0
 20
0.0
 30
0.0
  3
$MODEL_SPACE
  1

  0
ENDBLK
  5
21
  8
0
  0
BLOCK
 67
     1
  8
0
  2
$PAPER_SPACE
 70
     0
 10
0.0
 20
0.0
 30
0.0
  3
$PAPER_SPACE
  1

  0
ENDBLK
  5
1D
 67
     1
  8
0
  0
ENDSEC
  0
SECTION
  2
ENTITIES
  0
ATTDEF
  5
38AC2
  8
DEFPOINTS
 10
2743.2182651475031889
 20
135.0118440323414859
 30
0.0
 40
0.001
  1
K-33077T-4
  3

  2
MODELNUMBER
 70
     0
1001
ACDBATTR
1070
     0
1070
     1
  0
ATTDEF
  5
38AC3
  8
DEFPOINTS
 10
2743.2182651475031889
 20
135.0101773656747923
 30
0.0
 40
0.001
  1

  3

  2
TRADENAME
 70
     0
1001
ACDBATTR
1070
     0
1070
     1
  0
ATTDEF
  5
38AC4
  8
DEFPOINTS
 10
2743.2182651475031889
 20
135.0085106990082124
 30
0.0
 40
0.001
  1
BATH AND SHOWER FAUCET
  3

  2
PRODUCT
 70
     0
1001
ACDBATTR
1070
     0
1070
     1
  0
LINE
  5
3946D
  8
0
 10
2754.6077184925520669
 20
143.739275479658005
 30
0.0
 11
2754.6980581036132207
 21
143.739275479658005
 31
0.0
  0
LINE
  5
3946E
  8
0
 10
2754.632606497551933
 20
144.0001093955580131
 30
0.0
 11
2754.632606497551933
 21
149.1861022091279096
 31
0.0
  0
LINE
  5
3946F
  8
0
 10
2755.6458149839518228
 20
149.1861428358284059
 30
0.0
 11
2755.6458149839518228
 21
144.0001094023579924
 31
0.0
  0
ARC
  5
39470
  8
0
 10
2755.1414724354121972
 20
142.2890088750295092
 30
0.0
 40
1.668222623752786
 50
105.6464329096257018
 51
110.2903196999844937
  0
ARC
  5
39471
  8
0
 10
2755.085682682109109
 20
142.4399065223115883
 30
0.0
 40
1.5073419333983229
 50
110.2903196999844937
 51
121.1919572585938027
  0
ARC
  5
39472
  8
0
 10
2754.81366400170009
 20
142.8892050732193013
 30
0.0
 40
0.9821149821295275
 50
121.1919572585938027
 51
128.6022576446457037
  0
ARC
  5
39473
  8
0
 10
2754.238731987275969
 20
143.6093517678853004
 30
0.0
 40
0.0606172430935488
 50
128.6022576446457037
 51
182.0360109111460076
  0
ARC
  5
39474
  8
0
 10
2761.9497788820458481
 20
143.8834799383579934
 30
0.0
 40
7.776535235607243
 50
182.0360109111460076
 51
186.576937077702496
  0
ARC
  5
39475
  8
0
 10
2757.1988344948131271
 20
143.2813856155040071
 30
0.0
 40
2.9883822183913451
 50
185.5420911123974861
 51
200.2217654140721947
  0
ARC
  5
39476
  8
0
 10
2755.4010427634498228
 20
142.6376784639269886
 30
0.0
 40
1.079042825861398
 50
201.1449235890237048
 51
219.8994524469111127
  0
ARC
  5
39477
  8
0
 10
2755.1003032960720702
 20
142.3983049197510127
 30
0.0
 40
0.6948416188973539
 50
220.6635797865706081
 51
249.392436747833699
  0
LINE
  5
39478
  8
0
 10
2754.6956953195799542
 20
143.7959822964149055
 30
0.0
 11
2754.5493667670311879
 21
143.7522169654837114
 31
0.0
  0
ARC
  5
39479
  8
0
 10
2754.5786662686400632
 20
143.7002178241151
 30
0.0
 40
0.0596856054470875
 50
119.3995745245736941
 51
145.1554019266625914
  0
LINE
  5
3947A
  8
0
 10
2754.5296820101420963
 20
143.7343193477908869
 30
0.0
 11
2754.524922970523221
 21
143.5240659144567985
 31
0.0
  0
LINE
  5
3947B
  8
0
 10
2754.524922970523221
 20
143.5240659144567985
 30
0.0
 11
2754.5254966487518686
 21
142.3839215251580015
 31
0.0
  0
ARC
  5
3947C
  8
0
 10
2758.6717513601920473
 20
142.3860077662374124
 30
0.0
 40
4.146255236299897
 50
180.0288291017141091
 51
182.5188797056254089
  0
ARC
  5
3947D
  8
0
 10
2754.6257971102700139
 20
142.2163434536012971
 30
0.0
 40
0.0971102206195499
 50
187.4299673648293094
 51
218.2526610302849122
  0
ARC
  5
3947E
  8
0
 10
2754.3648948867780746
 20
143.7475597085964125
 30
0.0
 40
0.2321915346472168
 50
216.4407064889362005
 51
251.7391105922098973
  0
ARC
  5
3947F
  8
0
 10
2754.4470626405450275
 20
143.9965821188044117
 30
0.0
 40
0.4944198713022259
 50
251.7391105922098973
 51
262.1633807520636879
  0
ARC
  5
39480
  8
0
 10
2754.5108786327368762
 20
143.5395675461313942
 30
0.0
 40
0.014441655422968
 50
3.478573454104986
 51
72.705809408295309
  0
ARC
  5
39481
  8
0
 10
2754.5052234317981856
 20
143.5282949244279962
 30
0.0
 40
0.026963741877335
 50
68.348859692024817
 51
103.3615967174349066
  0
LINE
  5
39482
  8
0
 10
2754.4989922233521611
 20
143.5545287845579878
 30
0.0
 11
2754.4106369574069504
 21
143.5284708303578043
 31
0.0
  0
ARC
  5
39483
  8
0
 10
2754.4312035739658313
 20
143.4661093632626887
 30
0.0
 40
0.0656653507943801
 50
108.2523936983763946
 51
141.7307757922949918
  0
ARC
  5
39484
  8
0
 10
2754.1463135473950388
 20
143.4714332255275906
 30
0.0
 40
0.2359975735907869
 50
8.5735960760872363
 51
8.6138687147393451
  0
ARC
  5
39485
  8
0
 10
2753.5055696841282042
 20
143.4022224071904077
 30
0.0
 40
0.8803159202058253
 50
359.3609921810318042
 51
6.8105112448739371
  0
ARC
  5
39486
  8
0
 10
2769.5602758636500766
 20
143.6559047574455121
 30
0.0
 40
15.1767326393825197
 50
180.9948257023301892
 51
183.4600053475363097
  0
ARC
  5
39487
  8
0
 10
2795.2240333257009297
 20
144.6631075821985917
 30
0.0
 40
40.8581107511490629
 50
182.6978453435372103
 51
183.1711396583980047
  0
ARC
  5
39488
  8
0
 10
2754.5228341094348252
 20
142.342082525236691
 30
0.0
 40
0.1122499283986955
 50
147.194744373800205
 51
175.6570710138609002
  0
ARC
  5
39489
  8
0
 10
2754.6153892120942146
 20
142.3350535289974061
 30
0.0
 40
0.2050715520451562
 50
175.6570710138609002
 51
191.1850107118821995
  0
ARC
  5
3948A
  8
0
 10
2755.243618611184047
 20
142.4747552672957056
 30
0.0
 40
0.8486032305716978
 50
192.2103718425873922
 51
205.2874388024677899
  0
ARC
  5
3948B
  8
0
 10
2755.6623130419111476
 20
142.7007628057984903
 30
0.0
 40
1.3239636952503779
 50
206.3910988760922862
 51
215.2530846023697109
  0
ARC
  5
3948C
  8
0
 10
2754.6077147790610979
 20
143.7195904397989921
 30
0.0
 40
0.019685040209194
 50
89.9891914189813775
 51
179.9999986642297074
  0
LINE
  5
3948D
  8
0
 10
2754.5880297388521285
 20
143.7195904402580027
 30
0.0
 11
2754.5880689652872206
 21
143.6903546773988012
 31
0.0
  0
ARC
  5
3948E
  8
0
 10
2754.8697791752520061
 20
143.7324268528236075
 30
0.0
 40
0.2848345315151627
 50
188.4940918189184913
 51
208.1665934544822107
  0
ARC
  5
3948F
  8
0
 10
2761.7123756951450559
 20
147.3962598827075965
 30
0.0
 40
8.0465868855217852
 50
208.1665934544822107
 51
209.4388084016138976
  0
ARC
  5
39490
  8
0
 10
2753.9410541364691198
 20
143.2536653428853981
 30
0.0
 40
0.7864403549332585
 50
9.6137435974638343
 51
13.8116349851618292
  0
LINE
  5
39491
  8
0
 10
2754.7164497275521171
 20
143.3850050139579935
 30
0.0
 11
2754.784880132552189
 21
143.3850050139579935
 31
0.0
  0
ARC
  5
39492
  8
0
 10
2754.6699799690732107
 20
143.6656543871206111
 30
0.0
 40
0.0738499875141278
 50
49.4990881856313294
 51
85.4877538291615622
  0
ARC
  5
39493
  8
0
 10
2754.5518674875229408
 20
143.5273668957302959
 30
0.0
 40
0.2557125415841975
 50
37.9854410071476494
 51
49.4990881856313294
  0
ARC
  5
39494
  8
0
 10
2755.4601569398701031
 20
144.3033810755705133
 30
0.0
 40
0.9392526983618809
 50
221.1965280247825945
 51
224.0320468279035993
  0
LINE
  5
39495
  8
0
 10
2754.784880132552189
 20
143.6505435269579891
 30
0.0
 11
2754.784880132552189
 21
142.4120676732362938
 31
0.0
  0
ARC
  5
39496
  8
0
 10
2754.7555236851330847
 20
142.4112186077971955
 30
0.0
 40
0.0293687234517076
 50
316.7703008554684061
 51
1.6566823418609651
  0
ARC
  5
39497
  8
0
 10
2755.0027710661520359
 20
142.2430478999033028
 30
0.0
 40
0.2700520710741813
 50
146.7531416311358896
 51
158.7493049973624011
  0
ARC
  5
39498
  8
0
 10
2754.8289491093828474
 20
142.3103022237567927
 30
0.0
 40
0.0836737315781027
 50
158.5299161677210975
 51
179.7982075323270976
  0
ARC
  5
39499
  8
0
 10
2754.7791001266600688
 20
142.3108661927252001
 30
0.0
 40
0.0338253017454537
 50
180.4561233740066086
 51
250.9225989452442889
  0
ARC
  5
3949A
  8
0
 10
2754.8188066465982047
 20
142.4302950749188881
 30
0.0
 40
0.1596799133410668
 50
251.4640601968559963
 51
267.4640537731975769
  0
ARC
  5
3949B
  8
0
 10
2754.821453887196185
 20
142.933421749859491
 30
0.0
 40
0.6626806655703469
 50
270.6388617953471112
 51
272.9660014709616007
  0
ARC
  5
3949C
  8
0
 10
2754.8197819727970455
 20
143.0833597637646903
 30
0.0
 40
0.8126280006970752
 50
269.4330775390516237
 51
270.6388617953471112
  0
LINE
  5
3949D
  8
0
 10
2754.8117414233438467
 20
142.2707715426579966
 30
0.0
 11
2754.5762187152517981
 21
142.2707715426579966
 31
0.0
  0
ARC
  5
3949E
  8
0
 10
2754.5762187152517981
 20
142.3101416213580137
 30
0.0
 40
0.0393700786999993
 50
180.0
 51
270.0
  0
LINE
  5
3949F
  8
0
 10
2754.5368486365518947
 20
142.3101416213580137
 30
0.0
 11
2754.5368486365518947
 21
143.672346345758001
 31
0.0
  0
ARC
  5
394A0
  8
0
 10
2754.5762187152517981
 20
143.672346345758001
 30
0.0
 40
0.0393700786999993
 50
90.0
 51
180.0
  0
LINE
  5
394A1
  8
0
 10
2754.5762187152517981
 20
143.7117164244579897
 30
0.0
 11
2754.5880403036371717
 21
143.7117164244579897
 31
0.0
  0
LINE
  5
394A2
  8
0
 10
2754.5880297388521285
 20
143.7195904397989921
 30
0.0
 11
2754.60818883615093
 21
143.7195882550579995
 31
0.0
  0
ARC
  5
394A3
  8
0
 10
2754.6081863933991372
 20
143.6970484311640917
 30
0.0
 40
0.0225398240262069
 50
49.419793518216629
 51
89.9937905730441372
  0
ARC
  5
394A4
  8
0
 10
2754.5539553008029543
 20
143.6184203104220956
 30
0.0
 40
0.1179568143021142
 50
36.4196975403606515
 51
54.2635930626072494
  0
ARC
  5
394A5
  8
0
 10
2755.5171825578149765
 20
144.365699547009001
 30
0.0
 40
1.1011928956841139
 50
217.9529211772438089
 51
221.8888144700968894
  0
ARC
  5
394A6
  8
0
 10
2754.6654320373968403
 20
143.6075443977146051
 30
0.0
 40
0.0393322120210181
 50
358.7767863603227738
 51
35.6116915679594896
  0
LINE
  5
394A7
  8
0
 10
2754.7047552862559314
 20
143.606704753958013
 30
0.0
 11
2754.7047552084909512
 21
143.4414198985845985
 31
0.0
  0
LINE
  5
394A8
  8
0
 10
2755.4575413722518533
 20
142.5508304121580068
 30
0.0
 11
2754.8208776573519572
 21
142.5508304121580068
 31
0.0
  0
ARC
  5
394A9
  8
0
 10
2754.8208776573519572
 20
142.6303046852418959
 30
0.0
 40
0.0794742730839033
 50
243.0671697509934006
 51
270.0
  0
LINE
  5
394AA
  8
0
 10
2754.784880132552189
 20
143.606704753958013
 30
0.0
 11
2754.7047551245518662
 21
143.606704753958013
 31
0.0
  0
ARC
  5
394AB
  8
0
 10
2754.5468506139859528
 20
143.5751205454648129
 30
0.0
 40
0.0169166348755911
 50
126.2458339169391053
 51
176.3071701958731126
  0
ARC
  5
394AC
  8
0
 10
2695.7514743432730029
 20
143.1730400182549943
 30
0.0
 40
58.7798774443885179
 50
0.1250357053487552
 51
0.3929937655265412
  0
ARC
  5
394AD
  8
0
 10
2754.5407911254251303
 20
143.29437977504179
 30
0.0
 40
0.0118258753715851
 50
109.4739463861492936
 51
144.0987762303010982
  0
ARC
  5
394AE
  8
0
 10
2754.540751210271992
 20
143.2944086700937021
 30
0.0
 40
0.0117765991753273
 50
144.0987762302983981
 51
180.0733687273213093
  0
LINE
  5
394AF
  8
0
 10
2754.5289746207517965
 20
143.2943935898580037
 30
0.0
 11
2754.5289746207517965
 21
142.6880948887464058
 31
0.0
  0
ARC
  5
394B0
  8
0
 10
2754.5410269478138616
 20
142.6881350221499929
 30
0.0
 40
0.0120523955967441
 50
180.1932217677513961
 51
249.7156841267228913
  0
ARC
  5
394B1
  8
0
 10
2691.6570145564178347
 20
142.8412242734279971
 30
0.0
 40
62.8744013553839807
 50
359.5862811192700974
 51
359.8541193422465199
  0
ARC
  5
394B2
  8
0
 10
2754.5458043655571601
 20
142.3871117340281955
 30
0.0
 40
0.0160279789484182
 50
179.5862811192683921
 51
236.0301912789807091
  0
LINE
  5
394B3
  8
0
 10
2754.5495367597100085
 20
142.1562200427337075
 30
0.0
 11
2754.5981828585518087
 21
142.1562200427337075
 31
0.0
  0
ARC
  5
394B4
  8
0
 10
2755.3993563703388645
 20
143.1305882574932014
 30
0.0
 40
1.261456465329764
 50
230.571274643780697
 51
244.4727149071514134
  0
ARC
  5
394B5
  8
0
 10
2755.136946594192068
 20
142.2890088750295092
 30
0.0
 40
1.668222623752786
 50
69.7096803000154637
 51
74.2148474302202459
  0
ARC
  5
394B6
  8
0
 10
2755.1927363474951562
 20
142.4399065223115883
 30
0.0
 40
1.5073419333983229
 50
58.8080427414061901
 51
69.7096803000154637
  0
ARC
  5
394B7
  8
0
 10
2755.464755027902811
 20
142.8892050732193013
 30
0.0
 40
0.9821149821295275
 50
51.3977423553542465
 51
58.8080427414061901
  0
ARC
  5
394B8
  8
0
 10
2756.0396870423278415
 20
143.6093517678853004
 30
0.0
 40
0.0606172430935488
 50
357.9639890888540208
 51
51.3977423553542465
  0
ARC
  5
394B9
  8
0
 10
2748.3286401475570528
 20
143.8834799383579934
 30
0.0
 40
7.776535235607243
 50
353.4230629222957987
 51
357.9639890888540208
  0
ARC
  5
394BA
  8
0
 10
2753.0795845347897739
 20
143.2813856155040071
 30
0.0
 40
2.9883822183913451
 50
339.7782345859276916
 51
354.4579088876024002
  0
ARC
  5
394BB
  8
0
 10
2754.8773762661530782
 20
142.6376784639269886
 30
0.0
 40
1.079042825861398
 50
320.1005475530889157
 51
338.8550764109762099
  0
ARC
  5
394BC
  8
0
 10
2755.1781157335308308
 20
142.3983049197510127
 30
0.0
 40
0.6948416188973539
 50
290.9544896229338065
 51
319.3364202134293919
  0
LINE
  5
394BD
  8
0
 10
2755.5866088468319504
 20
143.7948202928604076
 30
0.0
 11
2755.7290522625730773
 21
143.7522169654837114
 31
0.0
  0
ARC
  5
394BE
  8
0
 10
2755.699752760964202
 20
143.7002178241151
 30
0.0
 40
0.0596856054470875
 50
34.8445980733374228
 51
60.6004254753964275
  0
LINE
  5
394BF
  8
0
 10
2755.7487370194608047
 20
143.7343193477908869
 30
0.0
 11
2755.7534960590810442
 21
143.5240659144567985
 31
0.0
  0
LINE
  5
394C0
  8
0
 10
2755.7534960590810442
 20
143.5240659144567985
 30
0.0
 11
2755.7529223808519419
 21
142.3839215251580015
 31
0.0
  0
ARC
  5
394C1
  8
0
 10
2751.6066676694108537
 20
142.3860077662374124
 30
0.0
 40
4.146255236299897
 50
357.4811202943745911
 51
359.9711708982858909
  0
ARC
  5
394C2
  8
0
 10
2755.6526219193337965
 20
142.2163434536012971
 30
0.0
 40
0.0971102206195499
 50
321.7473389697150878
 51
352.570032635170719
  0
ARC
  5
394C3
  8
0
 10
2755.9135241428261907
 20
143.7475597085964125
 30
0.0
 40
0.2321915346472168
 50
288.2608894077901027
 51
323.5592935110636859
  0
ARC
  5
394C4
  8
0
 10
2755.8313563890578735
 20
143.9965821188044117
 30
0.0
 40
0.4944198713022259
 50
277.8366192479363121
 51
288.2608894077901027
  0
ARC
  5
394C5
  8
0
 10
2755.7675403968669343
 20
143.5395675461313942
 30
0.0
 40
0.014441655422968
 50
107.2941905917047052
 51
176.5214265458949967
  0
ARC
  5
394C6
  8
0
 10
2755.7731955978051701
 20
143.5282949244279962
 30
0.0
 40
0.026963741877335
 50
76.6384032825650507
 51
111.6511403079751972
  0
LINE
  5
394C7
  8
0
 10
2755.7794268062521041
 20
143.5545287845579878
 30
0.0
 11
2755.8677820721968601
 21
143.5284708303578043
 31
0.0
  0
ARC
  5
394C8
  8
0
 10
2755.8472154556370697
 20
143.4661093632626887
 30
0.0
 40
0.0656653507943801
 50
38.2692242077049798
 51
71.7476063016236196
  0
ARC
  5
394C9
  8
0
 10
2756.1321054822092265
 20
143.4714332255275906
 30
0.0
 40
0.2359975735907869
 50
171.3861312852606034
 51
171.4264039239126873
  0
ARC
  5
394CA
  8
0
 10
2756.7728493454751515
 20
143.4022224071904077
 30
0.0
 40
0.8803159202058253
 50
173.1894887551260069
 51
180.6390078189681958
  0
ARC
  5
394CB
  8
0
 10
2740.7181431659528243
 20
143.6559047574455121
 30
0.0
 40
15.1767326393825197
 50
356.5399946524635766
 51
359.0051742976697824
  0
ARC
  5
394CC
  8
0
 10
2715.0543857039019713
 20
144.6631075821985917
 30
0.0
 40
40.8581107511490629
 50
356.8288603416020237
 51
357.3021546564627897
  0
ARC
  5
394CD
  8
0
 10
2755.7555849201689853
 20
142.342082525236691
 30
0.0
 40
0.1122499283986955
 50
4.3429289861390972
 51
32.8052556261998092
  0
ARC
  5
394CE
  8
0
 10
2755.6630298175091411
 20
142.3350535289974061
 30
0.0
 40
0.2050715520451562
 50
348.814989288117772
 51
4.3429289861390972
  0
ARC
  5
394CF
  8
0
 10
2755.0348004184202182
 20
142.4747552672957056
 30
0.0
 40
0.8486032305716978
 50
334.7125611975321817
 51
347.7896281574124941
  0
ARC
  5
394D0
  8
0
 10
2754.6161059876922081
 20
142.7007628057984903
 30
0.0
 40
1.3239636952503779
 50
324.7469153976289817
 51
333.6089011239076854
  0
ARC
  5
394D1
  8
0
 10
2755.6706980978729007
 20
143.7195878909398061
 30
0.0
 40
0.0196911930438209
 50
0.0074177920095635
 51
91.0962920705660366
  0
LINE
  5
394D2
  8
0
 10
2755.6903892907521367
 20
143.7195904402580027
 30
0.0
 11
2755.6903500643170446
 21
143.6903546773988012
 31
0.0
  0
ARC
  5
394D3
  8
0
 10
2755.4086398543518044
 20
143.7324268528236075
 30
0.0
 40
0.2848345315151627
 50
331.8334065455176756
 51
351.5059081810815087
  0
ARC
  5
394D4
  8
0
 10
2748.566043334457845
 20
147.3962598827075965
 30
0.0
 40
8.0465868855217852
 50
330.561191598386074
 51
331.8334065455176756
  0
ARC
  5
394D5
  8
0
 10
2756.3373648931351454
 20
143.2536653428853981
 30
0.0
 40
0.7864403549332585
 50
166.188365014838098
 51
170.3862564025361905
  0
LINE
  5
394D6
  8
0
 10
2755.5619693020521481
 20
143.3850050139579935
 30
0.0
 11
2755.4935388970520762
 21
143.3850050139579935
 31
0.0
  0
ARC
  5
394D7
  8
0
 10
2755.6084390605310546
 20
143.6656543871206111
 30
0.0
 40
0.0738499875141278
 50
94.5122461708384236
 51
130.5009118143686067
  0
ARC
  5
394D8
  8
0
 10
2755.7265515420808697
 20
143.5273668957302959
 30
0.0
 40
0.2557125415841975
 50
130.5009118143686067
 51
142.0145589928523009
  0
ARC
  5
394D9
  8
0
 10
2754.8182620897341621
 20
144.3033810755705133
 30
0.0
 40
0.9392526983618809
 50
315.9679531720963723
 51
318.8034719752174055
  0
LINE
  5
394DA
  8
0
 10
2755.4935388970520762
 20
143.6505435269579891
 30
0.0
 11
2755.4935388970520762
 21
142.4120676732362938
 31
0.0
  0
ARC
  5
394DB
  8
0
 10
2755.5228953444711806
 20
142.4112186077971955
 30
0.0
 40
0.0293687234517076
 50
178.3433176581390001
 51
223.2296991445315939
  0
ARC
  5
394DC
  8
0
 10
2755.2756479634508651
 20
142.2430478999033028
 30
0.0
 40
0.2700520710741813
 50
21.2506950026375705
 51
33.2468583688640607
  0
ARC
  5
394DD
  8
0
 10
2755.4494699202209631
 20
142.3103022237567927
 30
0.0
 40
0.0836737315781027
 50
0.2017924676728383
 51
21.4700838322788989
  0
ARC
  5
394DE
  8
0
 10
2755.4993189029428322
 20
142.3108661927252001
 30
0.0
 40
0.0338253017454537
 50
289.0774010547556827
 51
359.5438766259933914
  0
ARC
  5
394DF
  8
0
 10
2755.4596123830060606
 20
142.4302950749188881
 30
0.0
 40
0.1596799133410668
 50
272.5359462268023094
 51
288.5359398031440037
  0
ARC
  5
394E0
  8
0
 10
2755.4569651424080803
 20
142.933421749859491
 30
0.0
 40
0.6626806655703469
 50
267.3745017871207779
 51
269.3611382046528888
  0
ARC
  5
394E1
  8
0
 10
2755.4586370568058555
 20
143.0833597637646903
 30
0.0
 40
0.8126280006970752
 50
269.3611382046528888
 51
270.5669224609483763
  0
LINE
  5
394E2
  8
0
 10
2755.4666776062599638
 20
142.2707715426579966
 30
0.0
 11
2755.7022003143520124
 21
142.2707715426579966
 31
0.0
  0
ARC
  5
394E3
  8
0
 10
2755.7022003143520124
 20
142.3101416213580137
 30
0.0
 40
0.0393700786999993
 50
270.0
 51
0.0
  0
LINE
  5
394E4
  8
0
 10
2755.7415703930519157
 20
142.3101416213580137
 30
0.0
 11
2755.7415703930519157
 21
143.672346345758001
 31
0.0
  0
ARC
  5
394E5
  8
0
 10
2755.7022003143520124
 20
143.672346345758001
 30
0.0
 40
0.0393700786999993
 50
0.0
 51
90.0
  0
LINE
  5
394E6
  8
0
 10
2755.7022003143520124
 20
143.7117164244579897
 30
0.0
 11
2755.690378725966184
 21
143.7117164244579897
 31
0.0
  0
LINE
  5
394E7
  8
0
 10
2755.6903892907521367
 20
143.7195904397989921
 30
0.0
 11
2755.670230193451971
 21
143.7195882550579995
 31
0.0
  0
ARC
  5
394E8
  8
0
 10
2755.6702326362042186
 20
143.6970484311640917
 30
0.0
 40
0.0225398240262069
 50
90.006209426955877
 51
130.580206481783307
  0
ARC
  5
394E9
  8
0
 10
2755.7244637287999467
 20
143.6184203104220956
 30
0.0
 40
0.1179568143021142
 50
125.7364069373927009
 51
143.5803024596393982
  0
ARC
  5
394EA
  8
0
 10
2754.761236471788834
 20
144.365699547009001
 30
0.0
 40
1.1011928956841139
 50
318.1111855299030822
 51
322.0470788227548837
  0
ARC
  5
394EB
  8
0
 10
2755.6129869922069702
 20
143.6075443977146051
 30
0.0
 40
0.0393322120210181
 50
144.3883084320405032
 51
181.2232136396771125
  0
LINE
  5
394EC
  8
0
 10
2755.5736637433478791
 20
143.606704753958013
 30
0.0
 11
2755.5736638211119498
 21
143.4414198985845985
 31
0.0
  0
ARC
  5
394ED
  8
0
 10
2755.4575413722518533
 20
142.6303046852418959
 30
0.0
 40
0.0794742730839033
 50
270.0
 51
296.9328302490067131
  0
LINE
  5
394EE
  8
0
 10
2755.4935388970520762
 20
143.606704753958013
 30
0.0
 11
2755.5736639050519443
 21
143.606704753958013
 31
0.0
  0
ARC
  5
394EF
  8
0
 10
2755.7315684156178577
 20
143.5751205454648129
 30
0.0
 40
0.0169166348755911
 50
3.6928298041268981
 51
53.7541660830609089
  0
ARC
  5
394F0
  8
0
 10
2814.5269446863298981
 20
143.1730400182549943
 30
0.0
 40
58.7798774443885179
 50
179.6070062344734026
 51
179.8749642946511926
  0
ARC
  5
394F1
  8
0
 10
2755.7376279041782254
 20
143.29437977504179
 30
0.0
 40
0.0118258753715851
 50
35.9012237696989231
 51
70.5260536138507064
  0
ARC
  5
394F2
  8
0
 10
2755.7376678193318185
 20
143.2944086700937021
 30
0.0
 40
0.0117765991753273
 50
359.9266312726770138
 51
35.9012237697015593
  0
LINE
  5
394F3
  8
0
 10
2755.749444408852014
 20
143.2943935898580037
 30
0.0
 11
2755.749444408852014
 21
142.6880948887464058
 31
0.0
  0
ARC
  5
394F4
  8
0
 10
2755.7373920817899489
 20
142.6881350221499929
 30
0.0
 40
0.0120523955967441
 50
290.2843158732770803
 51
359.8067782322485755
  0
ARC
  5
394F5
  8
0
 10
2818.6214044731859758
 20
142.8412242734279971
 30
0.0
 40
62.8744013553839807
 50
180.1458806577533949
 51
180.4137188807299026
  0
ARC
  5
394F6
  8
0
 10
2755.7326146640448314
 20
142.3871117340281955
 30
0.0
 40
0.0160279789484182
 50
303.9698087210192057
 51
0.4137188807315493
  0
LINE
  5
394F7
  8
0
 10
2755.7288822698928925
 20
142.1562200427337075
 30
0.0
 11
2755.6802361710520017
 21
142.1562200427337075
 31
0.0
  0
ARC
  5
394F8
  8
0
 10
2754.879062659264946
 20
143.1305882574932014
 30
0.0
 40
1.261456465329764
 50
295.7254403325871976
 51
309.4287253562192745
  0
ARC
  5
394F9
  8
0
 10
2755.1388387988199611
 20
148.7693179341079883
 30
0.0
 40
0.4885908846965976
 50
255.2463363185914034
 51
270.0436703840252903
  0
ARC
  5
394FA
  8
0
 10
2755.0922035810181114
 20
148.5921948596715083
 30
0.0
 40
0.305431317919219
 50
209.9827184322963944
 51
255.2446116812880916
  0
ARC
  5
394FB
  8
0
 10
2755.1747027143469495
 20
148.6106538536915878
 30
0.0
 40
0.3869388086261872
 50
177.4545997980879974
 51
206.2427696647465041
  0
LINE
  5
394FC
  8
0
 10
2754.7881456809509473
 20
148.6278381940580005
 30
0.0
 11
2754.7883914612530134
 21
148.8614198056068858
 31
0.0
  0
ARC
  5
394FD
  8
0
 10
2754.3862677833781163
 20
148.8915046548584087
 30
0.0
 40
0.403247544688447
 50
355.7213159794017088
 51
24.5017859881687983
  0
ARC
  5
394FE
  8
0
 10
2754.5341900092707874
 20
148.9764785026241043
 30
0.0
 40
0.233951538582463
 50
20.5863242704779204
 51
55.3688663521307376
  0
ARC
  5
394FF
  8
0
 10
2754.5522742124107936
 20
148.9806747363273871
 30
0.0
 40
0.2205758885018179
 50
58.6163789624229921
 51
68.6420477498637922
  0
ARC
  5
39500
  8
0
 10
2754.4748443014032091
 20
148.7583569816870863
 30
0.0
 40
0.4559110550011229
 50
69.7548753283140854
 51
77.9173376706860239
  0
ARC
  5
39501
  8
0
 10
2755.1002869848080081
 20
151.4083768215072894
 30
0.0
 40
2.267034848531166
 50
233.3310234159025072
 51
256.479689668245328
  0
ARC
  5
39502
  8
0
 10
2754.835064051208974
 20
151.1016943071240917
 30
0.0
 40
1.862891314933963
 50
187.273895668664494
 51
234.2410524789447948
  0
ARC
  5
39503
  8
0
 10
2754.9754847155290918
 20
151.0927459803253896
 30
0.0
 40
2.0012264604762611
 50
180.2316493053835131
 51
186.5107215718568057
  0
ARC
  5
39504
  8
0
 10
2754.7321677403060676
 20
151.062508600669787
 30
0.0
 40
1.7580326260627599
 50
163.3720538447481943
 51
179.278212289659109
  0
ARC
  5
39505
  8
0
 10
2754.8913713192991963
 20
150.9904256627328039
 30
0.0
 40
1.931348871973509
 50
123.6607301249704989
 51
162.6745358294801918
  0
ARC
  5
39506
  8
0
 10
2755.0934495687079107
 20
150.7271916082686971
 30
0.0
 40
2.2625641449761091
 50
106.8672690831038068
 51
124.2252690280272986
  0
ARC
  5
39507
  8
0
 10
2755.1380588768829512
 20
150.5891588425043039
 30
0.0
 40
2.4076037565841708
 50
89.9725772203347134
 51
106.9300768305691065
  0
ARC
  5
39508
  8
0
 10
2755.166942692108023
 20
150.8607972507508919
 30
0.0
 40
2.509204812464255
 50
90.6332404049222049
 51
109.9019696863338993
  0
ARC
  5
39509
  8
0
 10
2755.0417690764979852
 20
151.2104918480428069
 30
0.0
 40
2.1377850629687818
 50
109.9379478105849017
 51
145.9685089461090115
  0
ARC
  5
3950A
  8
0
 10
2754.7711173108259572
 20
151.430386343206095
 30
0.0
 40
1.7906884489188879
 50
146.952876834531196
 51
175.0672221011560907
  0
ARC
  5
3950B
  8
0
 10
2764.5564847147238652
 20
151.0757478331508992
 30
0.0
 40
11.5805980593481994
 50
177.482787410455586
 51
179.6546989669749905
  0
ARC
  5
3950C
  8
0
 10
2816.4159878180907981
 20
-1356.7704861945310313
 30
0.0
 40
1510.876108728456984
 50
92.3243890592970757
 51
92.331463568927191
  0
ARC
  5
3950D
  8
0
 10
2755.1327279249608182
 20
150.6283380294482015
 30
0.0
 40
2.2338479600645278
 50
94.619651732269773
 51
109.4243952615920961
  0
ARC
  5
3950E
  8
0
 10
2755.0693484891708067
 20
150.7841800255729936
 30
0.0
 40
2.06581395217954
 50
109.2040463917100936
 51
131.4885583891264105
  0
ARC
  5
3950F
  8
0
 10
2754.7790251096557768
 20
151.0860209788538953
 30
0.0
 40
1.6474709707277639
 50
130.8793386382751009
 51
154.7598860641193994
  0
ARC
  5
39510
  8
0
 10
2754.7609455669939962
 20
151.0441856048219904
 30
0.0
 40
1.649585662305691
 50
153.177554511788486
 51
174.0186199493973902
  0
ARC
  5
39511
  8
0
 10
2754.7337324873851685
 20
151.0497575612066896
 30
0.0
 40
1.6219423657489069
 50
174.1142061598565931
 51
203.3506445979512023
  0
ARC
  5
39512
  8
0
 10
2754.8956330617329513
 20
151.1230270933720021
 30
0.0
 40
1.7996262707570989
 50
203.4492787621805974
 51
228.3576193915336887
  0
ARC
  5
39513
  8
0
 10
2755.0553190361852103
 20
151.2968627731615072
 30
0.0
 40
2.0356464498256179
 50
228.2499817630557004
 51
243.2821697343158007
  0
ARC
  5
39514
  8
0
 10
2755.1180513384479127
 20
151.4225952848800034
 30
0.0
 40
2.1761590027126752
 50
243.2951890742120895
 51
259.2792328775311148
  0
ARC
  5
39515
  8
0
 10
2755.1397872013972119
 20
151.5191326089079098
 30
0.0
 40
2.2750572130982749
 50
259.1936481015688969
 51
267.9964405648145771
  0
ARC
  5
39516
  8
0
 10
2755.1344882217390477
 20
151.4121641225885071
 30
0.0
 40
0.0228423053872787
 50
131.8730963082745973
 51
206.4277935209127008
  0
ARC
  5
39517
  8
0
 10
2755.1392920692101143
 20
151.4068050868544901
 30
0.0
 40
0.0300392640873793
 50
58.2520492809918693
 51
131.8730963082745973
  0
ARC
  5
39518
  8
0
 10
2755.1425218464019053
 20
151.4120247658451888
 30
0.0
 40
0.0239011447111239
 50
322.1897260190297061
 51
58.2520492809918693
  0
ARC
  5
39519
  8
0
 10
2755.139119949185897
 20
151.416808913407209
 30
0.0
 40
0.0295702840681789
 50
243.2395870679584959
 51
318.9052934568020987
  0
ARC
  5
3951A
  8
0
 10
2755.1423108793519532
 20
151.418942049040794
 30
0.0
 40
0.0329658543242068
 50
210.9304215135099128
 51
239.9551545057258011
  0
ARC
  5
3951B
  8
0
 10
2755.1391981705378385
 20
151.523966458093696
 30
0.0
 40
0.0183720447591343
 50
67.8186705269049241
 51
111.6567317440949978
  0
ARC
  5
3951C
  8
0
 10
2755.7040683844720661
 20
150.3503678400091133
 30
0.0
 40
1.320790752535816
 50
115.6459685155678017
 51
119.8604209948522055
  0
ARC
  5
3951D
  8
0
 10
2755.0525447439158597
 20
151.4852155436774979
 30
0.0
 40
0.0122181084977599
 50
119.8604209948522055
 51
171.9136331584234085
  0
LINE
  5
3951E
  8
0
 10
2755.0404481181622032
 20
151.4869342119519899
 30
0.0
 11
2755.0405244785461036
 21
151.3959406789734885
 31
0.0
  0
ARC
  5
3951F
  8
0
 10
2755.0524716384770727
 20
151.3959835995879928
 30
0.0
 40
0.0119478741120953
 50
179.8107337521211093
 51
218.1124340019906924
  0
ARC
  5
39520
  8
0
 10
2755.0519679901240124
 20
151.3964566766933899
 30
0.0
 40
0.0118632709376341
 50
221.4132808108398933
 51
242.8272201674051018
  0
LINE
  5
39521
  8
0
 10
2755.0465503269520013
 20
151.3859027142580089
 30
0.0
 11
2755.0502876543928323
 21
151.3839807358280893
 31
0.0
  0
LINE
  5
39522
  8
0
 10
2755.1392111988411671
 20
151.3245755733539113
 30
0.0
 11
2755.0515881305591392
 21
151.3701190701303005
 31
0.0
  0
ARC
  5
39523
  8
0
 10
2755.0524999409599332
 20
151.3718733408973947
 30
0.0
 40
0.0019770847557943
 50
181.1885121818426967
 51
242.5361203116601132
  0
LINE
  5
39524
  8
0
 10
2755.0505232815498857
 20
151.3718323322781885
 30
0.0
 11
2755.0502876543928323
 21
151.3839807358280893
 31
0.0
  0
LINE
  5
39525
  8
0
 10
2755.0502712524180424
 20
151.3839804066228965
 30
0.0
 11
2755.0505275639520733
 21
151.4638006590579948
 31
0.0
  0
LINE
  5
39526
  8
0
 10
2755.0505275639520733
 20
151.4638006590579948
 30
0.0
 11
2755.1392111988411671
 21
151.5098455014413048
 31
0.0
  0
LINE
  5
39527
  8
0
 10
2755.1392111988411671
 20
151.5098455014413048
 30
0.0
 11
2755.2278949551509868
 21
151.4638078337580112
 31
0.0
  0
LINE
  5
39528
  8
0
 10
2755.2278949551509868
 20
151.4638078337580112
 30
0.0
 11
2755.22790400795202
 21
151.3717119026580065
 31
0.0
  0
ARC
  5
39529
  8
0
 10
2755.2261964523358984
 20
151.371711734809594
 30
0.0
 40
0.0017075556241048
 50
297.2462233744344076
 51
0.0056320319716395
  0
LINE
  5
3952A
  8
0
 10
2755.2269781974518992
 20
151.3701936370580086
 30
0.0
 11
2755.1392111988411671
 21
151.3245755733539113
 31
0.0
  0
ARC
  5
3952B
  8
0
 10
2754.5567636703940479
 20
150.3169252804576104
 30
0.0
 40
1.358552514204846
 50
60.1984203671864435
 51
64.2896078572886296
  0
ARC
  5
3952C
  8
0
 10
2755.2259012693029945
 20
151.4852307020167075
 30
0.0
 40
0.0121934668782603
 50
8.0436135549919392
 51
60.1984203671864435
  0
LINE
  5
3952D
  8
0
 10
2755.2379747749428134
 20
151.4869368954610991
 30
0.0
 11
2755.2379219915060276
 21
151.3966199279315106
 31
0.0
  0
ARC
  5
3952E
  8
0
 10
2755.2244955556870991
 20
151.3963518056281998
 30
0.0
 40
0.0134291127170984
 50
329.0798814942262993
 51
1.144029208969449
  0
ARC
  5
3952F
  8
0
 10
2755.2265757095419758
 20
151.3962810666700989
 30
0.0
 40
0.0116519308925186
 50
297.0386595956738915
 51
324.1161460201166733
  0
LINE
  5
39530
  8
0
 10
2755.2318725793520571
 20
151.3859026918580071
 30
0.0
 11
2755.2280632286069704
 21
151.3838119778123996
 31
0.0
  0
LINE
  5
39531
  8
0
 10
2755.049597883350998
 20
151.4975889141580012
 30
0.0
 11
2755.0502147629008505
 21
151.3877388564453952
 31
0.0
  0
ARC
  5
39532
  8
0
 10
2755.1161229449307939
 20
151.3881964549890995
 30
0.0
 40
0.0659097705576997
 50
180.3977964978373905
 51
182.4935501750910021
  0
LINE
  5
39533
  8
0
 10
2755.2288245143290624
 20
151.4975889141580012
 30
0.0
 11
2755.2282076347810289
 21
151.3877388564453952
 31
0.0
  0
ARC
  5
39534
  8
0
 10
2755.162299452750176
 20
151.3881964549890995
 30
0.0
 40
0.0659097705576997
 50
354.4218253845097024
 51
359.6022035021625811
  0
ARC
  5
39535
  8
0
 10
2754.9121193497107924
 20
151.2964651046802089
 30
0.0
 40
0.0228423053872787
 50
131.8730963082745973
 51
206.4277935209127008
  0
ARC
  5
39536
  8
0
 10
2754.916923197181859
 20
151.291106068946192
 30
0.0
 40
0.0300392640873793
 50
58.2520492809918693
 51
131.8730963082745973
  0
ARC
  5
39537
  8
0
 10
2754.9201529743741048
 20
151.2963257479368906
 30
0.0
 40
0.0239011447111239
 50
322.1897260190297061
 51
58.2520492809918693
  0
ARC
  5
39538
  8
0
 10
2754.9167510771580965
 20
151.3011098954989109
 30
0.0
 40
0.0295702840681789
 50
243.2395870679584959
 51
318.9052934568020987
  0
ARC
  5
39539
  8
0
 10
2754.9199420073250621
 20
151.3032430311326095
 30
0.0
 40
0.0329658543242068
 50
210.9304215135099128
 51
239.9551545057258011
  0
ARC
  5
3953A
  8
0
 10
2754.9168292985100379
 20
151.4082674401855115
 30
0.0
 40
0.0183720447591343
 50
67.8186705269049241
 51
111.6567317440949978
  0
ARC
  5
3953B
  8
0
 10
2755.4816995124438108
 20
150.2346688221007867
 30
0.0
 40
1.320790752535816
 50
115.6459685155678017
 51
119.8604209948522055
  0
ARC
  5
3953C
  8
0
 10
2754.8301758718880592
 20
151.3695165257693134
 30
0.0
 40
0.0122181084977599
 50
119.8604209948522055
 51
171.9136331584234085
  0
LINE
  5
3953D
  8
0
 10
2754.8180792461348574
 20
151.3712351940438054
 30
0.0
 11
2754.8181556065178484
 21
151.2802416610651903
 31
0.0
  0
ARC
  5
3953E
  8
0
 10
2754.8301027664488174
 20
151.2802845816796946
 30
0.0
 40
0.0119478741120953
 50
179.8107337521211093
 51
218.1124340019906924
  0
ARC
  5
3953F
  8
0
 10
2754.8295991180962119
 20
151.2807576587852054
 30
0.0
 40
0.0118632709376341
 50
221.4132808108398933
 51
242.8272201674051018
  0
LINE
  5
39540
  8
0
 10
2754.8241814549242008
 20
151.270203696349796
 30
0.0
 11
2754.8279187823659413
 21
151.2682817179199048
 31
0.0
  0
LINE
  5
39541
  8
0
 10
2754.9168423268129118
 20
151.2088765554456984
 30
0.0
 11
2754.8292192585317935
 21
151.2544200522220024
 31
0.0
  0
ARC
  5
39542
  8
0
 10
2754.8301310689321326
 20
151.2561743229890965
 30
0.0
 40
0.0019770847557943
 50
181.1885121818426967
 51
242.5361203116601132
  0
LINE
  5
39543
  8
0
 10
2754.8281544095220852
 20
151.2561333143698903
 30
0.0
 11
2754.8279187823659413
 21
151.2682817179199048
 31
0.0
  0
LINE
  5
39544
  8
0
 10
2754.8279023803897871
 20
151.268281388714712
 30
0.0
 11
2754.828158691923818
 21
151.3481016411496967
 31
0.0
  0
LINE
  5
39545
  8
0
 10
2754.828158691923818
 20
151.3481016411496967
 30
0.0
 11
2754.9168423268129118
 21
151.3941464835330066
 31
0.0
  0
LINE
  5
39546
  8
0
 10
2754.9168423268129118
 20
151.3941464835330066
 30
0.0
 11
2755.0055260831240957
 21
151.348108815849713
 31
0.0
  0
LINE
  5
39547
  8
0
 10
2755.0055260831240957
 20
151.348108815849713
 30
0.0
 11
2755.0055351359242195
 21
151.2560128847497083
 31
0.0
  0
ARC
  5
39548
  8
0
 10
2755.0038275803090073
 20
151.2560127169012958
 30
0.0
 40
0.0017075556241048
 50
297.2462233744344076
 51
0.0056320319716395
  0
LINE
  5
39549
  8
0
 10
2755.0046093254240986
 20
151.2544946191497104
 30
0.0
 11
2754.9168423268129118
 21
151.2088765554456984
 31
0.0
  0
ARC
  5
3954A
  8
0
 10
2754.3343947983657927
 20
150.2012262625493122
 30
0.0
 40
1.358552514204846
 50
60.1984203671864435
 51
64.2896078572886296
  0
ARC
  5
3954B
  8
0
 10
2755.0035323972751939
 20
151.3695316841084093
 30
0.0
 40
0.0121934668782603
 50
8.0436135549919392
 51
60.1984203671864435
  0
LINE
  5
3954C
  8
0
 10
2755.0156059029150128
 20
151.3712378775528009
 30
0.0
 11
2755.015553119478227
 21
151.2809209100232124
 31
0.0
  0
ARC
  5
3954D
  8
0
 10
2755.0021266836602081
 20
151.2806527877199869
 30
0.0
 40
0.0134291127170984
 50
329.0798814942262993
 51
1.144029208969449
  0
ARC
  5
3954E
  8
0
 10
2755.0042068375141753
 20
151.2805820487618007
 30
0.0
 40
0.0116519308925186
 50
297.0386595956738915
 51
324.1161460201166733
  0
LINE
  5
3954F
  8
0
 10
2755.0095037073238018
 20
151.2702036739497089
 30
0.0
 11
2755.0056943565791698
 21
151.2681129599041014
 31
0.0
  0
LINE
  5
39550
  8
0
 10
2754.827229011324107
 20
151.381889896249703
 30
0.0
 11
2754.8278458908730499
 21
151.272039838537097
 31
0.0
  0
ARC
  5
39551
  8
0
 10
2754.8937540729029934
 20
151.2724974370808013
 30
0.0
 40
0.0659097705576997
 50
180.3977964978373905
 51
182.4935501750910021
  0
LINE
  5
39552
  8
0
 10
2755.0064556423021713
 20
151.381889896249703
 30
0.0
 11
2755.0058387627527736
 21
151.272039838537097
 31
0.0
  0
ARC
  5
39553
  8
0
 10
2754.9399305807219207
 20
151.2724974370808013
 30
0.0
 40
0.0659097705576997
 50
354.4218253845097024
 51
359.6022035021625811
  0
ARC
  5
39554
  8
0
 10
2754.689867076399878
 20
151.1833911806903075
 30
0.0
 40
0.0228423053872787
 50
131.8730963082745973
 51
206.4277935209127008
  0
ARC
  5
39555
  8
0
 10
2754.694670923871854
 20
151.1780321449562905
 30
0.0
 40
0.0300392640873793
 50
58.2520492809918693
 51
131.8730963082745973
  0
ARC
  5
39556
  8
0
 10
2754.6979007010640998
 20
151.1832518239471028
 30
0.0
 40
0.0239011447111239
 50
322.1897260190297061
 51
58.2520492809918693
  0
ARC
  5
39557
  8
0
 10
2754.6944988038480915
 20
151.1880359715090094
 30
0.0
 40
0.0295702840681789
 50
243.2395870679584959
 51
318.9052934568020987
  0
ARC
  5
39558
  8
0
 10
2754.6976897340141477
 20
151.1901691071427081
 30
0.0
 40
0.0329658543242068
 50
210.9304215135099128
 51
239.9551545057258011
  0
ARC
  5
39559
  8
0
 10
2754.6945770252000329
 20
151.2951935161956101
 30
0.0
 40
0.0183720447591343
 50
67.8186705269049241
 51
111.6567317440949978
  0
ARC
  5
3955A
  8
0
 10
2755.2594472391328964
 20
150.1215948981109136
 30
0.0
 40
1.320790752535816
 50
115.6459685155678017
 51
119.8604209948522055
  0
ARC
  5
3955B
  8
0
 10
2754.6079235985780542
 20
151.2564426017794119
 30
0.0
 40
0.0122181084977599
 50
119.8604209948522055
 51
171.9136331584234085
  0
LINE
  5
3955C
  8
0
 10
2754.5958269728239429
 20
151.258161270053904
 30
0.0
 11
2754.5959033332069339
 21
151.1671677370752889
 31
0.0
  0
ARC
  5
3955D
  8
0
 10
2754.6078504931388125
 20
151.1672106576897932
 30
0.0
 40
0.0119478741120953
 50
179.8107337521211093
 51
218.1124340019906924
  0
ARC
  5
3955E
  8
0
 10
2754.6073468447862069
 20
151.167683734795304
 30
0.0
 40
0.0118632709376341
 50
221.4132808108398933
 51
242.8272201674051018
  0
LINE
  5
3955F
  8
0
 10
2754.6019291816128316
 20
151.1571297723598946
 30
0.0
 11
2754.6056665090550268
 21
151.1552077939300034
 31
0.0
  0
LINE
  5
39560
  8
0
 10
2754.6945900535019973
 20
151.0958026314557969
 30
0.0
 11
2754.606966985220879
 21
151.1413461282321009
 31
0.0
  0
ARC
  5
39561
  8
0
 10
2754.6078787956221277
 20
151.143100398999195
 30
0.0
 40
0.0019770847557943
 50
181.1885121818426967
 51
242.5361203116601132
  0
LINE
  5
39562
  8
0
 10
2754.6059021362111707
 20
151.1430593903801025
 30
0.0
 11
2754.6056665090550268
 21
151.1552077939300034
 31
0.0
  0
LINE
  5
39563
  8
0
 10
2754.6056501070788727
 20
151.1552074647248105
 30
0.0
 11
2754.605906418613813
 21
151.2350277171599089
 31
0.0
  0
LINE
  5
39564
  8
0
 10
2754.605906418613813
 20
151.2350277171599089
 30
0.0
 11
2754.6945900535019973
 21
151.2810725595431904
 31
0.0
  0
LINE
  5
39565
  8
0
 10
2754.6945900535019973
 20
151.2810725595431904
 30
0.0
 11
2754.7832738098140908
 21
151.2350348918598968
 31
0.0
  0
LINE
  5
39566
  8
0
 10
2754.7832738098140908
 20
151.2350348918598968
 30
0.0
 11
2754.7832828626128503
 21
151.1429389607598921
 31
0.0
  0
ARC
  5
39567
  8
0
 10
2754.7815753069971834
 20
151.142938792911508
 30
0.0
 40
0.0017075556241048
 50
297.2462233744344076
 51
0.0056320319716395
  0
LINE
  5
39568
  8
0
 10
2754.7823570521131842
 20
151.1414206951598942
 30
0.0
 11
2754.6945900535019973
 21
151.0958026314557969
 31
0.0
  0
ARC
  5
39569
  8
0
 10
2754.1121425250557877
 20
150.0881523385594107
 30
0.0
 40
1.358552514204846
 50
60.1984203671864435
 51
64.2896078572886296
  0
ARC
  5
3956A
  8
0
 10
2754.781280123965189
 20
151.2564577601185078
 30
0.0
 40
0.0121934668782603
 50
8.0436135549919392
 51
60.1984203671864435
  0
LINE
  5
3956B
  8
0
 10
2754.7933536296050079
 20
151.2581639535630131
 30
0.0
 11
2754.7933008461682221
 21
151.1678469860333109
 31
0.0
  0
ARC
  5
3956C
  8
0
 10
2754.7798744103488389
 20
151.1675788637301139
 30
0.0
 40
0.0134291127170984
 50
329.0798814942262993
 51
1.144029208969449
  0
ARC
  5
3956D
  8
0
 10
2754.7819545642028061
 20
151.1675081247720129
 30
0.0
 40
0.0116519308925186
 50
297.0386595956738915
 51
324.1161460201166733
  0
LINE
  5
3956E
  8
0
 10
2754.7872514340128873
 20
151.1571297499598927
 30
0.0
 11
2754.7834420832678006
 21
151.1550390359143137
 31
0.0
  0
LINE
  5
3956F
  8
0
 10
2754.604976738014102
 20
151.2688159722598868
 30
0.0
 11
2754.6055936175621355
 21
151.1589659145473092
 31
0.0
  0
ARC
  5
39570
  8
0
 10
2754.6715017995929884
 20
151.1594235130910135
 30
0.0
 40
0.0659097705576997
 50
180.3977964978373905
 51
182.4935501750910021
  0
LINE
  5
39571
  8
0
 10
2754.7842033689921664
 20
151.2688159722598868
 30
0.0
 11
2754.7835864894418592
 21
151.1589659145473092
 31
0.0
  0
ARC
  5
39572
  8
0
 10
2754.7176783074119157
 20
151.1594235130910135
 30
0.0
 40
0.0659097705576997
 50
354.4218253845097024
 51
359.6022035021625811
  0
ARC
  5
39573
  8
0
 10
2754.6901240479328408
 20
150.9533617446521987
 30
0.0
 40
0.0228423053872787
 50
131.8730963082745973
 51
206.4277935209127008
  0
ARC
  5
39574
  8
0
 10
2754.6949278954039073
 20
150.9480027089182101
 30
0.0
 40
0.0300392640873793
 50
58.2520492809918693
 51
131.8730963082745973
  0
ARC
  5
39575
  8
0
 10
2754.6981576725961531
 20
150.9532223879089088
 30
0.0
 40
0.0239011447111239
 50
322.1897260190297061
 51
58.2520492809918693
  0
ARC
  5
39576
  8
0
 10
2754.6947557753810543
 20
150.9580065354709006
 30
0.0
 40
0.0295702840681789
 50
243.2395870679584959
 51
318.9052934568020987
  0
ARC
  5
39577
  8
0
 10
2754.697946705546201
 20
150.9601396711045993
 30
0.0
 40
0.0329658543242068
 50
210.9304215135099128
 51
239.9551545057258011
  0
ARC
  5
39578
  8
0
 10
2754.6948339967320862
 20
151.0651640801575013
 30
0.0
 40
0.0183720447591343
 50
67.8186705269049241
 51
111.6567317440949978
  0
ARC
  5
39579
  8
0
 10
2755.2597042106672234
 20
149.8915654620728048
 30
0.0
 40
1.320790752535816
 50
115.6459685155678017
 51
119.8604209948522055
  0
ARC
  5
3957A
  8
0
 10
2754.608180570111017
 20
151.0264131657413031
 30
0.0
 40
0.0122181084977599
 50
119.8604209948522055
 51
171.9136331584234085
  0
LINE
  5
3957B
  8
0
 10
2754.5960839443569057
 20
151.0281318340157952
 30
0.0
 11
2754.5961603047398967
 21
150.9371383010372085
 31
0.0
  0
ARC
  5
3957C
  8
0
 10
2754.6081074646708657
 20
150.9371812216517128
 30
0.0
 40
0.0119478741120953
 50
179.8107337521211093
 51
218.1124340019906924
  0
ARC
  5
3957D
  8
0
 10
2754.6076038163178055
 20
150.9376542987571952
 30
0.0
 40
0.0118632709376341
 50
221.4132808108398933
 51
242.8272201674051018
  0
LINE
  5
3957E
  8
0
 10
2754.6021861531457944
 20
150.9271003363217858
 30
0.0
 11
2754.6059234805879896
 21
150.9251783578918946
 31
0.0
  0
LINE
  5
3957F
  8
0
 10
2754.6948470250349601
 20
150.8657731954176882
 30
0.0
 11
2754.6072239567538418
 21
150.9113166921941058
 31
0.0
  0
ARC
  5
39580
  8
0
 10
2754.6081357671550904
 20
150.9130709629610863
 30
0.0
 40
0.0019770847557943
 50
181.1885121818426967
 51
242.5361203116601132
  0
LINE
  5
39581
  8
0
 10
2754.6061591077441335
 20
150.9130299543419085
 30
0.0
 11
2754.6059234805879896
 21
150.9251783578918946
 31
0.0
  0
LINE
  5
39582
  8
0
 10
2754.6059070786118355
 20
150.9251780286867017
 30
0.0
 11
2754.6061633901458663
 21
151.0049982811216864
 31
0.0
  0
LINE
  5
39583
  8
0
 10
2754.6061633901458663
 20
151.0049982811216864
 30
0.0
 11
2754.6945900535019973
 21
151.0510431235051101
 31
0.0
  0
LINE
  5
39584
  8
0
 10
2754.6945900535019973
 20
151.0510431235051101
 30
0.0
 11
2754.7835307813461441
 21
151.005005455821788
 31
0.0
  0
LINE
  5
39585
  8
0
 10
2754.7835307813461441
 20
151.005005455821788
 30
0.0
 11
2754.7835398341458131
 21
150.9129095247218117
 31
0.0
  0
ARC
  5
39586
  8
0
 10
2754.7818322785301461
 20
150.912909356873314
 30
0.0
 40
0.0017075556241048
 50
297.2462233744344076
 51
0.0056320319716395
  0
LINE
  5
39587
  8
0
 10
2754.782614023646147
 20
150.9113912591218138
 30
0.0
 11
2754.6948470250349601
 21
150.8657731954176882
 31
0.0
  0
ARC
  5
39588
  8
0
 10
2754.112399496587841
 20
149.858122902521302
 30
0.0
 40
1.358552514204846
 50
60.1984203671864435
 51
64.2896078572886296
  0
ARC
  5
39589
  8
0
 10
2754.7815370954967875
 20
151.0264283240805128
 30
0.0
 40
0.0121934668782603
 50
8.0436135549919392
 51
60.1984203671864435
  0
LINE
  5
3958A
  8
0
 10
2754.7936106011370612
 20
151.0281345175249044
 30
0.0
 11
2754.7935578177011848
 21
150.9378175499952022
 31
0.0
  0
ARC
  5
3958B
  8
0
 10
2754.7801313818818016
 20
150.9375494276920051
 30
0.0
 40
0.0134291127170984
 50
329.0798814942262993
 51
1.144029208969449
  0
ARC
  5
3958C
  8
0
 10
2754.7822115357362236
 20
150.9374786887339042
 30
0.0
 40
0.0116519308925186
 50
297.0386595956738915
 51
324.1161460201166733
  0
LINE
  5
3958D
  8
0
 10
2754.7875084055458501
 20
150.9271003139216987
 30
0.0
 11
2754.7836990548012182
 21
150.9250095998762049
 31
0.0
  0
LINE
  5
3958E
  8
0
 10
2754.6052337095461553
 20
151.0387865362218065
 30
0.0
 11
2754.6058505890950983
 21
150.9289364785090868
 31
0.0
  0
ARC
  5
3958F
  8
0
 10
2754.6717587711250417
 20
150.9293940770527911
 30
0.0
 40
0.0659097705576997
 50
180.3977964978373905
 51
182.4935501750910021
  0
LINE
  5
39590
  8
0
 10
2754.7844603405242196
 20
151.0387865362218065
 30
0.0
 11
2754.7838434609748219
 21
150.9289364785090868
 31
0.0
  0
ARC
  5
39591
  8
0
 10
2754.7179352789448785
 20
150.9293940770527911
 30
0.0
 40
0.0659097705576997
 50
354.4218253845097024
 51
359.6022035021625811
  0
ARC
  5
39592
  8
0
 10
2754.6896843057488695
 20
150.725839200596198
 30
0.0
 40
0.0228423053872787
 50
131.8730963082745973
 51
206.4277935209127008
  0
ARC
  5
39593
  8
0
 10
2754.6944881532208456
 20
150.7204801648622947
 30
0.0
 40
0.0300392640873793
 50
58.2520492809918693
 51
131.8730963082745973
  0
ARC
  5
39594
  8
0
 10
2754.6977179304130914
 20
150.7256998438529934
 30
0.0
 40
0.0239011447111239
 50
322.1897260190297061
 51
58.2520492809918693
  0
ARC
  5
39595
  8
0
 10
2754.694316033197083
 20
150.7304839914150136
 30
0.0
 40
0.0295702840681789
 50
243.2395870679584959
 51
318.9052934568020987
  0
ARC
  5
39596
  8
0
 10
2754.6975069633631392
 20
150.7326171270487123
 30
0.0
 40
0.0329658543242068
 50
210.9304215135099128
 51
239.9551545057258011
  0
ARC
  5
39597
  8
0
 10
2754.6943942545490245
 20
150.8376415361015006
 30
0.0
 40
0.0183720447591343
 50
67.8186705269049241
 51
111.6567317440949978
  0
ARC
  5
39598
  8
0
 10
2755.2592644684827974
 20
149.6640429180168894
 30
0.0
 40
1.320790752535816
 50
115.6459685155678017
 51
119.8604209948522055
  0
ARC
  5
39599
  8
0
 10
2754.6077408279270458
 20
150.7988906216853024
 30
0.0
 40
0.0122181084977599
 50
119.8604209948522055
 51
171.9136331584234085
  0
LINE
  5
3959A
  8
0
 10
2754.5956442021729345
 20
150.8006092899597945
 30
0.0
 11
2754.5957205625559254
 21
150.7096157569812931
 31
0.0
  0
ARC
  5
3959B
  8
0
 10
2754.6076677224868945
 20
150.7096586775957974
 30
0.0
 40
0.0119478741120953
 50
179.8107337521211093
 51
218.1124340019906924
  0
ARC
  5
3959C
  8
0
 10
2754.6071640741351985
 20
150.7101317547011945
 30
0.0
 40
0.0118632709376341
 50
221.4132808108398933
 51
242.8272201674051018
  0
LINE
  5
3959D
  8
0
 10
2754.6017464109618231
 20
150.6995777922658135
 30
0.0
 11
2754.6054837384040184
 21
150.6976558138358939
 31
0.0
  0
LINE
  5
3959E
  8
0
 10
2754.6944072828509888
 20
150.6382506513616875
 30
0.0
 11
2754.6067842145698705
 21
150.6837941481381051
 31
0.0
  0
ARC
  5
3959F
  8
0
 10
2754.6076960249711192
 20
150.6855484189051992
 30
0.0
 40
0.0019770847557943
 50
181.1885121818426967
 51
242.5361203116601132
  0
LINE
  5
395A0
  8
0
 10
2754.6057193655610718
 20
150.6855074102859078
 30
0.0
 11
2754.6054837384040184
 21
150.6976558138358939
 31
0.0
  0
LINE
  5
395A1
  8
0
 10
2754.6054673364287737
 20
150.697655484630701
 30
0.0
 11
2754.6057236479628045
 21
150.7774757370657994
 31
0.0
  0
LINE
  5
395A2
  8
0
 10
2754.6057236479628045
 20
150.7774757370657994
 30
0.0
 11
2754.6944072828509888
 21
150.8235205794491094
 31
0.0
  0
LINE
  5
395A3
  8
0
 10
2754.6944072828509888
 20
150.8235205794491094
 30
0.0
 11
2754.7830910391621728
 21
150.7774829117657873
 31
0.0
  0
LINE
  5
395A4
  8
0
 10
2754.7830910391621728
 20
150.7774829117657873
 30
0.0
 11
2754.7831000919618418
 21
150.6853869806658111
 31
0.0
  0
ARC
  5
395A5
  8
0
 10
2754.7813925363461749
 20
150.6853868128173985
 30
0.0
 40
0.0017075556241048
 50
297.2462233744344076
 51
0.0056320319716395
  0
LINE
  5
395A6
  8
0
 10
2754.7821742814630852
 20
150.6838687150658131
 30
0.0
 11
2754.6944072828509888
 21
150.6382506513616875
 31
0.0
  0
ARC
  5
395A7
  8
0
 10
2754.1119597544038697
 20
149.6306003584653865
 30
0.0
 40
1.358552514204846
 50
60.1984203671864435
 51
64.2896078572886296
  0
ARC
  5
395A8
  8
0
 10
2754.7810973533128163
 20
150.7989057800245121
 30
0.0
 40
0.0121934668782603
 50
8.0436135549919392
 51
60.1984203671864435
  0
LINE
  5
395A9
  8
0
 10
2754.7931708589539994
 20
150.8006119734689037
 30
0.0
 11
2754.7931180755172136
 21
150.7102950059392867
 31
0.0
  0
ARC
  5
395AA
  8
0
 10
2754.7796916396978304
 20
150.7100268836360044
 30
0.0
 40
0.0134291127170984
 50
329.0798814942262993
 51
1.144029208969449
  0
ARC
  5
395AB
  8
0
 10
2754.7817717935517976
 20
150.7099561446779035
 30
0.0
 40
0.0116519308925186
 50
297.0386595956738915
 51
324.1161460201166733
  0
LINE
  5
395AC
  8
0
 10
2754.7870686633618789
 20
150.6995777698658117
 30
0.0
 11
2754.7832593126167922
 21
150.6974870558202042
 31
0.0
  0
LINE
  5
395AD
  8
0
 10
2754.6047939673630935
 20
150.8112639921658058
 30
0.0
 11
2754.605410846911127
 21
150.7014139344531998
 31
0.0
  0
ARC
  5
395AE
  8
0
 10
2754.6713190289419799
 20
150.7018715329969041
 30
0.0
 40
0.0659097705576997
 50
180.3977964978373905
 51
182.4935501750910021
  0
LINE
  5
395AF
  8
0
 10
2754.7840205983397937
 20
150.8112639921658058
 30
0.0
 11
2754.7834037187908507
 21
150.7014139344531998
 31
0.0
  0
ARC
  5
395B0
  8
0
 10
2754.7174955367609073
 20
150.7018715329969041
 30
0.0
 40
0.0659097705576997
 50
354.4218253845097024
 51
359.6022035021625811
  0
ARC
  5
395B1
  8
0
 10
2754.911755825938144
 20
150.6102535087030105
 30
0.0
 40
0.0228423053872787
 50
131.8730963082745973
 51
206.4277935209127008
  0
ARC
  5
395B2
  8
0
 10
2754.91655967341012
 20
150.6048944729689936
 30
0.0
 40
0.0300392640873793
 50
58.2520492809918693
 51
131.8730963082745973
  0
ARC
  5
395B3
  8
0
 10
2754.9197894506019111
 20
150.6101141519596922
 30
0.0
 40
0.0239011447111239
 50
322.1897260190297061
 51
58.2520492809918693
  0
ARC
  5
395B4
  8
0
 10
2754.9163875533849932
 20
150.6148982995217125
 30
0.0
 40
0.0295702840681789
 50
243.2395870679584959
 51
318.9052934568020987
  0
ARC
  5
395B5
  8
0
 10
2754.9195784835519589
 20
150.6170314351554111
 30
0.0
 40
0.0329658543242068
 50
210.9304215135099128
 51
239.9551545057258011
  0
ARC
  5
395B6
  8
0
 10
2754.9164657747378442
 20
150.7220558442083131
 30
0.0
 40
0.0183720447591343
 50
67.8186705269049241
 51
111.6567317440949978
  0
ARC
  5
395B7
  8
0
 10
2755.4813359886720718
 20
149.5484572261235883
 30
0.0
 40
1.320790752535816
 50
115.6459685155678017
 51
119.8604209948522055
  0
ARC
  5
395B8
  8
0
 10
2754.8298123481158655
 20
150.6833049297920866
 30
0.0
 40
0.0122181084977599
 50
119.8604209948522055
 51
171.9136331584234085
  0
LINE
  5
395B9
  8
0
 10
2754.8177157223622089
 20
150.6850235980666071
 30
0.0
 11
2754.8177920827451999
 21
150.5940300650881056
 31
0.0
  0
ARC
  5
395BA
  8
0
 10
2754.8297392426761689
 20
150.5940729857024962
 30
0.0
 40
0.0119478741120953
 50
179.8107337521211093
 51
218.1124340019906924
  0
ARC
  5
395BB
  8
0
 10
2754.8292355943240182
 20
150.594546062808007
 30
0.0
 40
0.0118632709376341
 50
221.4132808108398933
 51
242.8272201674051018
  0
LINE
  5
395BC
  8
0
 10
2754.8238179311510976
 20
150.5839921003725976
 30
0.0
 11
2754.8275552585928381
 21
150.5820701219427065
 31
0.0
  0
LINE
  5
395BD
  8
0
 10
2754.9164788030398086
 20
150.5226649594683863
 30
0.0
 11
2754.828855734759145
 21
150.568208456244804
 31
0.0
  0
ARC
  5
395BE
  8
0
 10
2754.8297675451599389
 20
150.5699627270118981
 30
0.0
 40
0.0019770847557943
 50
181.1885121818426967
 51
242.5361203116601132
  0
LINE
  5
395BF
  8
0
 10
2754.8277908857498915
 20
150.5699217183926919
 30
0.0
 11
2754.8275552585928381
 21
150.5820701219427065
 31
0.0
  0
LINE
  5
395C0
  8
0
 10
2754.8275388566180482
 20
150.5820697927375136
 30
0.0
 11
2754.8277951681511695
 21
150.661890045172612
 31
0.0
  0
LINE
  5
395C1
  8
0
 10
2754.8277951681511695
 20
150.661890045172612
 30
0.0
 11
2754.9164788030398086
 21
150.7079348875558935
 31
0.0
  0
LINE
  5
395C2
  8
0
 10
2754.9164788030398086
 20
150.7079348875558935
 30
0.0
 11
2755.0051625593509925
 21
150.6618972198724862
 31
0.0
  0
LINE
  5
395C3
  8
0
 10
2755.0051625593509925
 20
150.6618972198724862
 30
0.0
 11
2755.0051716121511163
 21
150.5698012887725952
 31
0.0
  0
ARC
  5
395C4
  8
0
 10
2755.0034640565359041
 20
150.5698011209240974
 30
0.0
 40
0.0017075556241048
 50
297.2462233744344076
 51
0.0056320319716395
  0
LINE
  5
395C5
  8
0
 10
2755.0042458016519049
 20
150.5682830231725973
 30
0.0
 11
2754.9164788030398086
 21
150.5226649594683863
 31
0.0
  0
ARC
  5
395C6
  8
0
 10
2754.3340312745940537
 20
149.5150146665721138
 30
0.0
 40
1.358552514204846
 50
60.1984203671864435
 51
64.2896078572886296
  0
ARC
  5
395C7
  8
0
 10
2755.0031688735030002
 20
150.6833200881312109
 30
0.0
 40
0.0121934668782603
 50
8.0436135549919392
 51
60.1984203671864435
  0
LINE
  5
395C8
  8
0
 10
2755.0152423791428191
 20
150.6850262815756878
 30
0.0
 11
2755.0151895957060333
 21
150.594709314046014
 31
0.0
  0
ARC
  5
395C9
  8
0
 10
2755.0017631598871048
 20
150.5944411917427885
 30
0.0
 40
0.0134291127170984
 50
329.0798814942262993
 51
1.144029208969449
  0
ARC
  5
395CA
  8
0
 10
2755.0038433137419815
 20
150.5943704527846876
 30
0.0
 40
0.0116519308925186
 50
297.0386595956738915
 51
324.1161460201166733
  0
LINE
  5
395CB
  8
0
 10
2755.0091401835511533
 20
150.5839920779725958
 30
0.0
 11
2755.0053308328060666
 21
150.5819013639269883
 31
0.0
  0
LINE
  5
395CC
  8
0
 10
2754.8268654875510038
 20
150.6956783002725899
 30
0.0
 11
2754.8274823670999467
 21
150.5858282425600123
 31
0.0
  0
ARC
  5
395CD
  8
0
 10
2754.8933905491298901
 20
150.5862858411036029
 30
0.0
 40
0.0659097705576997
 50
180.3977964978373905
 51
182.4935501750910021
  0
LINE
  5
395CE
  8
0
 10
2755.0060921185290681
 20
150.6956783002725899
 30
0.0
 11
2755.0054752389810346
 21
150.5858282425600123
 31
0.0
  0
ARC
  5
395CF
  8
0
 10
2754.9395670569501817
 20
150.5862858411036029
 30
0.0
 40
0.0659097705576997
 50
354.4218253845097024
 51
359.6022035021625811
  0
ARC
  5
395D0
  8
0
 10
2755.134488541616065
 20
150.4970583096886116
 30
0.0
 40
0.0228423053872787
 50
131.8730963082745973
 51
206.4277935209127008
  0
ARC
  5
395D1
  8
0
 10
2755.1392923890871316
 20
150.4916992739545947
 30
0.0
 40
0.0300392640873793
 50
58.2520492809918693
 51
131.8730963082745973
  0
ARC
  5
395D2
  8
0
 10
2755.1425221662789227
 20
150.4969189529452933
 30
0.0
 40
0.0239011447111239
 50
322.1897260190297061
 51
58.2520492809918693
  0
ARC
  5
395D3
  8
0
 10
2755.1391202690638238
 20
150.5017031005073136
 30
0.0
 40
0.0295702840681789
 50
243.2395870679584959
 51
318.9052934568020987
  0
ARC
  5
395D4
  8
0
 10
2755.1423111992289705
 20
150.5038362361410123
 30
0.0
 40
0.0329658543242068
 50
210.9304215135099128
 51
239.9551545057258011
  0
ARC
  5
395D5
  8
0
 10
2755.1391984904148558
 20
150.6088606451938858
 30
0.0
 40
0.0183720447591343
 50
67.8186705269049241
 51
111.6567317440949978
  0
ARC
  5
395D6
  8
0
 10
2755.7040687043490834
 20
149.4352620271091894
 30
0.0
 40
1.320790752535816
 50
115.6459685155678017
 51
119.8604209948522055
  0
ARC
  5
395D7
  8
0
 10
2755.0525450637937865
 20
150.5701097307776877
 30
0.0
 40
0.0122181084977599
 50
119.8604209948522055
 51
171.9136331584234085
  0
LINE
  5
395D8
  8
0
 10
2755.04044843804013
 20
150.5718283990522082
 30
0.0
 11
2755.040524798423121
 21
150.480834866073593
 31
0.0
  0
ARC
  5
395D9
  8
0
 10
2755.05247195835409
 20
150.4808777866880973
 30
0.0
 40
0.0119478741120953
 50
179.8107337521211093
 51
218.1124340019906924
  0
ARC
  5
395DA
  8
0
 10
2755.0519683100019392
 20
150.4813508637936081
 30
0.0
 40
0.0118632709376341
 50
221.4132808108398933
 51
242.8272201674051018
  0
LINE
  5
395DB
  8
0
 10
2755.0465506468299282
 20
150.4707969013581987
 30
0.0
 11
2755.0502879742712139
 21
150.4688749229283076
 31
0.0
  0
LINE
  5
395DC
  8
0
 10
2755.1392115187181844
 20
150.4094697604541011
 30
0.0
 11
2755.0515884504370661
 21
150.4550132572304051
 31
0.0
  0
ARC
  5
395DD
  8
0
 10
2755.05250026083786
 20
150.4567675279974992
 30
0.0
 40
0.0019770847557943
 50
181.1885121818426967
 51
242.5361203116601132
  0
LINE
  5
395DE
  8
0
 10
2755.050523601426903
 20
150.456726519378293
 30
0.0
 11
2755.0502879742712139
 21
150.4688749229283076
 31
0.0
  0
LINE
  5
395DF
  8
0
 10
2755.0502715722950597
 20
150.4688745937230863
 30
0.0
 11
2755.0505278838290906
 21
150.5486948461580994
 31
0.0
  0
LINE
  5
395E0
  8
0
 10
2755.0505278838290906
 20
150.5486948461580994
 30
0.0
 11
2755.1392115187181844
 21
150.5947396885414946
 31
0.0
  0
LINE
  5
395E1
  8
0
 10
2755.1392115187181844
 20
150.5947396885414946
 30
0.0
 11
2755.2278952750289136
 21
150.5487020208580873
 31
0.0
  0
LINE
  5
395E2
  8
0
 10
2755.2278952750289136
 20
150.5487020208580873
 30
0.0
 11
2755.2279043278290374
 21
150.456606089758111
 31
0.0
  0
ARC
  5
395E3
  8
0
 10
2755.2261967722129157
 20
150.4566059219096985
 30
0.0
 40
0.0017075556241048
 50
297.2462233744344076
 51
0.0056320319716395
  0
LINE
  5
395E4
  8
0
 10
2755.2269785173289165
 20
150.4550878241581131
 30
0.0
 11
2755.1392115187181844
 21
150.4094697604541011
 31
0.0
  0
ARC
  5
395E5
  8
0
 10
2754.5567639902710653
 20
149.4018194675576865
 30
0.0
 40
1.358552514204846
 50
60.1984203671864435
 51
64.2896078572886296
  0
ARC
  5
395E6
  8
0
 10
2755.2259015891800118
 20
150.570124889116812
 30
0.0
 40
0.0121934668782603
 50
8.0436135549919392
 51
60.1984203671864435
  0
LINE
  5
395E7
  8
0
 10
2755.2379750948211949
 20
150.5718310825612036
 30
0.0
 11
2755.2379223113839544
 21
150.4815141150315867
 31
0.0
  0
ARC
  5
395E8
  8
0
 10
2755.2244958755650259
 20
150.4812459927283044
 30
0.0
 40
0.0134291127170984
 50
329.0798814942262993
 51
1.144029208969449
  0
ARC
  5
395E9
  8
0
 10
2755.2265760294189931
 20
150.4811752537702034
 30
0.0
 40
0.0116519308925186
 50
297.0386595956738915
 51
324.1161460201166733
  0
LINE
  5
395EA
  8
0
 10
2755.2318728992290744
 20
150.4707968789581116
 30
0.0
 11
2755.2280635484839877
 21
150.4687061649125042
 31
0.0
  0
LINE
  5
395EB
  8
0
 10
2755.0495982032289248
 20
150.5824831012581058
 30
0.0
 11
2755.0502150827778678
 21
150.4726330435454997
 31
0.0
  0
ARC
  5
395EC
  8
0
 10
2755.1161232648078112
 20
150.473090642089204
 30
0.0
 40
0.0659097705576997
 50
180.3977964978373905
 51
182.4935501750910021
  0
LINE
  5
395ED
  8
0
 10
2755.2288248342069892
 20
150.5824831012581058
 30
0.0
 11
2755.2282079546589557
 21
150.4726330435454997
 31
0.0
  0
ARC
  5
395EE
  8
0
 10
2755.1622997726281028
 20
150.473090642089204
 30
0.0
 40
0.0659097705576997
 50
354.4218253845097024
 51
359.6022035021625811
  0
ARC
  5
395EF
  8
0
 10
2755.3578711033828768
 20
150.6102398902000061
 30
0.0
 40
0.0228423053872787
 50
131.8730963082745973
 51
206.4277935209127008
  0
ARC
  5
395F0
  8
0
 10
2755.3626749508548528
 20
150.6048808544661028
 30
0.0
 40
0.0300392640873793
 50
58.2520492809918693
 51
131.8730963082745973
  0
ARC
  5
395F1
  8
0
 10
2755.3659047280480081
 20
150.6101005334568015
 30
0.0
 40
0.0239011447111239
 50
322.1897260190297061
 51
58.2520492809918693
  0
ARC
  5
395F2
  8
0
 10
2755.3625028308319997
 20
150.6148846810187081
 30
0.0
 40
0.0295702840681789
 50
243.2395870679584959
 51
318.9052934568020987
  0
ARC
  5
395F3
  8
0
 10
2755.3656937609971465
 20
150.6170178166524067
 30
0.0
 40
0.0329658543242068
 50
210.9304215135099128
 51
239.9551545057258011
  0
ARC
  5
395F4
  8
0
 10
2755.3625810521839412
 20
150.7220422257053087
 30
0.0
 40
0.0183720447591343
 50
67.8186705269049241
 51
111.6567317440949978
  0
ARC
  5
395F5
  8
0
 10
2755.9274512661181689
 20
149.5484436076206123
 30
0.0
 40
1.320790752535816
 50
115.6459685155678017
 51
119.8604209948522055
  0
ARC
  5
395F6
  8
0
 10
2755.275927625561053
 20
150.6832913112891106
 30
0.0
 40
0.0122181084977599
 50
119.8604209948522055
 51
171.9136331584234085
  0
LINE
  5
395F7
  8
0
 10
2755.2638309998078512
 20
150.6850099795636027
 30
0.0
 11
2755.2639073601908422
 21
150.5940164465849875
 31
0.0
  0
ARC
  5
395F8
  8
0
 10
2755.2758545201218112
 20
150.5940593671994918
 30
0.0
 40
0.0119478741120953
 50
179.8107337521211093
 51
218.1124340019906924
  0
ARC
  5
395F9
  8
0
 10
2755.2753508717701152
 20
150.5945324443050026
 30
0.0
 40
0.0118632709376341
 50
221.4132808108398933
 51
242.8272201674051018
  0
LINE
  5
395FA
  8
0
 10
2755.2699332085971946
 20
150.5839784818695932
 30
0.0
 11
2755.2736705360389351
 21
150.5820565034397021
 31
0.0
  0
LINE
  5
395FB
  8
0
 10
2755.3625940804859056
 20
150.5226513409654956
 30
0.0
 11
2755.2749710122038778
 21
150.5681948377417996
 31
0.0
  0
ARC
  5
395FC
  8
0
 10
2755.2758828226060359
 20
150.5699491085088937
 30
0.0
 40
0.0019770847557943
 50
181.1885121818426967
 51
242.5361203116601132
  0
LINE
  5
395FD
  8
0
 10
2755.273906163195079
 20
150.5699080998896875
 30
0.0
 11
2755.2736705360389351
 21
150.5820565034397021
 31
0.0
  0
LINE
  5
395FE
  8
0
 10
2755.2736541340627809
 20
150.5820561742345092
 30
0.0
 11
2755.2739104455968118
 21
150.6618764266694939
 31
0.0
  0
LINE
  5
395FF
  8
0
 10
2755.2739104455968118
 20
150.6618764266694939
 30
0.0
 11
2755.3625940804859056
 21
150.7079212690528891
 31
0.0
  0
LINE
  5
39600
  8
0
 10
2755.3625940804859056
 20
150.7079212690528891
 30
0.0
 11
2755.4512778367970895
 21
150.6618836013695955
 31
0.0
  0
LINE
  5
39601
  8
0
 10
2755.4512778367970895
 20
150.6618836013695955
 30
0.0
 11
2755.4512868895972133
 21
150.5697876702695908
 31
0.0
  0
ARC
  5
39602
  8
0
 10
2755.4495793339810916
 20
150.569787502421093
 30
0.0
 40
0.0017075556241048
 50
297.2462233744344076
 51
0.0056320319716395
  0
LINE
  5
39603
  8
0
 10
2755.4503610790970924
 20
150.5682694046695929
 30
0.0
 11
2755.3625940804859056
 21
150.5226513409654956
 31
0.0
  0
ARC
  5
39604
  8
0
 10
2754.7801465520401507
 20
149.5150010480691094
 30
0.0
 40
1.358552514204846
 50
60.1984203671864435
 51
64.2896078572886296
  0
ARC
  5
39605
  8
0
 10
2755.4492841509490972
 20
150.6833064696282065
 30
0.0
 40
0.0121934668782603
 50
8.0436135549919392
 51
60.1984203671864435
  0
LINE
  5
39606
  8
0
 10
2755.4613576565889161
 20
150.6850126630727118
 30
0.0
 11
2755.4613048731521303
 21
150.5946956955430096
 31
0.0
  0
ARC
  5
39607
  8
0
 10
2755.4478784373332019
 20
150.5944275732398125
 30
0.0
 40
0.0134291127170984
 50
329.0798814942262993
 51
1.144029208969449
  0
ARC
  5
39608
  8
0
 10
2755.4499585911871691
 20
150.5943568342817116
 30
0.0
 40
0.0116519308925186
 50
297.0386595956738915
 51
324.1161460201166733
  0
LINE
  5
39609
  8
0
 10
2755.4552554609981598
 20
150.5839784594695914
 30
0.0
 11
2755.4514461102521636
 21
150.5818877454240123
 31
0.0
  0
LINE
  5
3960A
  8
0
 10
2755.2729807649971008
 20
150.6956646817696139
 30
0.0
 11
2755.2735976445460437
 21
150.5858146240568942
 31
0.0
  0
ARC
  5
3960B
  8
0
 10
2755.3395058265759872
 20
150.5862722226005985
 30
0.0
 40
0.0659097705576997
 50
180.3977964978373905
 51
182.4935501750910021
  0
LINE
  5
3960C
  8
0
 10
2755.4522073959751651
 20
150.6956646817696139
 30
0.0
 11
2755.4515905164262222
 21
150.5858146240568942
 31
0.0
  0
ARC
  5
3960D
  8
0
 10
2755.385682334395824
 20
150.5862722226005985
 30
0.0
 40
0.0659097705576997
 50
354.4218253845097024
 51
359.6022035021625811
  0
ARC
  5
3960E
  8
0
 10
2755.5799725994379514
 20
150.725833511038104
 30
0.0
 40
0.0228423053872787
 50
131.8730963082745973
 51
206.4277935209127008
  0
ARC
  5
3960F
  8
0
 10
2755.5847764469099275
 20
150.720474475304087
 30
0.0
 40
0.0300392640873793
 50
58.2520492809918693
 51
131.8730963082745973
  0
ARC
  5
39610
  8
0
 10
2755.5880062241021733
 20
150.7256941542948141
 30
0.0
 40
0.0239011447111239
 50
322.1897260190297061
 51
58.2520492809918693
  0
ARC
  5
39611
  8
0
 10
2755.5846043268861649
 20
150.730478301856806
 30
0.0
 40
0.0295702840681789
 50
243.2395870679584959
 51
318.9052934568020987
  0
ARC
  5
39612
  8
0
 10
2755.5877952570508569
 20
150.7326114374905046
 30
0.0
 40
0.0329658543242068
 50
210.9304215135099128
 51
239.9551545057258011
  0
ARC
  5
39613
  8
0
 10
2755.5846825482381064
 20
150.8376358465434066
 30
0.0
 40
0.0183720447591343
 50
67.8186705269049241
 51
111.6567317440949978
  0
ARC
  5
39614
  8
0
 10
2756.1495527621718793
 20
149.6640372284587102
 30
0.0
 40
1.320790752535816
 50
115.6459685155678017
 51
119.8604209948522055
  0
ARC
  5
39615
  8
0
 10
2755.4980291216161277
 20
150.7988849321272085
 30
0.0
 40
0.0122181084977599
 50
119.8604209948522055
 51
171.9136331584234085
  0
LINE
  5
39616
  8
0
 10
2755.4859324958620164
 20
150.8006036004017005
 30
0.0
 11
2755.4860088562450073
 21
150.7096100674231991
 31
0.0
  0
ARC
  5
39617
  8
0
 10
2755.4979560161759764
 20
150.7096529880375897
 30
0.0
 40
0.0119478741120953
 50
179.8107337521211093
 51
218.1124340019906924
  0
ARC
  5
39618
  8
0
 10
2755.4974523678238256
 20
150.7101260651431005
 30
0.0
 40
0.0118632709376341
 50
221.4132808108398933
 51
242.8272201674051018
  0
LINE
  5
39619
  8
0
 10
2755.4920347046518145
 20
150.6995721027076058
 30
0.0
 11
2755.4957720320931003
 21
150.6976501242777999
 31
0.0
  0
LINE
  5
3961A
  8
0
 10
2755.5846955765400708
 20
150.6382449618035082
 30
0.0
 11
2755.4970725082589524
 21
150.6837884585798975
 31
0.0
  0
ARC
  5
3961B
  8
0
 10
2755.4979843186602011
 20
150.6855427293469916
 30
0.0
 40
0.0019770847557943
 50
181.1885121818426967
 51
242.5361203116601132
  0
LINE
  5
3961C
  8
0
 10
2755.4960076592501537
 20
150.6855017207278138
 30
0.0
 11
2755.4957720320931003
 21
150.6976501242777999
 31
0.0
  0
LINE
  5
3961D
  8
0
 10
2755.4957556301178556
 20
150.697649795072607
 30
0.0
 11
2755.4960119416518864
 21
150.7774700475077054
 31
0.0
  0
LINE
  5
3961E
  8
0
 10
2755.4960119416518864
 20
150.7774700475077054
 30
0.0
 11
2755.5846955765400708
 21
150.823514889890987
 31
0.0
  0
LINE
  5
3961F
  8
0
 10
2755.5846955765400708
 20
150.823514889890987
 30
0.0
 11
2755.6733793328508
 21
150.7774772222076081
 31
0.0
  0
LINE
  5
39620
  8
0
 10
2755.6733793328508
 20
150.7774772222076081
 30
0.0
 11
2755.6733883856509237
 21
150.6853812911076034
 31
0.0
  0
ARC
  5
39621
  8
0
 10
2755.6716808300348021
 20
150.6853811232591909
 30
0.0
 40
0.0017075556241048
 50
297.2462233744344076
 51
0.0056320319716395
  0
LINE
  5
39622
  8
0
 10
2755.6724625751521671
 20
150.6838630255076055
 30
0.0
 11
2755.5846955765400708
 21
150.6382449618035082
 31
0.0
  0
ARC
  5
39623
  8
0
 10
2755.0022480480929516
 20
149.6305946689072073
 30
0.0
 40
1.358552514204846
 50
60.1984203671864435
 51
64.2896078572886296
  0
ARC
  5
39624
  8
0
 10
2755.6713856470028077
 20
150.7989000904663044
 30
0.0
 40
0.0121934668782603
 50
8.0436135549919392
 51
60.1984203671864435
  0
LINE
  5
39625
  8
0
 10
2755.6834591526430813
 20
150.8006062839108097
 30
0.0
 11
2755.6834063692058407
 21
150.7102893163811075
 31
0.0
  0
ARC
  5
39626
  8
0
 10
2755.6699799333869123
 20
150.7100211940779104
 30
0.0
 40
0.0134291127170984
 50
329.0798814942262993
 51
1.144029208969449
  0
ARC
  5
39627
  8
0
 10
2755.6720600872408795
 20
150.7099504551198095
 30
0.0
 40
0.0116519308925186
 50
297.0386595956738915
 51
324.1161460201166733
  0
LINE
  5
39628
  8
0
 10
2755.6773569570509608
 20
150.699572080307604
 30
0.0
 11
2755.6735476063067836
 21
150.6974813662621102
 31
0.0
  0
LINE
  5
39629
  8
0
 10
2755.4950822610508112
 20
150.8112583026075981
 30
0.0
 11
2755.4956991406002089
 21
150.7014082448949921
 31
0.0
  0
ARC
  5
3962A
  8
0
 10
2755.5616073226310618
 20
150.7018658434386964
 30
0.0
 40
0.0659097705576997
 50
180.3977964978373905
 51
182.4935501750910021
  0
LINE
  5
3962B
  8
0
 10
2755.6743088920288756
 20
150.8112583026075981
 30
0.0
 11
2755.6736920124808421
 21
150.7014082448949921
 31
0.0
  0
ARC
  5
3962C
  8
0
 10
2755.6077838304499892
 20
150.7018658434386964
 30
0.0
 40
0.0659097705576997
 50
354.4218253845097024
 51
359.6022035021625811
  0
ARC
  5
3962D
  8
0
 10
2755.5788530530539902
 20
150.9533621492057023
 30
0.0
 40
0.0228423053872787
 50
131.8730963082745973
 51
206.4277935209127008
  0
ARC
  5
3962E
  8
0
 10
2755.5836569005259662
 20
150.9480031134717137
 30
0.0
 40
0.0300392640873793
 50
58.2520492809918693
 51
131.8730963082745973
  0
ARC
  5
3962F
  8
0
 10
2755.586886677718212
 20
150.9532227924624124
 30
0.0
 40
0.0239011447111239
 50
322.1897260190297061
 51
58.2520492809918693
  0
ARC
  5
39630
  8
0
 10
2755.5834847805022036
 20
150.9580069400244042
 30
0.0
 40
0.0295702840681789
 50
243.2395870679584959
 51
318.9052934568020987
  0
ARC
  5
39631
  8
0
 10
2755.5866757106678051
 20
150.9601400756581029
 30
0.0
 40
0.0329658543242068
 50
210.9304215135099128
 51
239.9551545057258011
  0
ARC
  5
39632
  8
0
 10
2755.5835630018541451
 20
151.0651644847110049
 30
0.0
 40
0.0183720447591343
 50
67.8186705269049241
 51
111.6567317440949978
  0
ARC
  5
39633
  8
0
 10
2756.148433215787918
 20
149.8915658666263084
 30
0.0
 40
1.320790752535816
 50
115.6459685155678017
 51
119.8604209948522055
  0
ARC
  5
39634
  8
0
 10
2755.4969095752321664
 20
151.0264135702948067
 30
0.0
 40
0.0122181084977599
 50
119.8604209948522055
 51
171.9136331584234085
  0
LINE
  5
39635
  8
0
 10
2755.4848129494780551
 20
151.0281322385692988
 30
0.0
 11
2755.4848893098619556
 21
150.9371387055907974
 31
0.0
  0
ARC
  5
39636
  8
0
 10
2755.4968364697920151
 20
150.937181626205188
 30
0.0
 40
0.0119478741120953
 50
179.8107337521211093
 51
218.1124340019906924
  0
ARC
  5
39637
  8
0
 10
2755.4963328214398643
 20
150.9376547033106988
 30
0.0
 40
0.0118632709376341
 50
221.4132808108398933
 51
242.8272201674051018
  0
LINE
  5
39638
  8
0
 10
2755.4909151582669438
 20
150.9271007408752041
 30
0.0
 11
2755.4946524857100485
 21
150.9251787624453982
 31
0.0
  0
LINE
  5
39639
  8
0
 10
2755.5846955765400708
 20
150.8663554990797024
 30
0.0
 11
2755.4959529618749912
 21
150.9113170967474957
 31
0.0
  0
ARC
  5
3963A
  8
0
 10
2755.4968647722757851
 20
150.9130713675145898
 30
0.0
 40
0.0019770847557943
 50
181.1885121818426967
 51
242.5361203116601132
  0
LINE
  5
3963B
  8
0
 10
2755.4948881128661924
 20
150.9130303588954121
 30
0.0
 11
2755.4946524857100485
 21
150.9251787624453982
 31
0.0
  0
LINE
  5
3963C
  8
0
 10
2755.4946360837338943
 20
150.9251784332402053
 30
0.0
 11
2755.4948923952679252
 21
151.0049986856753037
 31
0.0
  0
LINE
  5
3963D
  8
0
 10
2755.4948923952679252
 20
151.0049986856753037
 30
0.0
 11
2755.583576030157019
 21
151.0510435280585
 31
0.0
  0
LINE
  5
3963E
  8
0
 10
2755.583576030157019
 20
151.0510435280585
 30
0.0
 11
2755.6722597864682029
 21
151.0050058603752063
 31
0.0
  0
LINE
  5
3963F
  8
0
 10
2755.6722597864682029
 20
151.0050058603752063
 30
0.0
 11
2755.672268839267872
 21
150.9129099292752016
 31
0.0
  0
ARC
  5
39640
  8
0
 10
2755.670561283652205
 20
150.9129097614267891
 30
0.0
 40
0.0017075556241048
 50
297.2462233744344076
 51
0.0056320319716395
  0
LINE
  5
39641
  8
0
 10
2755.6713430287682058
 20
150.9113916636752037
 30
0.0
 11
2755.5846955765400708
 21
150.8663554990797024
 31
0.0
  0
ARC
  5
39642
  8
0
 10
2755.0011285017098999
 20
149.8581233070748056
 30
0.0
 40
1.358552514204846
 50
60.1984203671864435
 51
64.2896078572886296
  0
ARC
  5
39643
  8
0
 10
2755.6702661006188464
 20
151.0264287286339027
 30
0.0
 40
0.0121934668782603
 50
8.0436135549919392
 51
60.1984203671864435
  0
LINE
  5
39644
  8
0
 10
2755.68233960625912
 20
151.028134922078408
 30
0.0
 11
2755.6822868228218795
 21
150.9378179545487058
 31
0.0
  0
ARC
  5
39645
  8
0
 10
2755.668860387002951
 20
150.937549832245395
 30
0.0
 40
0.0134291127170984
 50
329.0798814942262993
 51
1.144029208969449
  0
ARC
  5
39646
  8
0
 10
2755.6709405408578277
 20
150.9374790932874077
 30
0.0
 40
0.0116519308925186
 50
297.0386595956738915
 51
324.1161460201166733
  0
LINE
  5
39647
  8
0
 10
2755.676237410667909
 20
150.9271007184752023
 30
0.0
 11
2755.6724280599219128
 21
150.9250100044297085
 31
0.0
  0
LINE
  5
39648
  8
0
 10
2755.4939627146668499
 20
151.0387869407753101
 30
0.0
 11
2755.4945795942171571
 21
150.9289368830627041
 31
0.0
  0
ARC
  5
39649
  8
0
 10
2755.5604877762471006
 20
150.9293944816062947
 30
0.0
 40
0.0659097705576997
 50
180.3977964978373905
 51
182.4935501750910021
  0
LINE
  5
3964A
  8
0
 10
2755.6731893456458238
 20
151.0387869407753101
 30
0.0
 11
2755.6725724660959713
 21
150.9289368830627041
 31
0.0
  0
ARC
  5
3964B
  8
0
 10
2755.6066642840669374
 20
150.9293944816062947
 30
0.0
 40
0.0659097705576997
 50
354.4218253845097024
 51
359.6022035021625811
  0
ARC
  5
3964C
  8
0
 10
2755.5796529488939086
 20
151.1833908770381925
 30
0.0
 40
0.0228423053872787
 50
131.8730963082745973
 51
206.4277935209127008
  0
ARC
  5
3964D
  8
0
 10
2755.5844567963649752
 20
151.1780318413042039
 30
0.0
 40
0.0300392640873793
 50
58.2520492809918693
 51
131.8730963082745973
  0
ARC
  5
3964E
  8
0
 10
2755.587686573557221
 20
151.1832515202949025
 30
0.0
 40
0.0239011447111239
 50
322.1897260190297061
 51
58.2520492809918693
  0
ARC
  5
3964F
  8
0
 10
2755.5842846763412126
 20
151.1880356678568944
 30
0.0
 40
0.0295702840681789
 50
243.2395870679584959
 51
318.9052934568020987
  0
ARC
  5
39650
  8
0
 10
2755.5874756065068141
 20
151.1901688034905931
 30
0.0
 40
0.0329658543242068
 50
210.9304215135099128
 51
239.9551545057258011
  0
ARC
  5
39651
  8
0
 10
2755.5843628976931541
 20
151.2951932125434951
 30
0.0
 40
0.0183720447591343
 50
67.8186705269049241
 51
111.6567317440949978
  0
ARC
  5
39652
  8
0
 10
2756.149233111626927
 20
150.1215945944587986
 30
0.0
 40
1.320790752535816
 50
115.6459685155678017
 51
119.8604209948522055
  0
ARC
  5
39653
  8
0
 10
2755.4977094710711754
 20
151.2564422981272969
 30
0.0
 40
0.0122181084977599
 50
119.8604209948522055
 51
171.9136331584234085
  0
LINE
  5
39654
  8
0
 10
2755.4856128453179736
 20
151.2581609664017037
 30
0.0
 11
2755.4856892057009645
 21
151.1671674334232023
 31
0.0
  0
ARC
  5
39655
  8
0
 10
2755.4976363656319336
 20
151.1672103540377066
 30
0.0
 40
0.0119478741120953
 50
179.8107337521211093
 51
218.1124340019906924
  0
ARC
  5
39656
  8
0
 10
2755.4971327172788733
 20
151.167683431143189
 30
0.0
 40
0.0118632709376341
 50
221.4132808108398933
 51
242.8272201674051018
  0
LINE
  5
39657
  8
0
 10
2755.4917150541068622
 20
151.1571294687076943
 30
0.0
 11
2755.4954523815490575
 21
151.1552074902778884
 31
0.0
  0
LINE
  5
39658
  8
0
 10
2755.583576030157019
 20
151.096218086510703
 30
0.0
 11
2755.4967528577149096
 21
151.1413458245799859
 31
0.0
  0
ARC
  5
39659
  8
0
 10
2755.4976646681161583
 20
151.1431000953471084
 30
0.0
 40
0.0019770847557943
 50
181.1885121818426967
 51
242.5361203116601132
  0
LINE
  5
3965A
  8
0
 10
2755.4956880087052014
 20
151.1430590867279022
 30
0.0
 11
2755.4954523815490575
 21
151.1552074902778884
 31
0.0
  0
LINE
  5
3965B
  8
0
 10
2755.4954359795729033
 20
151.1552071610726955
 30
0.0
 11
2755.4956922911069341
 21
151.2350274135077939
 31
0.0
  0
LINE
  5
3965C
  8
0
 10
2755.4956922911069341
 20
151.2350274135077939
 30
0.0
 11
2755.5843759259960279
 21
151.2810722558911039
 31
0.0
  0
LINE
  5
3965D
  8
0
 10
2755.5843759259960279
 20
151.2810722558911039
 30
0.0
 11
2755.6730596823072119
 21
151.2350345882078102
 31
0.0
  0
LINE
  5
3965E
  8
0
 10
2755.6730596823072119
 20
151.2350345882078102
 30
0.0
 11
2755.6730687351068809
 21
151.1429386571076918
 31
0.0
  0
ARC
  5
3965F
  8
0
 10
2755.671361179491214
 20
151.1429384892593077
 30
0.0
 40
0.0017075556241048
 50
297.2462233744344076
 51
0.0056320319716395
  0
LINE
  5
39660
  8
0
 10
2755.6721429246072148
 20
151.1414203915076939
 30
0.0
 11
2755.583576030157019
 21
151.096218086510703
 31
0.0
  0
ARC
  5
39661
  8
0
 10
2755.0019283975489088
 20
150.0881520349072957
 30
0.0
 40
1.358552514204846
 50
60.1984203671864435
 51
64.2896078572886296
  0
ARC
  5
39662
  8
0
 10
2755.6710659964578554
 20
151.2564574564663928
 30
0.0
 40
0.0121934668782603
 50
8.0436135549919392
 51
60.1984203671864435
  0
LINE
  5
39663
  8
0
 10
2755.683139502098129
 20
151.2581636499108981
 30
0.0
 11
2755.6830867186617979
 21
151.1678466823811959
 31
0.0
  0
ARC
  5
39664
  8
0
 10
2755.6696602828428695
 20
151.1675785600779136
 30
0.0
 40
0.0134291127170984
 50
329.0798814942262993
 51
1.144029208969449
  0
ARC
  5
39665
  8
0
 10
2755.6717404366968367
 20
151.1675078211198979
 30
0.0
 40
0.0116519308925186
 50
297.0386595956738915
 51
324.1161460201166733
  0
LINE
  5
39666
  8
0
 10
2755.677037306506918
 20
151.1571294463076924
 30
0.0
 11
2755.6732279557618313
 21
151.1550387322621134
 31
0.0
  0
LINE
  5
39667
  8
0
 10
2755.4947626105072231
 20
151.2688156686076866
 30
0.0
 11
2755.4953794900561661
 21
151.158965610895109
 31
0.0
  0
ARC
  5
39668
  8
0
 10
2755.5612876720861095
 20
151.1594232094388133
 30
0.0
 40
0.0659097705576997
 50
180.3977964978373905
 51
182.4935501750910021
  0
LINE
  5
39669
  8
0
 10
2755.6739892414848327
 20
151.2688156686076866
 30
0.0
 11
2755.6733723619358898
 21
151.158965610895109
 31
0.0
  0
ARC
  5
3966A
  8
0
 10
2755.6074641799059464
 20
151.1594232094388133
 30
0.0
 40
0.0659097705576997
 50
354.4218253845097024
 51
359.6022035021625811
  0
ARC
  5
3966B
  8
0
 10
2755.3572218863728267
 20
151.2964633739233022
 30
0.0
 40
0.0228423053872787
 50
131.8730963082745973
 51
206.4277935209127008
  0
ARC
  5
3966C
  8
0
 10
2755.3620257338448027
 20
151.2911043381893137
 30
0.0
 40
0.0300392640873793
 50
58.2520492809918693
 51
131.8730963082745973
  0
ARC
  5
3966D
  8
0
 10
2755.3652555110370486
 20
151.2963240171800976
 30
0.0
 40
0.0239011447111239
 50
322.1897260190297061
 51
58.2520492809918693
  0
ARC
  5
3966E
  8
0
 10
2755.3618536138210402
 20
151.3011081647420042
 30
0.0
 40
0.0295702840681789
 50
243.2395870679584959
 51
318.9052934568020987
  0
ARC
  5
3966F
  8
0
 10
2755.3650445439870964
 20
151.3032413003757028
 30
0.0
 40
0.0329658543242068
 50
210.9304215135099128
 51
239.9551545057258011
  0
ARC
  5
39670
  8
0
 10
2755.3619318351729817
 20
151.4082657094286049
 30
0.0
 40
0.0183720447591343
 50
67.8186705269049241
 51
111.6567317440949978
  0
ARC
  5
39671
  8
0
 10
2755.9268020491072093
 20
150.2346670913439084
 30
0.0
 40
1.320790752535816
 50
115.6459685155678017
 51
119.8604209948522055
  0
ARC
  5
39672
  8
0
 10
2755.2752784085510029
 20
151.3695147950124067
 30
0.0
 40
0.0122181084977599
 50
119.8604209948522055
 51
171.9136331584234085
  0
LINE
  5
39673
  8
0
 10
2755.2631817827968916
 20
151.3712334632868988
 30
0.0
 11
2755.2632581431807921
 21
151.2802399303083121
 31
0.0
  0
ARC
  5
39674
  8
0
 10
2755.2752053031122159
 20
151.2802828509227879
 30
0.0
 40
0.0119478741120953
 50
179.8107337521211093
 51
218.1124340019906924
  0
ARC
  5
39675
  8
0
 10
2755.2747016547591556
 20
151.2807559280282987
 30
0.0
 40
0.0118632709376341
 50
221.4132808108398933
 51
242.8272201674051018
  0
LINE
  5
39676
  8
0
 10
2755.2692839915871446
 20
151.2702019655928893
 30
0.0
 11
2755.273021319028885
 21
151.2682799871629982
 31
0.0
  0
LINE
  5
39677
  8
0
 10
2755.3619448634758555
 20
151.2088748246887917
 30
0.0
 11
2755.2743217951938277
 21
151.2544183214652094
 31
0.0
  0
ARC
  5
39678
  8
0
 10
2755.2752336055950764
 20
151.2561725922321898
 30
0.0
 40
0.0019770847557943
 50
181.1885121818426967
 51
242.5361203116601132
  0
LINE
  5
39679
  8
0
 10
2755.2732569461850289
 20
151.256131583613012
 30
0.0
 11
2755.273021319028885
 21
151.2682799871629982
 31
0.0
  0
LINE
  5
3967A
  8
0
 10
2755.2730049170531856
 20
151.2682796579578053
 30
0.0
 11
2755.2732612285872165
 21
151.3480999103929037
 31
0.0
  0
LINE
  5
3967B
  8
0
 10
2755.2732612285872165
 20
151.3480999103929037
 30
0.0
 11
2755.3619448634758555
 21
151.3941447527762136
 31
0.0
  0
LINE
  5
3967C
  8
0
 10
2755.3619448634758555
 20
151.3941447527762136
 30
0.0
 11
2755.4506286197870395
 21
151.3481070850928916
 31
0.0
  0
LINE
  5
3967D
  8
0
 10
2755.4506286197870395
 20
151.3481070850928916
 30
0.0
 11
2755.4506376725871633
 21
151.2560111539928869
 31
0.0
  0
ARC
  5
3967E
  8
0
 10
2755.4489301169710416
 20
151.2560109861443891
 30
0.0
 40
0.0017075556241048
 50
297.2462233744344076
 51
0.0056320319716395
  0
LINE
  5
3967F
  8
0
 10
2755.4497118620870424
 20
151.254492888392889
 30
0.0
 11
2755.3619448634758555
 21
151.2088748246887917
 31
0.0
  0
ARC
  5
39680
  8
0
 10
2754.7794973350291912
 20
150.2012245317924055
 30
0.0
 40
1.358552514204846
 50
60.1984203671864435
 51
64.2896078572886296
  0
ARC
  5
39681
  8
0
 10
2755.4486349339381377
 20
151.3695299533515879
 30
0.0
 40
0.0121934668782603
 50
8.0436135549919392
 51
60.1984203671864435
  0
LINE
  5
39682
  8
0
 10
2755.4607084395779566
 20
151.3712361467960079
 30
0.0
 11
2755.4606556561420803
 21
151.280919179266391
 31
0.0
  0
ARC
  5
39683
  8
0
 10
2755.4472292203217876
 20
151.2806510569631087
 30
0.0
 40
0.0134291127170984
 50
329.0798814942262993
 51
1.144029208969449
  0
ARC
  5
39684
  8
0
 10
2755.449309374177119
 20
151.2805803180050077
 30
0.0
 40
0.0116519308925186
 50
297.0386595956738915
 51
324.1161460201166733
  0
LINE
  5
39685
  8
0
 10
2755.4546062439872003
 20
151.2702019431928875
 30
0.0
 11
2755.4507968932421136
 21
151.2681112291471948
 31
0.0
  0
LINE
  5
39686
  8
0
 10
2755.2723315479870507
 20
151.38188816549291
 30
0.0
 11
2755.2729484275350842
 21
151.272038107780304
 31
0.0
  0
ARC
  5
39687
  8
0
 10
2755.3388566095659371
 20
151.2724957063238946
 30
0.0
 40
0.0659097705576997
 50
180.3977964978373905
 51
182.4935501750910021
  0
LINE
  5
39688
  8
0
 10
2755.4515581789651151
 20
151.38188816549291
 30
0.0
 11
2755.4509412994161721
 21
151.272038107780304
 31
0.0
  0
ARC
  5
39689
  8
0
 10
2755.3850331173857739
 20
151.2724957063238946
 30
0.0
 40
0.0659097705576997
 50
354.4218253845097024
 51
359.6022035021625811
  0
ARC
  5
3968A
  8
0
 10
2755.0143954735722218
 20
151.3907976859073017
 30
0.0
 40
0.0176221050138277
 50
272.4976153671743759
 51
296.9631646896187931
  0
ARC
  5
3968B
  8
0
 10
2754.3569066696168193
 20
152.6832455734937071
 30
0.0
 40
1.4676955753774621
 50
296.9631646896187931
 51
297.4571669856737799
  0
ARC
  5
3968C
  8
0
 10
2755.0239121167619487
 20
151.3995979688762077
 30
0.0
 40
0.0210969996281366
 50
297.4571669856737799
 51
331.4043852320164092
  0
ARC
  5
3968D
  8
0
 10
2754.805465099533194
 20
151.2817064850551105
 30
0.0
 40
0.0161712713378544
 50
291.2906944263592095
 51
332.4562380756415791
  0
ARC
  5
3968E
  8
0
 10
2749.9022152158968311
 20
160.8049465099329041
 30
0.0
 40
10.7274781588407109
 50
297.1661922301282175
 51
297.2337155515764948
  0
ARC
  5
3968F
  8
0
 10
2754.7939924515080747
 20
151.270214338120411
 30
0.0
 40
0.0111674897461478
 50
265.8754062865357923
 51
303.1092133553466965
  0
LINE
  5
39690
  8
0
 10
2754.6948470250349601
 20
150.8657731954176882
 30
0.0
 11
2754.6948090922910524
 21
150.8242945971664142
 31
0.0
  0
ARC
  5
39691
  8
0
 10
2754.8065109061681142
 20
150.7100827279828934
 30
0.0
 40
0.0163426992480594
 50
203.2687140352713868
 51
247.2252895662940091
  0
LINE
  5
39692
  8
0
 10
2754.8001845059079642
 20
150.6950142018951055
 30
0.0
 11
2754.8118514823249825
 21
150.6901159150812077
 31
0.0
  0
ARC
  5
39693
  8
0
 10
2754.8169754926148016
 20
150.7023205305893896
 30
0.0
 40
0.0132366204582165
 50
247.2252895662940091
 51
279.4351987987412258
  0
ARC
  5
39694
  8
0
 10
2755.0302467935521236
 20
150.5951398325586865
 30
0.0
 40
0.017194786706105
 50
200.2837585148583059
 51
241.4408179160035104
  0
LINE
  5
39695
  8
0
 10
2755.022026546260804
 20
150.5800372425707963
 30
0.0
 11
2755.0332230211988644
 21
150.5739430697935006
 31
0.0
  0
ARC
  5
39696
  8
0
 10
2755.0392232111657904
 20
150.584966875492114
 30
0.0
 40
0.0125509589962852
 50
241.4408179160035104
 51
276.116546031864118
  0
ARC
  5
39697
  8
0
 10
2755.2396328237077796
 20
150.585830414457007
 30
0.0
 40
0.0126894667856318
 50
261.1308545321447241
 51
295.5148704166811058
  0
LINE
  5
39698
  8
0
 10
2755.2450987523579897
 20
150.5743785066991052
 30
0.0
 11
2755.2565669900259309
 21
150.5798522295195028
 31
0.0
  0
ARC
  5
39699
  8
0
 10
2755.2484779906981203
 20
150.5967998481388008
 30
0.0
 40
0.0187790757759412
 50
295.5148704166526841
 51
334.1432566134423041
  0
ARC
  5
3969A
  8
0
 10
2755.4613073908540173
 20
150.6973052620294879
 30
0.0
 40
0.0098726783964463
 50
266.7789829099143049
 51
305.1068501602034075
  0
LINE
  5
3969B
  8
0
 10
2755.4669851984522211
 20
150.6892286117580113
 30
0.0
 11
2755.4773294885180803
 21
150.696500548359495
 31
0.0
  0
ARC
  5
3969C
  8
0
 10
2755.4595791387050667
 20
150.7217503239444056
 30
0.0
 40
0.0308646413490526
 50
305.1068501602034075
 51
330.4369185304055918
  0
LINE
  5
3969D
  8
0
 10
2755.5846955765400708
 20
150.823514889890987
 30
0.0
 11
2755.5846955765400708
 21
150.8663554990797024
 31
0.0
  0
LINE
  5
3969E
  8
0
 10
2755.583576030157019
 20
151.0510435280585
 30
0.0
 11
2755.583576030157019
 21
151.096218086510703
 31
0.0
  0
ARC
  5
3969F
  8
0
 10
2755.4799268446040514
 20
151.2877596635526913
 30
0.0
 40
0.025293133067276
 50
213.3778313393025883
 51
238.6485215724785007
  0
LINE
  5
396A0
  8
0
 10
2755.4667671662441535
 20
151.2661595374923991
 30
0.0
 11
2755.4775539561178448
 21
151.2595877848609121
 31
0.0
  0
ARC
  5
396A1
  8
0
 10
2755.4834121292701639
 20
151.2692033145951882
 30
0.0
 40
0.0112595117455798
 50
238.6485215724785007
 51
281.2712433124701761
  0
ARC
  5
396A2
  8
0
 10
2755.2992215121239497
 20
151.4560658985878092
 30
0.0
 40
0.0928260949912424
 50
226.5597926251737988
 51
234.0945234509584907
  0
LINE
  5
396A3
  8
0
 10
2755.2447836690521399
 20
151.3808780993580001
 30
0.0
 11
2755.2557846156901178
 21
151.374757864175109
 31
0.0
  0
ARC
  5
396A4
  8
0
 10
2755.262154669400843
 20
151.3866738317013869
 30
0.0
 40
0.0135117676998638
 50
241.8718721904423035
 51
276.3258366791533263
  0
LINE
  5
396A5
  8
0
 10
2754.9168423268129118
 20
151.3941464835330066
 30
0.0
 11
2754.9168423268129118
 21
151.4266394803252069
 31
0.0
  0
LINE
  5
396A6
  8
0
 10
2754.6945900535019973
 20
151.2810725595431904
 30
0.0
 11
2754.6945900535019973
 21
151.3135655563353055
 31
0.0
  0
LINE
  5
396A7
  8
0
 10
2754.6945900535019973
 20
151.0958026314557969
 30
0.0
 11
2754.6945900535019973
 21
151.0510431235051101
 31
0.0
  0
LINE
  5
396A8
  8
0
 10
2754.9164788030398086
 20
150.7079348875558935
 30
0.0
 11
2754.9164788030398086
 21
150.7404278843480085
 31
0.0
  0
LINE
  5
396A9
  8
0
 10
2755.3625940804859056
 20
150.7079212690528891
 30
0.0
 11
2755.3625940804859056
 21
150.7404142658450041
 31
0.0
  0
LINE
  5
396AA
  8
0
 10
2755.5843759259960279
 20
151.2810722558911039
 30
0.0
 11
2755.5843759259960279
 21
151.3135652526831905
 31
0.0
  0
LINE
  5
396AB
  8
0
 10
2755.3619448634758555
 20
151.3941447527762136
 30
0.0
 11
2755.3619448634758555
 21
151.4266377495683003
 31
0.0
  0
LINE
  5
396AC
  8
0
 10
2755.1392111988411671
 20
151.5098455014413048
 30
0.0
 11
2755.1392111988411671
 21
151.5423384982333914
 31
0.0
  0
ARC
  5
396AD
  8
0
 10
2755.1361894147930798
 20
152.3655209090480867
 30
0.0
 40
0.0205878218031923
 50
136.9004333335302874
 51
198.4751338457560053
  0
ARC
  5
396AE
  8
0
 10
2755.1392072259368433
 20
152.3626969341372046
 30
0.0
 40
0.0247208616527655
 50
65.3608823607242897
 51
136.9004333335302874
  0
ARC
  5
396AF
  8
0
 10
2755.1401372329241894
 20
152.3647245869615006
 30
0.0
 40
0.0224901019231741
 50
349.9785473550383017
 51
65.3608823607242897
  0
ARC
  5
396B0
  8
0
 10
2755.1405360929788912
 20
152.3664032007889944
 30
0.0
 40
0.0224555890709843
 50
296.1401888737851209
 51
345.5794684197896913
  0
ARC
  5
396B1
  8
0
 10
2755.1392578893842256
 20
152.3686962678690975
 30
0.0
 40
0.0250776306466944
 50
229.4181648716121913
 51
296.4536863863147005
  0
ARC
  5
396B2
  8
0
 10
2755.1377991722069964
 20
152.3664179253030113
 30
0.0
 40
0.0224014630264246
 50
199.3464776089629993
 51
228.4608443339456869
  0
ARC
  5
396B3
  8
0
 10
2755.1359921462258171
 20
152.3943624242751014
 30
0.0
 40
0.0665852676443243
 50
99.3375172860837949
 51
137.897572680821014
  0
ARC
  5
396B4
  8
0
 10
2755.1394605097120802
 20
152.38853330040169
 30
0.0
 40
0.0729419529260173
 50
48.6293141185757065
 51
101.2832809668741021
  0
ARC
  5
396B5
  8
0
 10
2755.14541089065915
 20
152.3965699292307932
 30
0.0
 40
0.0629837812638812
 50
348.9407472444876817
 51
47.8595343451344775
  0
ARC
  5
396B6
  8
0
 10
2755.1446809659942119
 20
152.3963419023434938
 30
0.0
 40
0.063657449313394
 50
315.9450406519169974
 51
349.2682007589471027
  0
ARC
  5
396B7
  8
0
 10
2755.1393085718927978
 20
152.3633270735761016
 30
0.0
 40
0.0581493610480463
 50
48.350131668530409
 51
90.0957310043792745
  0
ARC
  5
396B8
  8
0
 10
2755.1457986816658376
 20
152.3706242578070089
 30
0.0
 40
0.0483835829140168
 50
355.266690289022506
 51
48.3501316685315032
  0
ARC
  5
396B9
  8
0
 10
2755.1468602880217986
 20
152.3705363564955064
 30
0.0
 40
0.0473183436475459
 50
337.0397358111634958
 51
355.266690289022506
  0
ARC
  5
396BA
  8
0
 10
2755.141019318184135
 20
152.373010921791888
 30
0.0
 40
0.0536618759487578
 50
279.7146281372027943
 51
337.0397358111634958
  0
ARC
  5
396BB
  8
0
 10
2755.1389765885119232
 20
152.3753317404429026
 30
0.0
 40
0.0563174646444759
 50
229.382938771470009
 51
281.3648500721121195
  0
ARC
  5
396BC
  8
0
 10
2755.1329969747462201
 20
152.3705177296212128
 30
0.0
 40
0.0487907628028025
 50
168.1354590004926877
 51
231.0331607063590127
  0
ARC
  5
396BD
  8
0
 10
2755.1359538838291883
 20
152.3687337867501981
 30
0.0
 40
0.0520637141045048
 50
107.4711857003614028
 51
166.8831130307422086
  0
ARC
  5
396BE
  8
0
 10
2755.1392316243218374
 20
152.3619068015381117
 30
0.0
 40
0.0595695553480463
 50
90.019438169535178
 51
108.507029612820503
  0
ARC
  5
396BF
  8
0
 10
2755.1398726979118692
 20
152.3920086053757927
 30
0.0
 40
0.0710477188571738
 50
138.5873779821679932
 51
160.0193617833386952
  0
ARC
  5
396C0
  8
0
 10
2755.1337762781840866
 20
152.3966088126340139
 30
0.0
 40
0.0637857003711967
 50
162.0319999579924115
 51
205.811300865488306
  0
ARC
  5
396C1
  8
0
 10
2755.1300863455639956
 20
152.3937466032078021
 30
0.0
 40
0.059225615119055
 50
204.8728402320552107
 51
224.306565152083607
  0
LINE
  5
396C2
  8
0
 10
2755.0842077158199572
 20
152.3701346521625908
 30
0.0
 11
2755.0817966610979965
 21
152.4329347865171087
 31
0.0
  0
LINE
  5
396C3
  8
0
 10
2755.194168380067822
 20
152.3694652185212135
 30
0.0
 11
2755.1966543745011222
 21
152.4330498425559881
 31
0.0
  0
ARC
  5
396C4
  8
0
 10
2755.1365993611780141
 20
152.4123585999857937
 30
0.0
 40
0.0647741296937043
 50
180.488217838995098
 51
200.1697629086943948
  0
ARC
  5
396C5
  8
0
 10
2755.1350684785052181
 20
152.4117962619260993
 30
0.0
 40
0.0631432324397103
 50
200.1697629086959012
 51
216.0807705166047867
  0
ARC
  5
396C6
  8
0
 10
2755.1418230365029558
 20
152.4123585999857937
 30
0.0
 40
0.0647741296937043
 50
339.8302370913056052
 51
359.5117821610048168
  0
ARC
  5
396C7
  8
0
 10
2755.1433539191762065
 20
152.4117962619260993
 30
0.0
 40
0.0631432324397103
 50
323.9192294833950996
 51
339.8302370913041273
  0
ARC
  5
396C8
  8
0
 10
2754.6915655281281943
 20
152.1271497029705131
 30
0.0
 40
0.0205878218031923
 50
136.9004333335302874
 51
198.4751338457560053
  0
ARC
  5
396C9
  8
0
 10
2754.6945833392728673
 20
152.1243257280596026
 30
0.0
 40
0.0247208616527655
 50
65.3608823607242897
 51
136.9004333335302874
  0
ARC
  5
396CA
  8
0
 10
2754.6955133462602134
 20
152.1263533808838133
 30
0.0
 40
0.0224901019231741
 50
349.9785473550383017
 51
65.3608823607242897
  0
ARC
  5
396CB
  8
0
 10
2754.6959122063149152
 20
152.1280319947113924
 30
0.0
 40
0.0224555890709843
 50
296.1401888737851209
 51
345.5794684197896913
  0
ARC
  5
396CC
  8
0
 10
2754.6946340027197948
 20
152.1303250617914955
 30
0.0
 40
0.0250776306466944
 50
229.4181648716121913
 51
296.4536863863147005
  0
ARC
  5
396CD
  8
0
 10
2754.6931752855439299
 20
152.1280467192254093
 30
0.0
 40
0.0224014630264246
 50
199.3464776089629993
 51
228.4608443339456869
  0
ARC
  5
396CE
  8
0
 10
2754.6913682595618411
 20
152.1559912181974141
 30
0.0
 40
0.0665852676443243
 50
99.3375172860837949
 51
137.897572680821014
  0
ARC
  5
396CF
  8
0
 10
2754.6948366230481042
 20
152.150162094324088
 30
0.0
 40
0.0729419529260173
 50
48.6293141185757065
 51
101.2832809668741021
  0
ARC
  5
396D0
  8
0
 10
2754.700787003995174
 20
152.1581987231531912
 30
0.0
 40
0.0629837812638812
 50
348.9407472444876817
 51
47.8595343451344775
  0
ARC
  5
396D1
  8
0
 10
2754.7000570793297811
 20
152.1579706962658918
 30
0.0
 40
0.063657449313394
 50
315.9450406519169974
 51
349.2682007589471027
  0
ARC
  5
396D2
  8
0
 10
2754.694684685230186
 20
152.1249558674984996
 30
0.0
 40
0.0581493610480463
 50
48.350131668530409
 51
90.0957310043792745
  0
ARC
  5
396D3
  8
0
 10
2754.7011747950018616
 20
152.1322530517292932
 30
0.0
 40
0.0483835829140168
 50
355.266690289022506
 51
48.3501316685315032
  0
ARC
  5
396D4
  8
0
 10
2754.7022364013578226
 20
152.1321651504179044
 30
0.0
 40
0.0473183436475459
 50
337.0397358111634958
 51
355.266690289022506
  0
ARC
  5
396D5
  8
0
 10
2754.696395431520159
 20
152.134639715714286
 30
0.0
 40
0.0536618759487578
 50
279.7146281372027943
 51
337.0397358111634958
  0
ARC
  5
396D6
  8
0
 10
2754.6943527018470377
 20
152.1369605343653006
 30
0.0
 40
0.0563174646444759
 50
229.382938771470009
 51
281.3648500721121195
  0
ARC
  5
396D7
  8
0
 10
2754.6883730880817893
 20
152.132146523543696
 30
0.0
 40
0.0487907628028025
 50
168.1354590004926877
 51
231.0331607063590127
  0
ARC
  5
396D8
  8
0
 10
2754.6913299971652123
 20
152.1303625806725961
 30
0.0
 40
0.0520637141045048
 50
107.4711857003614028
 51
166.8831130307422086
  0
ARC
  5
396D9
  8
0
 10
2754.6946077376592257
 20
152.1235355954605097
 30
0.0
 40
0.0595695553480463
 50
90.019438169535178
 51
108.507029612820503
  0
ARC
  5
396DA
  8
0
 10
2754.6952488112488027
 20
152.1536373992981908
 30
0.0
 40
0.0710477188571738
 50
138.5873779821679932
 51
160.0193617833386952
  0
ARC
  5
396DB
  8
0
 10
2754.68915239152102
 20
152.1582376065564119
 30
0.0
 40
0.0637857003711967
 50
162.0319999579924115
 51
205.811300865488306
  0
ARC
  5
396DC
  8
0
 10
2754.6854624589009291
 20
152.1553753971302001
 30
0.0
 40
0.059225615119055
 50
204.8728402320552107
 51
224.306565152083607
  0
LINE
  5
396DD
  8
0
 10
2754.6395838291568907
 20
152.1317634460849888
 30
0.0
 11
2754.6371727744340205
 21
152.1945635804395067
 31
0.0
  0
LINE
  5
396DE
  8
0
 10
2754.749544493403846
 20
152.1310940124436115
 30
0.0
 11
2754.7520304878371462
 21
152.1946786364783861
 31
0.0
  0
ARC
  5
396DF
  8
0
 10
2754.6919754745149476
 20
152.1739873939081917
 30
0.0
 40
0.0647741296937043
 50
180.488217838995098
 51
200.1697629086943948
  0
ARC
  5
396E0
  8
0
 10
2754.6904445918421516
 20
152.1734250558484973
 30
0.0
 40
0.0631432324397103
 50
200.1697629086959012
 51
216.0807705166047867
  0
ARC
  5
396E1
  8
0
 10
2754.6971991498389798
 20
152.1739873939081917
 30
0.0
 40
0.0647741296937043
 50
339.8302370913056052
 51
359.5117821610048168
  0
ARC
  5
396E2
  8
0
 10
2754.69873003251314
 20
152.1734250558484973
 30
0.0
 40
0.0631432324397103
 50
323.9192294833950996
 51
339.8302370913041273
  0
ARC
  5
396E3
  8
0
 10
2754.2467528962588403
 20
151.8986874490217076
 30
0.0
 40
0.0205878218031923
 50
136.9004333335302874
 51
198.4751338457560053
  0
ARC
  5
396E4
  8
0
 10
2754.2497707074030586
 20
151.8958634741107971
 30
0.0
 40
0.0247208616527655
 50
65.3608823607242897
 51
136.9004333335302874
  0
ARC
  5
396E5
  8
0
 10
2754.25070071438995
 20
151.8978911269350078
 30
0.0
 40
0.0224901019231741
 50
349.9785473550383017
 51
65.3608823607242897
  0
ARC
  5
396E6
  8
0
 10
2754.2510995744451066
 20
151.8995697407625869
 30
0.0
 40
0.0224555890709843
 50
296.1401888737851209
 51
345.5794684197896913
  0
ARC
  5
396E7
  8
0
 10
2754.2498213708499861
 20
151.90186280784269
 30
0.0
 40
0.0250776306466944
 50
229.4181648716121913
 51
296.4536863863147005
  0
ARC
  5
396E8
  8
0
 10
2754.2483626536741212
 20
151.8995844652766891
 30
0.0
 40
0.0224014630264246
 50
199.3464776089629993
 51
228.4608443339456869
  0
ARC
  5
396E9
  8
0
 10
2754.2465556276920324
 20
151.9275289642486086
 30
0.0
 40
0.0665852676443243
 50
99.3375172860837949
 51
137.897572680821014
  0
ARC
  5
396EA
  8
0
 10
2754.250023991179205
 20
151.9216998403753962
 30
0.0
 40
0.0729419529260173
 50
48.6293141185757065
 51
101.2832809668741021
  0
ARC
  5
396EB
  8
0
 10
2754.2559743721249106
 20
151.9297364692044994
 30
0.0
 40
0.0629837812638812
 50
348.9407472444876817
 51
47.8595343451344775
  0
ARC
  5
396EC
  8
0
 10
2754.2552444474608819
 20
151.9295084423172
 30
0.0
 40
0.063657449313394
 50
315.9450406519169974
 51
349.2682007589471027
  0
ARC
  5
396ED
  8
0
 10
2754.2498720533590131
 20
151.8964936135496941
 30
0.0
 40
0.0581493610480463
 50
48.350131668530409
 51
90.0957310043792745
  0
ARC
  5
396EE
  8
0
 10
2754.2563621631329625
 20
151.9037907977806015
 30
0.0
 40
0.0483835829140168
 50
355.266690289022506
 51
48.3501316685315032
  0
ARC
  5
396EF
  8
0
 10
2754.2574237694880139
 20
151.903702896469099
 30
0.0
 40
0.0473183436475459
 50
337.0397358111634958
 51
355.266690289022506
  0
ARC
  5
396F0
  8
0
 10
2754.2515827996498956
 20
151.906177461765509
 30
0.0
 40
0.0536618759487578
 50
279.7146281372027943
 51
337.0397358111634958
  0
ARC
  5
396F1
  8
0
 10
2754.2495400699781385
 20
151.9084982804166088
 30
0.0
 40
0.0563174646444759
 50
229.382938771470009
 51
281.3648500721121195
  0
ARC
  5
396F2
  8
0
 10
2754.2435604562128901
 20
151.9036842695948906
 30
0.0
 40
0.0487907628028025
 50
168.1354590004926877
 51
231.0331607063590127
  0
ARC
  5
396F3
  8
0
 10
2754.2465173652958583
 20
151.9019003267239043
 30
0.0
 40
0.0520637141045048
 50
107.4711857003614028
 51
166.8831130307422086
  0
ARC
  5
396F4
  8
0
 10
2754.2497951057889622
 20
151.8950733415117043
 30
0.0
 40
0.0595695553480463
 50
90.019438169535178
 51
108.507029612820503
  0
ARC
  5
396F5
  8
0
 10
2754.250436179378994
 20
151.925175145349499
 30
0.0
 40
0.0710477188571738
 50
138.5873779821679932
 51
160.0193617833386952
  0
ARC
  5
396F6
  8
0
 10
2754.2443397596498471
 20
151.9297753526076065
 30
0.0
 40
0.0637857003711967
 50
162.0319999579924115
 51
205.811300865488306
  0
ARC
  5
396F7
  8
0
 10
2754.2406498270311204
 20
151.9269131431815083
 30
0.0
 40
0.059225615119055
 50
204.8728402320552107
 51
224.306565152083607
  0
LINE
  5
396F8
  8
0
 10
2754.194771197287082
 20
151.9033011921362117
 30
0.0
 11
2754.1923601425651214
 21
151.9661013264907012
 31
0.0
  0
LINE
  5
396F9
  8
0
 10
2754.3047318615349468
 20
151.902631758494806
 30
0.0
 11
2754.3072178559668828
 21
151.9662163825296943
 31
0.0
  0
ARC
  5
396FA
  8
0
 10
2754.2471628426451389
 20
151.9455251399594999
 30
0.0
 40
0.0647741296937043
 50
180.488217838995098
 51
200.1697629086943948
  0
ARC
  5
396FB
  8
0
 10
2754.2456319599709786
 20
151.9449628018996918
 30
0.0
 40
0.0631432324397103
 50
200.1697629086959012
 51
216.0807705166047867
  0
ARC
  5
396FC
  8
0
 10
2754.2523865179691711
 20
151.9455251399594999
 30
0.0
 40
0.0647741296937043
 50
339.8302370913056052
 51
359.5117821610048168
  0
ARC
  5
396FD
  8
0
 10
2754.2539174006428766
 20
151.9449628018996918
 30
0.0
 40
0.0631432324397103
 50
323.9192294833950996
 51
339.8302370913041273
  0
ARC
  5
396FE
  8
0
 10
2754.6922178308668663
 20
151.6500590035477956
 30
0.0
 40
0.0205878218031923
 50
136.9004333335302874
 51
198.4751338457560053
  0
ARC
  5
396FF
  8
0
 10
2754.6952356420110846
 20
151.6472350286369135
 30
0.0
 40
0.0247208616527655
 50
65.3608823607242897
 51
136.9004333335302874
  0
ARC
  5
39700
  8
0
 10
2754.6961656489979759
 20
151.6492626814610958
 30
0.0
 40
0.0224901019231741
 50
349.9785473550383017
 51
65.3608823607242897
  0
ARC
  5
39701
  8
0
 10
2754.6965645090531325
 20
151.6509412952887033
 30
0.0
 40
0.0224555890709843
 50
296.1401888737851209
 51
345.5794684197896913
  0
ARC
  5
39702
  8
0
 10
2754.6952863054580121
 20
151.6532343623688064
 30
0.0
 40
0.0250776306466944
 50
229.4181648716121913
 51
296.4536863863147005
  0
ARC
  5
39703
  8
0
 10
2754.6938275882821472
 20
151.6509560198026918
 30
0.0
 40
0.0224014630264246
 50
199.3464776089629993
 51
228.4608443339456869
  0
ARC
  5
39704
  8
0
 10
2754.6920205623000584
 20
151.6789005187746966
 30
0.0
 40
0.0665852676443243
 50
99.3375172860837949
 51
137.897572680821014
  0
ARC
  5
39705
  8
0
 10
2754.6954889257867762
 20
151.6730713949013989
 30
0.0
 40
0.0729419529260173
 50
48.6293141185757065
 51
101.2832809668741021
  0
ARC
  5
39706
  8
0
 10
2754.7014393067329365
 20
151.6811080237305021
 30
0.0
 40
0.0629837812638812
 50
348.9407472444876817
 51
47.8595343451344775
  0
ARC
  5
39707
  8
0
 10
2754.7007093820689079
 20
151.6808799968432027
 30
0.0
 40
0.063657449313394
 50
315.9450406519169974
 51
349.2682007589471027
  0
ARC
  5
39708
  8
0
 10
2754.6953369879679485
 20
151.6478651680758105
 30
0.0
 40
0.0581493610480463
 50
48.350131668530409
 51
90.0957310043792745
  0
ARC
  5
39709
  8
0
 10
2754.7018270977400789
 20
151.6551623523066041
 30
0.0
 40
0.0483835829140168
 50
355.266690289022506
 51
48.3501316685315032
  0
ARC
  5
3970A
  8
0
 10
2754.7028887040960399
 20
151.6550744509951869
 30
0.0
 40
0.0473183436475459
 50
337.0397358111634958
 51
355.266690289022506
  0
ARC
  5
3970B
  8
0
 10
2754.6970477342579215
 20
151.6575490162915969
 30
0.0
 40
0.0536618759487578
 50
279.7146281372027943
 51
337.0397358111634958
  0
ARC
  5
3970C
  8
0
 10
2754.6950050045861644
 20
151.6598698349426115
 30
0.0
 40
0.0563174646444759
 50
229.382938771470009
 51
281.3648500721121195
  0
ARC
  5
3970D
  8
0
 10
2754.6890253908209161
 20
151.6550558241208932
 30
0.0
 40
0.0487907628028025
 50
168.1354590004926877
 51
231.0331607063590127
  0
ARC
  5
3970E
  8
0
 10
2754.6919822999029748
 20
151.653271881249907
 30
0.0
 40
0.0520637141045048
 50
107.4711857003614028
 51
166.8831130307422086
  0
ARC
  5
3970F
  8
0
 10
2754.6952600403969882
 20
151.6464448960377922
 30
0.0
 40
0.0595695553480463
 50
90.019438169535178
 51
108.507029612820503
  0
ARC
  5
39710
  8
0
 10
2754.6959011139870199
 20
151.6765466998755016
 30
0.0
 40
0.0710477188571738
 50
138.5873779821679932
 51
160.0193617833386952
  0
ARC
  5
39711
  8
0
 10
2754.6898046942587825
 20
151.6811469071336944
 30
0.0
 40
0.0637857003711967
 50
162.0319999579924115
 51
205.811300865488306
  0
ARC
  5
39712
  8
0
 10
2754.6861147616391463
 20
151.678284697707511
 30
0.0
 40
0.059225615119055
 50
204.8728402320552107
 51
224.306565152083607
  0
LINE
  5
39713
  8
0
 10
2754.640236131895108
 20
151.6546727466622997
 30
0.0
 11
2754.6378250771731473
 21
151.7174728810167039
 31
0.0
  0
LINE
  5
39714
  8
0
 10
2754.7501967961429727
 20
151.654003313020894
 30
0.0
 11
2754.7526827905758182
 21
151.717587937055697
 31
0.0
  0
ARC
  5
39715
  8
0
 10
2754.6926277772531648
 20
151.6968966944855026
 30
0.0
 40
0.0647741296937043
 50
180.488217838995098
 51
200.1697629086943948
  0
ARC
  5
39716
  8
0
 10
2754.6910968945799141
 20
151.6963343564256945
 30
0.0
 40
0.0631432324397103
 50
200.1697629086959012
 51
216.0807705166047867
  0
ARC
  5
39717
  8
0
 10
2754.6978514525771971
 20
151.6968966944855026
 30
0.0
 40
0.0647741296937043
 50
339.8302370913056052
 51
359.5117821610048168
  0
ARC
  5
39718
  8
0
 10
2754.6993823352509025
 20
151.6963343564256945
 30
0.0
 40
0.0631432324397103
 50
323.9192294833950996
 51
339.8302370913041273
  0
ARC
  5
39719
  8
0
 10
2755.1361894147930798
 20
151.8838857860581868
 30
0.0
 40
0.0205878218031923
 50
136.9004333335302874
 51
198.4751338457560053
  0
ARC
  5
3971A
  8
0
 10
2755.1392072259368433
 20
151.8810618111473048
 30
0.0
 40
0.0247208616527655
 50
65.3608823607242897
 51
136.9004333335302874
  0
ARC
  5
3971B
  8
0
 10
2755.1401372329241894
 20
151.883089463971487
 30
0.0
 40
0.0224901019231741
 50
349.9785473550383017
 51
65.3608823607242897
  0
ARC
  5
3971C
  8
0
 10
2755.1405360929788912
 20
151.8847680777990945
 30
0.0
 40
0.0224555890709843
 50
296.1401888737851209
 51
345.5794684197896913
  0
ARC
  5
3971D
  8
0
 10
2755.1392578893842256
 20
151.8870611448791976
 30
0.0
 40
0.0250776306466944
 50
229.4181648716121913
 51
296.4536863863147005
  0
ARC
  5
3971E
  8
0
 10
2755.1377991722069964
 20
151.8847828023131115
 30
0.0
 40
0.0224014630264246
 50
199.3464776089629993
 51
228.4608443339456869
  0
ARC
  5
3971F
  8
0
 10
2755.1359921462258171
 20
151.9127273012850878
 30
0.0
 40
0.0665852676443243
 50
99.3375172860837949
 51
137.897572680821014
  0
ARC
  5
39720
  8
0
 10
2755.1394605097120802
 20
151.9068981774117901
 30
0.0
 40
0.0729419529260173
 50
48.6293141185757065
 51
101.2832809668741021
  0
ARC
  5
39721
  8
0
 10
2755.14541089065915
 20
151.9149348062408933
 30
0.0
 40
0.0629837812638812
 50
348.9407472444876817
 51
47.8595343451344775
  0
ARC
  5
39722
  8
0
 10
2755.1446809659942119
 20
151.9147067793535939
 30
0.0
 40
0.063657449313394
 50
315.9450406519169974
 51
349.2682007589471027
  0
ARC
  5
39723
  8
0
 10
2755.1393085718927978
 20
151.8816919505862018
 30
0.0
 40
0.0581493610480463
 50
48.350131668530409
 51
90.0957310043792745
  0
ARC
  5
39724
  8
0
 10
2755.1457986816658376
 20
151.8889891348169954
 30
0.0
 40
0.0483835829140168
 50
355.266690289022506
 51
48.3501316685315032
  0
ARC
  5
39725
  8
0
 10
2755.1468602880217986
 20
151.8889012335056066
 30
0.0
 40
0.0473183436475459
 50
337.0397358111634958
 51
355.266690289022506
  0
ARC
  5
39726
  8
0
 10
2755.141019318184135
 20
151.8913757988019029
 30
0.0
 40
0.0536618759487578
 50
279.7146281372027943
 51
337.0397358111634958
  0
ARC
  5
39727
  8
0
 10
2755.1389765885119232
 20
151.8936966174530028
 30
0.0
 40
0.0563174646444759
 50
229.382938771470009
 51
281.3648500721121195
  0
ARC
  5
39728
  8
0
 10
2755.1329969747462201
 20
151.8888826066313129
 30
0.0
 40
0.0487907628028025
 50
168.1354590004926877
 51
231.0331607063590127
  0
ARC
  5
39729
  8
0
 10
2755.1359538838291883
 20
151.8870986637602982
 30
0.0
 40
0.0520637141045048
 50
107.4711857003614028
 51
166.8831130307422086
  0
ARC
  5
3972A
  8
0
 10
2755.1392316243218374
 20
151.8802716785482119
 30
0.0
 40
0.0595695553480463
 50
90.019438169535178
 51
108.507029612820503
  0
ARC
  5
3972B
  8
0
 10
2755.1398726979118692
 20
151.9103734823858929
 30
0.0
 40
0.0710477188571738
 50
138.5873779821679932
 51
160.0193617833386952
  0
ARC
  5
3972C
  8
0
 10
2755.1337762781840866
 20
151.9149736896440004
 30
0.0
 40
0.0637857003711967
 50
162.0319999579924115
 51
205.811300865488306
  0
ARC
  5
3972D
  8
0
 10
2755.1300863455639956
 20
151.9121114802179022
 30
0.0
 40
0.059225615119055
 50
204.8728402320552107
 51
224.306565152083607
  0
LINE
  5
3972E
  8
0
 10
2755.0842077158199572
 20
151.8884995291726909
 30
0.0
 11
2755.0817966610979965
 21
151.9512996635270952
 31
0.0
  0
LINE
  5
3972F
  8
0
 10
2755.194168380067822
 20
151.8878300955313136
 30
0.0
 11
2755.1966543745011222
 21
151.9514147195660883
 31
0.0
  0
ARC
  5
39730
  8
0
 10
2755.1365993611780141
 20
151.9307234769958939
 30
0.0
 40
0.0647741296937043
 50
180.488217838995098
 51
200.1697629086943948
  0
ARC
  5
39731
  8
0
 10
2755.1350684785052181
 20
151.9301611389361142
 30
0.0
 40
0.0631432324397103
 50
200.1697629086959012
 51
216.0807705166047867
  0
ARC
  5
39732
  8
0
 10
2755.1418230365029558
 20
151.9307234769958939
 30
0.0
 40
0.0647741296937043
 50
339.8302370913056052
 51
359.5117821610048168
  0
ARC
  5
39733
  8
0
 10
2755.1433539191762065
 20
151.9301611389361142
 30
0.0
 40
0.0631432324397103
 50
323.9192294833950996
 51
339.8302370913041273
  0
ARC
  5
39734
  8
0
 10
2753.802148472483168
 20
151.6793207490379132
 30
0.0
 40
0.0205878218031923
 50
136.9004333335302874
 51
198.4751338457560053
  0
ARC
  5
39735
  8
0
 10
2753.8051662836269315
 20
151.6764967741270027
 30
0.0
 40
0.0247208616527655
 50
65.3608823607242897
 51
136.9004333335302874
  0
ARC
  5
39736
  8
0
 10
2753.8060962906138229
 20
151.6785244269512134
 30
0.0
 40
0.0224901019231741
 50
349.9785473550383017
 51
65.3608823607242897
  0
ARC
  5
39737
  8
0
 10
2753.8064951506689795
 20
151.6802030407787925
 30
0.0
 40
0.0224555890709843
 50
296.1401888737851209
 51
345.5794684197896913
  0
ARC
  5
39738
  8
0
 10
2753.8052169470752233
 20
151.6824961078588956
 30
0.0
 40
0.0250776306466944
 50
229.4181648716121913
 51
296.4536863863147005
  0
ARC
  5
39739
  8
0
 10
2753.8037582298979942
 20
151.6802177652928094
 30
0.0
 40
0.0224014630264246
 50
199.3464776089629993
 51
228.4608443339456869
  0
ARC
  5
3973A
  8
0
 10
2753.8019512039159054
 20
151.7081622642647858
 30
0.0
 40
0.0665852676443243
 50
99.3375172860837949
 51
137.897572680821014
  0
ARC
  5
3973B
  8
0
 10
2753.8054195674021685
 20
151.7023331403914881
 30
0.0
 40
0.0729419529260173
 50
48.6293141185757065
 51
101.2832809668741021
  0
ARC
  5
3973C
  8
0
 10
2753.8113699483487835
 20
151.7103697692205913
 30
0.0
 40
0.0629837812638812
 50
348.9407472444876817
 51
47.8595343451344775
  0
ARC
  5
3973D
  8
0
 10
2753.8106400236838454
 20
151.7101417423332919
 30
0.0
 40
0.063657449313394
 50
315.9450406519169974
 51
349.2682007589471027
  0
ARC
  5
3973E
  8
0
 10
2753.8052676295837955
 20
151.677126913565786
 30
0.0
 40
0.0581493610480463
 50
48.350131668530409
 51
90.0957310043792745
  0
ARC
  5
3973F
  8
0
 10
2753.8117577393559259
 20
151.6844240977966933
 30
0.0
 40
0.0483835829140168
 50
355.266690289022506
 51
48.3501316685315032
  0
ARC
  5
39740
  8
0
 10
2753.8128193457118869
 20
151.6843361964851908
 30
0.0
 40
0.0473183436475459
 50
337.0397358111634958
 51
355.266690289022506
  0
ARC
  5
39741
  8
0
 10
2753.8069783758742233
 20
151.6868107617816008
 30
0.0
 40
0.0536618759487578
 50
279.7146281372027943
 51
337.0397358111634958
  0
ARC
  5
39742
  8
0
 10
2753.8049356462020114
 20
151.6891315804327007
 30
0.0
 40
0.0563174646444759
 50
229.382938771470009
 51
281.3648500721121195
  0
ARC
  5
39743
  8
0
 10
2753.7989560324358536
 20
151.6843175696110109
 30
0.0
 40
0.0487907628028025
 50
168.1354590004926877
 51
231.0331607063590127
  0
ARC
  5
39744
  8
0
 10
2753.8019129415188218
 20
151.6825336267399962
 30
0.0
 40
0.0520637141045048
 50
107.4711857003614028
 51
166.8831130307422086
  0
ARC
  5
39745
  8
0
 10
2753.8051906820128352
 20
151.6757066415277961
 30
0.0
 40
0.0595695553480463
 50
90.019438169535178
 51
108.507029612820503
  0
ARC
  5
39746
  8
0
 10
2753.8058317556028669
 20
151.7058084453655908
 30
0.0
 40
0.0710477188571738
 50
138.5873779821679932
 51
160.0193617833386952
  0
ARC
  5
39747
  8
0
 10
2753.7997353358750843
 20
151.7104086526236983
 30
0.0
 40
0.0637857003711967
 50
162.0319999579924115
 51
205.811300865488306
  0
ARC
  5
39748
  8
0
 10
2753.7960454032549933
 20
151.7075464431976002
 30
0.0
 40
0.059225615119055
 50
204.8728402320552107
 51
224.306565152083607
  0
LINE
  5
39749
  8
0
 10
2753.750166773510955
 20
151.6839344921523889
 30
0.0
 11
2753.7477557187889943
 21
151.7467346265067931
 31
0.0
  0
LINE
  5
3974A
  8
0
 10
2753.8601274377588197
 20
151.6832650585110116
 30
0.0
 11
2753.8626134321912104
 21
151.7468496825457862
 31
0.0
  0
ARC
  5
3974B
  8
0
 10
2753.8025584188690118
 20
151.7261584399755918
 30
0.0
 40
0.0647741296937043
 50
180.488217838995098
 51
200.1697629086943948
  0
ARC
  5
3974C
  8
0
 10
2753.8010275361962158
 20
151.7255961019158121
 30
0.0
 40
0.0631432324397103
 50
200.1697629086959012
 51
216.0807705166047867
  0
ARC
  5
3974D
  8
0
 10
2753.8077820941939535
 20
151.7261584399755918
 30
0.0
 40
0.0647741296937043
 50
339.8302370913056052
 51
359.5117821610048168
  0
ARC
  5
3974E
  8
0
 10
2753.8093129768672043
 20
151.7255961019158121
 30
0.0
 40
0.0631432324397103
 50
323.9192294833950996
 51
339.8302370913041273
  0
ARC
  5
3974F
  8
0
 10
2754.2473564518641069
 20
151.426229765717892
 30
0.0
 40
0.0205878218031923
 50
136.9004333335302874
 51
198.4751338457560053
  0
ARC
  5
39750
  8
0
 10
2754.25037426300878
 20
151.4234057908070099
 30
0.0
 40
0.0247208616527655
 50
65.3608823607242897
 51
136.9004333335302874
  0
ARC
  5
39751
  8
0
 10
2754.2513042699952166
 20
151.4254334436313059
 30
0.0
 40
0.0224901019231741
 50
349.9785473550383017
 51
65.3608823607242897
  0
ARC
  5
39752
  8
0
 10
2754.2517031300499184
 20
151.4271120574587997
 30
0.0
 40
0.0224555890709843
 50
296.1401888737851209
 51
345.5794684197896913
  0
ARC
  5
39753
  8
0
 10
2754.2504249264561622
 20
151.4294051245389028
 30
0.0
 40
0.0250776306466944
 50
229.4181648716121913
 51
296.4536863863147005
  0
ARC
  5
39754
  8
0
 10
2754.2489662092789331
 20
151.4271267819727882
 30
0.0
 40
0.0224014630264246
 50
199.3464776089629993
 51
228.4608443339456869
  0
ARC
  5
39755
  8
0
 10
2754.2471591832968443
 20
151.4550712809449067
 30
0.0
 40
0.0665852676443243
 50
99.3375172860837949
 51
137.897572680821014
  0
ARC
  5
39756
  8
0
 10
2754.2506275467840169
 20
151.4492421570714953
 30
0.0
 40
0.0729419529260173
 50
48.6293141185757065
 51
101.2832809668741021
  0
ARC
  5
39757
  8
0
 10
2754.2565779277301772
 20
151.4572787859005985
 30
0.0
 40
0.0629837812638812
 50
348.9407472444876817
 51
47.8595343451344775
  0
ARC
  5
39758
  8
0
 10
2754.2558480030661485
 20
151.4570507590132991
 30
0.0
 40
0.063657449313394
 50
315.9450406519169974
 51
349.2682007589471027
  0
ARC
  5
39759
  8
0
 10
2754.2504756089651892
 20
151.4240359302459069
 30
0.0
 40
0.0581493610480463
 50
48.350131668530409
 51
90.0957310043792745
  0
ARC
  5
3975A
  8
0
 10
2754.2569657187377743
 20
151.4313331144767858
 30
0.0
 40
0.0483835829140168
 50
355.266690289022506
 51
48.3501316685315032
  0
ARC
  5
3975B
  8
0
 10
2754.2580273250928258
 20
151.4312452131653117
 30
0.0
 40
0.0473183436475459
 50
337.0397358111634958
 51
355.266690289022506
  0
ARC
  5
3975C
  8
0
 10
2754.2521863552551622
 20
151.4337197784616933
 30
0.0
 40
0.0536618759487578
 50
279.7146281372027943
 51
337.0397358111634958
  0
ARC
  5
3975D
  8
0
 10
2754.2501436255829503
 20
151.4360405971127079
 30
0.0
 40
0.0563174646444759
 50
229.382938771470009
 51
281.3648500721121195
  0
ARC
  5
3975E
  8
0
 10
2754.2441640118181567
 20
151.4312265862909896
 30
0.0
 40
0.0487907628028025
 50
168.1354590004926877
 51
231.0331607063590127
  0
ARC
  5
3975F
  8
0
 10
2754.2471209209011249
 20
151.4294426434200034
 30
0.0
 40
0.0520637141045048
 50
107.4711857003614028
 51
166.8831130307422086
  0
ARC
  5
39760
  8
0
 10
2754.2503986613937741
 20
151.4226156582078886
 30
0.0
 40
0.0595695553480463
 50
90.019438169535178
 51
108.507029612820503
  0
ARC
  5
39761
  8
0
 10
2754.2510397349838058
 20
151.452717462045598
 30
0.0
 40
0.0710477188571738
 50
138.5873779821679932
 51
160.0193617833386952
  0
ARC
  5
39762
  8
0
 10
2754.2449433152560232
 20
151.4573176693037908
 30
0.0
 40
0.0637857003711967
 50
162.0319999579924115
 51
205.811300865488306
  0
ARC
  5
39763
  8
0
 10
2754.2412533826359322
 20
151.4544554598776074
 30
0.0
 40
0.059225615119055
 50
204.8728402320552107
 51
224.306565152083607
  0
LINE
  5
39764
  8
0
 10
2754.1953747528918939
 20
151.4308435088323961
 30
0.0
 11
2754.1929636981699332
 21
151.493643643186914
 31
0.0
  0
LINE
  5
39765
  8
0
 10
2754.3053354171402134
 20
151.4301740751909904
 30
0.0
 11
2754.3078214115721494
 21
151.4937586992257934
 31
0.0
  0
ARC
  5
39766
  8
0
 10
2754.2477663982499507
 20
151.473067456655599
 30
0.0
 40
0.0647741296937043
 50
180.488217838995098
 51
200.1697629086943948
  0
ARC
  5
39767
  8
0
 10
2754.2462355155771547
 20
151.4725051185959046
 30
0.0
 40
0.0631432324397103
 50
200.1697629086959012
 51
216.0807705166047867
  0
ARC
  5
39768
  8
0
 10
2754.252990073573983
 20
151.473067456655599
 30
0.0
 40
0.0647741296937043
 50
339.8302370913056052
 51
359.5117821610048168
  0
ARC
  5
39769
  8
0
 10
2754.2545209562481432
 20
151.4725051185959046
 30
0.0
 40
0.0631432324397103
 50
323.9192294833950996
 51
339.8302370913041273
  0
ARC
  5
3976A
  8
0
 10
2753.8026086784680047
 20
151.2126395184664887
 30
0.0
 40
0.0205878218031923
 50
136.9004333335302874
 51
198.4751338457560053
  0
ARC
  5
3976B
  8
0
 10
2753.8056264896122229
 20
151.2098155435556066
 30
0.0
 40
0.0247208616527655
 50
65.3608823607242897
 51
136.9004333335302874
  0
ARC
  5
3976C
  8
0
 10
2753.8065564965991143
 20
151.2118431963797889
 30
0.0
 40
0.0224901019231741
 50
349.9785473550383017
 51
65.3608823607242897
  0
ARC
  5
3976D
  8
0
 10
2753.8069553566538161
 20
151.2135218102073964
 30
0.0
 40
0.0224555890709843
 50
296.1401888737851209
 51
345.5794684197896913
  0
ARC
  5
3976E
  8
0
 10
2753.8056771530591504
 20
151.2158148772874995
 30
0.0
 40
0.0250776306466944
 50
229.4181648716121913
 51
296.4536863863147005
  0
ARC
  5
3976F
  8
0
 10
2753.8042184358828308
 20
151.2135365347214133
 30
0.0
 40
0.0224014630264246
 50
199.3464776089629993
 51
228.4608443339456869
  0
ARC
  5
39770
  8
0
 10
2753.8024114099011967
 20
151.2414810336933897
 30
0.0
 40
0.0665852676443243
 50
99.3375172860837949
 51
137.897572680821014
  0
ARC
  5
39771
  8
0
 10
2753.8058797733879146
 20
151.235651909820092
 30
0.0
 40
0.0729419529260173
 50
48.6293141185757065
 51
101.2832809668741021
  0
ARC
  5
39772
  8
0
 10
2753.8118301543340749
 20
151.2436885386493088
 30
0.0
 40
0.0629837812638812
 50
348.9407472444876817
 51
47.8595343451344775
  0
ARC
  5
39773
  8
0
 10
2753.8111002296700462
 20
151.2434605117618958
 30
0.0
 40
0.063657449313394
 50
315.9450406519169974
 51
349.2682007589471027
  0
ARC
  5
39774
  8
0
 10
2753.8057278355690869
 20
151.2104456829945036
 30
0.0
 40
0.0581493610480463
 50
48.350131668530409
 51
90.0957310043792745
  0
ARC
  5
39775
  8
0
 10
2753.8122179453421268
 20
151.2177428672254109
 30
0.0
 40
0.0483835829140168
 50
355.266690289022506
 51
48.3501316685315032
  0
ARC
  5
39776
  8
0
 10
2753.8132795516971782
 20
151.2176549659139084
 30
0.0
 40
0.0473183436475459
 50
337.0397358111634958
 51
355.266690289022506
  0
ARC
  5
39777
  8
0
 10
2753.8074385818590599
 20
151.2201295312102047
 30
0.0
 40
0.0536618759487578
 50
279.7146281372027943
 51
337.0397358111634958
  0
ARC
  5
39778
  8
0
 10
2753.8053958521868481
 20
151.2224503498613899
 30
0.0
 40
0.0563174646444759
 50
229.382938771470009
 51
281.3648500721121195
  0
ARC
  5
39779
  8
0
 10
2753.7994162384220544
 20
151.2176363390397
 30
0.0
 40
0.0487907628028025
 50
168.1354590004926877
 51
231.0331607063590127
  0
ARC
  5
3977A
  8
0
 10
2753.8023731475041131
 20
151.2158523961686001
 30
0.0
 40
0.0520637141045048
 50
107.4711857003614028
 51
166.8831130307422086
  0
ARC
  5
3977B
  8
0
 10
2753.8056508879981266
 20
151.2090254109565137
 30
0.0
 40
0.0595695553480463
 50
90.019438169535178
 51
108.507029612820503
  0
ARC
  5
3977C
  8
0
 10
2753.8062919615881583
 20
151.2391272147943084
 30
0.0
 40
0.0710477188571738
 50
138.5873779821679932
 51
160.0193617833386952
  0
ARC
  5
3977D
  8
0
 10
2753.8001955418599209
 20
151.2437274220523875
 30
0.0
 40
0.0637857003711967
 50
162.0319999579924115
 51
205.811300865488306
  0
ARC
  5
3977E
  8
0
 10
2753.7965056092398299
 20
151.2408652126262041
 30
0.0
 40
0.059225615119055
 50
204.8728402320552107
 51
224.306565152083607
  0
LINE
  5
3977F
  8
0
 10
2753.7506269794957916
 20
151.2172532615809928
 30
0.0
 11
2753.7482159247738309
 21
151.2800533959355107
 31
0.0
  0
LINE
  5
39780
  8
0
 10
2753.8605876437441111
 20
151.2165838279395871
 30
0.0
 11
2753.8630736381760471
 21
151.2801684519743901
 31
0.0
  0
ARC
  5
39781
  8
0
 10
2753.8030186248538485
 20
151.2594772094043094
 30
0.0
 40
0.0647741296937043
 50
180.488217838995098
 51
200.1697629086943948
  0
ARC
  5
39782
  8
0
 10
2753.8014877421810525
 20
151.2589148713445013
 30
0.0
 40
0.0631432324397103
 50
200.1697629086959012
 51
216.0807705166047867
  0
ARC
  5
39783
  8
0
 10
2753.8082423001778807
 20
151.2594772094043094
 30
0.0
 40
0.0647741296937043
 50
339.8302370913056052
 51
359.5117821610048168
  0
ARC
  5
39784
  8
0
 10
2753.8097731828511314
 20
151.2589148713445013
 30
0.0
 40
0.0631432324397103
 50
323.9192294833950996
 51
339.8302370913041273
  0
ARC
  5
39785
  8
0
 10
2754.2474076776647962
 20
150.964610320498906
 30
0.0
 40
0.0205878218031923
 50
136.9004333335302874
 51
198.4751338457560053
  0
ARC
  5
39786
  8
0
 10
2754.2504254888090145
 20
150.9617863455879956
 30
0.0
 40
0.0247208616527655
 50
65.3608823607242897
 51
136.9004333335302874
  0
ARC
  5
39787
  8
0
 10
2754.2513554957959059
 20
150.9638139984122063
 30
0.0
 40
0.0224901019231741
 50
349.9785473550383017
 51
65.3608823607242897
  0
ARC
  5
39788
  8
0
 10
2754.2517543558510624
 20
150.9654926122398138
 30
0.0
 40
0.0224555890709843
 50
296.1401888737851209
 51
345.5794684197896913
  0
ARC
  5
39789
  8
0
 10
2754.2504761522568515
 20
150.9677856793198885
 30
0.0
 40
0.0250776306466944
 50
229.4181648716121913
 51
296.4536863863147005
  0
ARC
  5
3978A
  8
0
 10
2754.2490174350800771
 20
150.9655073367538023
 30
0.0
 40
0.0224014630264246
 50
199.3464776089629993
 51
228.4608443339456869
  0
ARC
  5
3978B
  8
0
 10
2754.2472104090979883
 20
150.9934518357258071
 30
0.0
 40
0.0665852676443243
 50
99.3375172860837949
 51
137.897572680821014
  0
ARC
  5
3978C
  8
0
 10
2754.2506787725837967
 20
150.9876227118525094
 30
0.0
 40
0.0729419529260173
 50
48.6293141185757065
 51
101.2832809668741021
  0
ARC
  5
3978D
  8
0
 10
2754.2566291535308665
 20
150.9956593406816125
 30
0.0
 40
0.0629837812638812
 50
348.9407472444876817
 51
47.8595343451344775
  0
ARC
  5
3978E
  8
0
 10
2754.2558992288668378
 20
150.9954313137943132
 30
0.0
 40
0.063657449313394
 50
315.9450406519169974
 51
349.2682007589471027
  0
ARC
  5
3978F
  8
0
 10
2754.250526834764969
 20
150.9624164850268926
 30
0.0
 40
0.0581493610480463
 50
48.350131668530409
 51
90.0957310043792745
  0
ARC
  5
39790
  8
0
 10
2754.2570169445389183
 20
150.9697136692577999
 30
0.0
 40
0.0483835829140168
 50
355.266690289022506
 51
48.3501316685315032
  0
ARC
  5
39791
  8
0
 10
2754.2580785508939698
 20
150.9696257679462974
 30
0.0
 40
0.0473183436475459
 50
337.0397358111634958
 51
355.266690289022506
  0
ARC
  5
39792
  8
0
 10
2754.2522375810558515
 20
150.9721003332427074
 30
0.0
 40
0.0536618759487578
 50
279.7146281372027943
 51
337.0397358111634958
  0
ARC
  5
39793
  8
0
 10
2754.2501948513840944
 20
150.9744211518938073
 30
0.0
 40
0.0563174646444759
 50
229.382938771470009
 51
281.3648500721121195
  0
ARC
  5
39794
  8
0
 10
2754.244215237618846
 20
150.9696071410720037
 30
0.0
 40
0.0487907628028025
 50
168.1354590004926877
 51
231.0331607063590127
  0
ARC
  5
39795
  8
0
 10
2754.2471721467018142
 20
150.9678231982009891
 30
0.0
 40
0.0520637141045048
 50
107.4711857003614028
 51
166.8831130307422086
  0
ARC
  5
39796
  8
0
 10
2754.2504498871949181
 20
150.9609962129889027
 30
0.0
 40
0.0595695553480463
 50
90.019438169535178
 51
108.507029612820503
  0
ARC
  5
39797
  8
0
 10
2754.2510909607849499
 20
150.9910980168266121
 30
0.0
 40
0.0710477188571738
 50
138.5873779821679932
 51
160.0193617833386952
  0
ARC
  5
39798
  8
0
 10
2754.244994541055803
 20
150.9956982240848049
 30
0.0
 40
0.0637857003711967
 50
162.0319999579924115
 51
205.811300865488306
  0
ARC
  5
39799
  8
0
 10
2754.2413046084370762
 20
150.9928360146585931
 30
0.0
 40
0.059225615119055
 50
204.8728402320552107
 51
224.306565152083607
  0
LINE
  5
3979A
  8
0
 10
2754.1954259786930379
 20
150.9692240636134102
 30
0.0
 11
2754.1930149239710772
 21
151.0320241979678997
 31
0.0
  0
LINE
  5
3979B
  8
0
 10
2754.3053866429399932
 20
150.9685546299720045
 30
0.0
 11
2754.3078726373728387
 21
151.0321392540068928
 31
0.0
  0
ARC
  5
3979C
  8
0
 10
2754.2478176240510948
 20
151.0114480114366984
 30
0.0
 40
0.0647741296937043
 50
180.488217838995098
 51
200.1697629086943948
  0
ARC
  5
3979D
  8
0
 10
2754.2462867413769345
 20
151.0108856733768903
 30
0.0
 40
0.0631432324397103
 50
200.1697629086959012
 51
216.0807705166047867
  0
ARC
  5
3979E
  8
0
 10
2754.2530412993760365
 20
151.0114480114366984
 30
0.0
 40
0.0647741296937043
 50
339.8302370913056052
 51
359.5117821610048168
  0
ARC
  5
3979F
  8
0
 10
2754.2545721820488325
 20
151.0108856733768903
 30
0.0
 40
0.0631432324397103
 50
323.9192294833950996
 51
339.8302370913041273
  0
ARC
  5
397A0
  8
0
 10
2753.8024719386289689
 20
150.7560275800647105
 30
0.0
 40
0.0205878218031923
 50
136.9004333335302874
 51
198.4751338457560053
  0
ARC
  5
397A1
  8
0
 10
2753.8054897497731872
 20
150.7532036051538
 30
0.0
 40
0.0247208616527655
 50
65.3608823607242897
 51
136.9004333335302874
  0
ARC
  5
397A2
  8
0
 10
2753.8064197567600786
 20
150.7552312579780107
 30
0.0
 40
0.0224901019231741
 50
349.9785473550383017
 51
65.3608823607242897
  0
ARC
  5
397A3
  8
0
 10
2753.8068186168138709
 20
150.7569098718055898
 30
0.0
 40
0.0224555890709843
 50
296.1401888737851209
 51
345.5794684197896913
  0
ARC
  5
397A4
  8
0
 10
2753.8055404132201147
 20
150.7592029388856929
 30
0.0
 40
0.0250776306466944
 50
229.4181648716121913
 51
296.4536863863147005
  0
ARC
  5
397A5
  8
0
 10
2753.8040816960428856
 20
150.7569245963196067
 30
0.0
 40
0.0224014630264246
 50
199.3464776089629993
 51
228.4608443339456869
  0
ARC
  5
397A6
  8
0
 10
2753.802274670062161
 20
150.7848690952916115
 30
0.0
 40
0.0665852676443243
 50
99.3375172860837949
 51
137.897572680821014
  0
ARC
  5
397A7
  8
0
 10
2753.8057430335479694
 20
150.7790399714183138
 30
0.0
 40
0.0729419529260173
 50
48.6293141185757065
 51
101.2832809668741021
  0
ARC
  5
397A8
  8
0
 10
2753.8116934144941297
 20
150.7870766002473886
 30
0.0
 40
0.0629837812638812
 50
348.9407472444876817
 51
47.8595343451344775
  0
ARC
  5
397A9
  8
0
 10
2753.810963489830101
 20
150.7868485733600892
 30
0.0
 40
0.063657449313394
 50
315.9450406519169974
 51
349.2682007589471027
  0
ARC
  5
397AA
  8
0
 10
2753.8055910957291417
 20
150.753833744592697
 30
0.0
 40
0.0581493610480463
 50
48.350131668530409
 51
90.0957310043792745
  0
ARC
  5
397AB
  8
0
 10
2753.812081205503091
 20
150.7611309288234906
 30
0.0
 40
0.0483835829140168
 50
355.266690289022506
 51
48.3501316685315032
  0
ARC
  5
397AC
  8
0
 10
2753.8131428118581425
 20
150.7610430275119882
 30
0.0
 40
0.0473183436475459
 50
337.0397358111634958
 51
355.266690289022506
  0
ARC
  5
397AD
  8
0
 10
2753.8073018420200242
 20
150.7635175928083981
 30
0.0
 40
0.0536618759487578
 50
279.7146281372027943
 51
337.0397358111634958
  0
ARC
  5
397AE
  8
0
 10
2753.8052591123478123
 20
150.765838411459498
 30
0.0
 40
0.0563174646444759
 50
229.382938771470009
 51
281.3648500721121195
  0
ARC
  5
397AF
  8
0
 10
2753.7992794985821092
 20
150.7610244006378935
 30
0.0
 40
0.0487907628028025
 50
168.1354590004926877
 51
231.0331607063590127
  0
ARC
  5
397B0
  8
0
 10
2753.8022364076650774
 20
150.7592404577667935
 30
0.0
 40
0.0520637141045048
 50
107.4711857003614028
 51
166.8831130307422086
  0
ARC
  5
397B1
  8
0
 10
2753.8055141481581813
 20
150.7524134725547071
 30
0.0
 40
0.0595695553480463
 50
90.019438169535178
 51
108.507029612820503
  0
ARC
  5
397B2
  8
0
 10
2753.8061552217482131
 20
150.7825152763923882
 30
0.0
 40
0.0710477188571738
 50
138.5873779821679932
 51
160.0193617833386952
  0
ARC
  5
397B3
  8
0
 10
2753.8000588020199757
 20
150.7871154836506093
 30
0.0
 40
0.0637857003711967
 50
162.0319999579924115
 51
205.811300865488306
  0
ARC
  5
397B4
  8
0
 10
2753.7963688693998847
 20
150.7842532742243975
 30
0.0
 40
0.059225615119055
 50
204.8728402320552107
 51
224.306565152083607
  0
LINE
  5
397B5
  8
0
 10
2753.7504902396572106
 20
150.7606413231791862
 30
0.0
 11
2753.7480791849338857
 21
150.8234414575337041
 31
0.0
  0
LINE
  5
397B6
  8
0
 10
2753.8604509039041659
 20
150.7599718895378089
 30
0.0
 11
2753.8629368983370114
 21
150.8235565135726119
 31
0.0
  0
ARC
  5
397B7
  8
0
 10
2753.8028818850148127
 20
150.8028652710023891
 30
0.0
 40
0.0647741296937043
 50
180.488217838995098
 51
200.1697629086943948
  0
ARC
  5
397B8
  8
0
 10
2753.8013510023411072
 20
150.8023029329426947
 30
0.0
 40
0.0631432324397103
 50
200.1697629086959012
 51
216.0807705166047867
  0
ARC
  5
397B9
  8
0
 10
2753.808105560338845
 20
150.8028652710023891
 30
0.0
 40
0.0647741296937043
 50
339.8302370913056052
 51
359.5117821610048168
  0
ARC
  5
397BA
  8
0
 10
2753.8096364430120957
 20
150.8023029329426947
 30
0.0
 40
0.0631432324397103
 50
323.9192294833950996
 51
339.8302370913041273
  0
ARC
  5
397BB
  8
0
 10
2754.2475365683899327
 20
150.5113687983815964
 30
0.0
 40
0.0205878218031923
 50
136.9004333335302874
 51
198.4751338457560053
  0
ARC
  5
397BC
  8
0
 10
2754.2505543795341509
 20
150.508544823470686
 30
0.0
 40
0.0247208616527655
 50
65.3608823607242897
 51
136.9004333335302874
  0
ARC
  5
397BD
  8
0
 10
2754.2514843865210423
 20
150.5105724762948967
 30
0.0
 40
0.0224901019231741
 50
349.9785473550383017
 51
65.3608823607242897
  0
ARC
  5
397BE
  8
0
 10
2754.2518832465748346
 20
150.5122510901223905
 30
0.0
 40
0.0224555890709843
 50
296.1401888737851209
 51
345.5794684197896913
  0
ARC
  5
397BF
  8
0
 10
2754.2506050429810784
 20
150.5145441572026073
 30
0.0
 40
0.0250776306466944
 50
229.4181648716121913
 51
296.4536863863147005
  0
ARC
  5
397C0
  8
0
 10
2754.2491463258038493
 20
150.5122658146364927
 30
0.0
 40
0.0224014630264246
 50
199.3464776089629993
 51
228.4608443339456869
  0
ARC
  5
397C1
  8
0
 10
2754.2473392998231247
 20
150.5402103136084975
 30
0.0
 40
0.0665852676443243
 50
99.3375172860837949
 51
137.897572680821014
  0
ARC
  5
397C2
  8
0
 10
2754.2508076633089331
 20
150.5343811897351998
 30
0.0
 40
0.0729419529260173
 50
48.6293141185757065
 51
101.2832809668741021
  0
ARC
  5
397C3
  8
0
 10
2754.2567580442560029
 20
150.5424178185643029
 30
0.0
 40
0.0629837812638812
 50
348.9407472444876817
 51
47.8595343451344775
  0
ARC
  5
397C4
  8
0
 10
2754.2560281195910648
 20
150.5421897916770035
 30
0.0
 40
0.063657449313394
 50
315.9450406519169974
 51
349.2682007589471027
  0
ARC
  5
397C5
  8
0
 10
2754.2506557254910149
 20
150.5091749629096114
 30
0.0
 40
0.0581493610480463
 50
48.350131668530409
 51
90.0957310043792745
  0
ARC
  5
397C6
  8
0
 10
2754.2571458352631453
 20
150.516472147140405
 30
0.0
 40
0.0483835829140168
 50
355.266690289022506
 51
48.3501316685315032
  0
ARC
  5
397C7
  8
0
 10
2754.2582074416191062
 20
150.5163842458289025
 30
0.0
 40
0.0473183436475459
 50
337.0397358111634958
 51
355.266690289022506
  0
ARC
  5
397C8
  8
0
 10
2754.2523664717809879
 20
150.5188588111253125
 30
0.0
 40
0.0536618759487578
 50
279.7146281372027943
 51
337.0397358111634958
  0
ARC
  5
397C9
  8
0
 10
2754.2503237421087761
 20
150.5211796297764124
 30
0.0
 40
0.0563174646444759
 50
229.382938771470009
 51
281.3648500721121195
  0
ARC
  5
397CA
  8
0
 10
2754.244344128343073
 20
150.5163656189546941
 30
0.0
 40
0.0487907628028025
 50
168.1354590004926877
 51
231.0331607063590127
  0
ARC
  5
397CB
  8
0
 10
2754.2473010374260411
 20
150.5145816760837079
 30
0.0
 40
0.0520637141045048
 50
107.4711857003614028
 51
166.8831130307422086
  0
ARC
  5
397CC
  8
0
 10
2754.2505787779191451
 20
150.5077546908715931
 30
0.0
 40
0.0595695553480463
 50
90.019438169535178
 51
108.507029612820503
  0
ARC
  5
397CD
  8
0
 10
2754.2512198515091768
 20
150.5378564947093025
 30
0.0
 40
0.0710477188571738
 50
138.5873779821679932
 51
160.0193617833386952
  0
ARC
  5
397CE
  8
0
 10
2754.2451234317809394
 20
150.54245670196741
 30
0.0
 40
0.0637857003711967
 50
162.0319999579924115
 51
205.811300865488306
  0
ARC
  5
397CF
  8
0
 10
2754.2414334991608484
 20
150.5395944925413119
 30
0.0
 40
0.059225615119055
 50
204.8728402320552107
 51
224.306565152083607
  0
LINE
  5
397D0
  8
0
 10
2754.1955548694168101
 20
150.5159825414961006
 30
0.0
 11
2754.1931438146962137
 21
150.5787826758505048
 31
0.0
  0
LINE
  5
397D1
  8
0
 10
2754.3055155336651296
 20
150.5153131078546949
 30
0.0
 11
2754.3080015280979751
 21
150.5788977318894979
 31
0.0
  0
ARC
  5
397D2
  8
0
 10
2754.247946514774867
 20
150.5582064893193035
 30
0.0
 40
0.0647741296937043
 50
180.488217838995098
 51
200.1697629086943948
  0
ARC
  5
397D3
  8
0
 10
2754.246415632102071
 20
150.5576441512596091
 30
0.0
 40
0.0631432324397103
 50
200.1697629086959012
 51
216.0807705166047867
  0
ARC
  5
397D4
  8
0
 10
2754.2531701900998087
 20
150.5582064893193035
 30
0.0
 40
0.0647741296937043
 50
339.8302370913056052
 51
359.5117821610048168
  0
ARC
  5
397D5
  8
0
 10
2754.2547010727739689
 20
150.5576441512596091
 30
0.0
 40
0.0631432324397103
 50
323.9192294833950996
 51
339.8302370913041273
  0
ARC
  5
397D6
  8
0
 10
2754.6919914458758285
 20
150.2778531816117038
 30
0.0
 40
0.0205878218031923
 50
136.9004333335302874
 51
198.4751338457560053
  0
ARC
  5
397D7
  8
0
 10
2754.6950092570200468
 20
150.275029206700907
 30
0.0
 40
0.0247208616527655
 50
65.3608823607242897
 51
136.9004333335302874
  0
ARC
  5
397D8
  8
0
 10
2754.6959392640069382
 20
150.277056859525004
 30
0.0
 40
0.0224901019231741
 50
349.9785473550383017
 51
65.3608823607242897
  0
ARC
  5
397D9
  8
0
 10
2754.6963381240630042
 20
150.2787354733526115
 30
0.0
 40
0.0224555890709843
 50
296.1401888737851209
 51
345.5794684197896913
  0
ARC
  5
397DA
  8
0
 10
2754.6950599204678838
 20
150.2810285404326862
 30
0.0
 40
0.0250776306466944
 50
229.4181648716121913
 51
296.4536863863147005
  0
ARC
  5
397DB
  8
0
 10
2754.6936012032911094
 20
150.2787501978667137
 30
0.0
 40
0.0224014630264246
 50
199.3464776089629993
 51
228.4608443339456869
  0
ARC
  5
397DC
  8
0
 10
2754.6917941773090206
 20
150.3066946968386901
 30
0.0
 40
0.0665852676443243
 50
99.3375172860837949
 51
137.897572680821014
  0
ARC
  5
397DD
  8
0
 10
2754.6952625407961932
 20
150.3008655729653071
 30
0.0
 40
0.0729419529260173
 50
48.6293141185757065
 51
101.2832809668741021
  0
ARC
  5
397DE
  8
0
 10
2754.7012129217418988
 20
150.3089022017944956
 30
0.0
 40
0.0629837812638812
 50
348.9407472444876817
 51
47.8595343451344775
  0
ARC
  5
397DF
  8
0
 10
2754.7004829970778701
 20
150.3086741749071109
 30
0.0
 40
0.063657449313394
 50
315.9450406519169974
 51
349.2682007589471027
  0
ARC
  5
397E0
  8
0
 10
2754.6951106029769107
 20
150.2756593461396903
 30
0.0
 40
0.0581493610480463
 50
48.350131668530409
 51
90.0957310043792745
  0
ARC
  5
397E1
  8
0
 10
2754.7016007127499506
 20
150.2829565303705976
 30
0.0
 40
0.0483835829140168
 50
355.266690289022506
 51
48.3501316685315032
  0
ARC
  5
397E2
  8
0
 10
2754.7026623191050021
 20
150.2828686290590952
 30
0.0
 40
0.0473183436475459
 50
337.0397358111634958
 51
355.266690289022506
  0
ARC
  5
397E3
  8
0
 10
2754.6968213492668838
 20
150.2853431943555051
 30
0.0
 40
0.0536618759487578
 50
279.7146281372027943
 51
337.0397358111634958
  0
ARC
  5
397E4
  8
0
 10
2754.6947786195951267
 20
150.287664013006605
 30
0.0
 40
0.0563174646444759
 50
229.382938771470009
 51
281.3648500721121195
  0
ARC
  5
397E5
  8
0
 10
2754.6887990058298783
 20
150.2828500021848868
 30
0.0
 40
0.0487907628028025
 50
168.1354590004926877
 51
231.0331607063590127
  0
ARC
  5
397E6
  8
0
 10
2754.6917559149128465
 20
150.2810660593139005
 30
0.0
 40
0.0520637141045048
 50
107.4711857003614028
 51
166.8831130307422086
  0
ARC
  5
397E7
  8
0
 10
2754.6950336554050409
 20
150.2742390741017005
 30
0.0
 40
0.0595695553480463
 50
90.019438169535178
 51
108.507029612820503
  0
ARC
  5
397E8
  8
0
 10
2754.6956747289959822
 20
150.3043408779394952
 30
0.0
 40
0.0710477188571738
 50
138.5873779821679932
 51
160.0193617833386952
  0
ARC
  5
397E9
  8
0
 10
2754.6895783092668353
 20
150.3089410851976027
 30
0.0
 40
0.0637857003711967
 50
162.0319999579924115
 51
205.811300865488306
  0
ARC
  5
397EA
  8
0
 10
2754.6858883766481085
 20
150.3060788757713908
 30
0.0
 40
0.059225615119055
 50
204.8728402320552107
 51
224.306565152083607
  0
LINE
  5
397EB
  8
0
 10
2754.6400097469040702
 20
150.2824669247262079
 30
0.0
 11
2754.6375986921821095
 21
150.3452670590806974
 31
0.0
  0
LINE
  5
397EC
  8
0
 10
2754.749970411151935
 20
150.2817974910848022
 30
0.0
 11
2754.7524564055847804
 21
150.3453821151196905
 31
0.0
  0
ARC
  5
397ED
  8
0
 10
2754.692401392262127
 20
150.3246908725494961
 30
0.0
 40
0.0647741296937043
 50
180.488217838995098
 51
200.1697629086943948
  0
ARC
  5
397EE
  8
0
 10
2754.6908705095879668
 20
150.324128534489688
 30
0.0
 40
0.0631432324397103
 50
200.1697629086959012
 51
216.0807705166047867
  0
ARC
  5
397EF
  8
0
 10
2754.6976250675870688
 20
150.3246908725494961
 30
0.0
 40
0.0647741296937043
 50
339.8302370913056052
 51
359.5117821610048168
  0
ARC
  5
397F0
  8
0
 10
2754.6991559502598648
 20
150.324128534489688
 30
0.0
 40
0.0631432324397103
 50
323.9192294833950996
 51
339.8302370913041273
  0
ARC
  5
397F1
  8
0
 10
2754.6919835967619292
 20
149.8418073490001063
 30
0.0
 40
0.0205878218031923
 50
136.9004333335302874
 51
198.4751338457560053
  0
ARC
  5
397F2
  8
0
 10
2754.6950014079061475
 20
149.8389833740891959
 30
0.0
 40
0.0247208616527655
 50
65.3608823607242897
 51
136.9004333335302874
  0
ARC
  5
397F3
  8
0
 10
2754.6959314148930389
 20
149.8410110269134918
 30
0.0
 40
0.0224901019231741
 50
349.9785473550383017
 51
65.3608823607242897
  0
ARC
  5
397F4
  8
0
 10
2754.6963302749481954
 20
149.842689640741014
 30
0.0
 40
0.0224555890709843
 50
296.1401888737851209
 51
345.5794684197896913
  0
ARC
  5
397F5
  8
0
 10
2754.695052071353075
 20
149.8449827078212024
 30
0.0
 40
0.0250776306466944
 50
229.4181648716121913
 51
296.4536863863147005
  0
ARC
  5
397F6
  8
0
 10
2754.6935933541758459
 20
149.8427043652550879
 30
0.0
 40
0.0224014630264246
 50
199.3464776089629993
 51
228.4608443339456869
  0
ARC
  5
397F7
  8
0
 10
2754.6917863281951213
 20
149.8706488642270926
 30
0.0
 40
0.0665852676443243
 50
99.3375172860837949
 51
137.897572680821014
  0
ARC
  5
397F8
  8
0
 10
2754.6952546916809297
 20
149.8648197403537097
 30
0.0
 40
0.0729419529260173
 50
48.6293141185757065
 51
101.2832809668741021
  0
ARC
  5
397F9
  8
0
 10
2754.7012050726279995
 20
149.8728563691828981
 30
0.0
 40
0.0629837812638812
 50
348.9407472444876817
 51
47.8595343451344775
  0
ARC
  5
397FA
  8
0
 10
2754.7004751479630613
 20
149.8726283422955134
 30
0.0
 40
0.063657449313394
 50
315.9450406519169974
 51
349.2682007589471027
  0
ARC
  5
397FB
  8
0
 10
2754.695102753862102
 20
149.8396135135280929
 30
0.0
 40
0.0581493610480463
 50
48.350131668530409
 51
90.0957310043792745
  0
ARC
  5
397FC
  8
0
 10
2754.7015928636351418
 20
149.8469106977590002
 30
0.0
 40
0.0483835829140168
 50
355.266690289022506
 51
48.3501316685315032
  0
ARC
  5
397FD
  8
0
 10
2754.7026544699911028
 20
149.8468227964474977
 30
0.0
 40
0.0473183436475459
 50
337.0397358111634958
 51
355.266690289022506
  0
ARC
  5
397FE
  8
0
 10
2754.696813500152075
 20
149.8492973617439077
 30
0.0
 40
0.0536618759487578
 50
279.7146281372027943
 51
337.0397358111634958
  0
ARC
  5
397FF
  8
0
 10
2754.6947707704798631
 20
149.8516181803950076
 30
0.0
 40
0.0563174646444759
 50
229.382938771470009
 51
281.3648500721121195
  0
ARC
  5
39800
  8
0
 10
2754.6887911567150695
 20
149.8468041695732893
 30
0.0
 40
0.0487907628028025
 50
168.1354590004926877
 51
231.0331607063590127
  0
ARC
  5
39801
  8
0
 10
2754.6917480657980377
 20
149.8450202267021893
 30
0.0
 40
0.0520637141045048
 50
107.4711857003614028
 51
166.8831130307422086
  0
ARC
  5
39802
  8
0
 10
2754.6950258062911416
 20
149.838193241490103
 30
0.0
 40
0.0595695553480463
 50
90.019438169535178
 51
108.507029612820503
  0
ARC
  5
39803
  8
0
 10
2754.6956668798811734
 20
149.8682950453278977
 30
0.0
 40
0.0710477188571738
 50
138.5873779821679932
 51
160.0193617833386952
  0
ARC
  5
39804
  8
0
 10
2754.689570460152936
 20
149.8728952525860052
 30
0.0
 40
0.0637857003711967
 50
162.0319999579924115
 51
205.811300865488306
  0
ARC
  5
39805
  8
0
 10
2754.685880527532845
 20
149.870033043159907
 30
0.0
 40
0.059225615119055
 50
204.8728402320552107
 51
224.306565152083607
  0
LINE
  5
39806
  8
0
 10
2754.6400018977888067
 20
149.8464210921146105
 30
0.0
 11
2754.6375908430682102
 21
149.9092212264691
 31
0.0
  0
LINE
  5
39807
  8
0
 10
2754.7499625620371262
 20
149.8457516584732048
 30
0.0
 11
2754.7524485564699717
 21
149.9093362825080931
 31
0.0
  0
ARC
  5
39808
  8
0
 10
2754.6923935431468635
 20
149.8886450399378987
 30
0.0
 40
0.0647741296937043
 50
180.488217838995098
 51
200.1697629086943948
  0
ARC
  5
39809
  8
0
 10
2754.6908626604740675
 20
149.8880827018780906
 30
0.0
 40
0.0631432324397103
 50
200.1697629086959012
 51
216.0807705166047867
  0
ARC
  5
3980A
  8
0
 10
2754.6976172184718052
 20
149.8886450399378987
 30
0.0
 40
0.0647741296937043
 50
339.8302370913056052
 51
359.5117821610048168
  0
ARC
  5
3980B
  8
0
 10
2754.699148101145056
 20
149.8880827018780906
 30
0.0
 40
0.0631432324397103
 50
323.9192294833950996
 51
339.8302370913041273
  0
ARC
  5
3980C
  8
0
 10
2754.2470982573040601
 20
150.067969004115298
 30
0.0
 40
0.0205878218031923
 50
136.9004333335302874
 51
198.4751338457560053
  0
ARC
  5
3980D
  8
0
 10
2754.2501160684478236
 20
150.0651450292043876
 30
0.0
 40
0.0247208616527655
 50
65.3608823607242897
 51
136.9004333335302874
  0
ARC
  5
3980E
  8
0
 10
2754.2510460754351698
 20
150.0671726820285983
 30
0.0
 40
0.0224901019231741
 50
349.9785473550383017
 51
65.3608823607242897
  0
ARC
  5
3980F
  8
0
 10
2754.2514449354889621
 20
150.0688512958562058
 30
0.0
 40
0.0224555890709843
 50
296.1401888737851209
 51
345.5794684197896913
  0
ARC
  5
39810
  8
0
 10
2754.2501667318952059
 20
150.0711443629363089
 30
0.0
 40
0.0250776306466944
 50
229.4181648716121913
 51
296.4536863863147005
  0
ARC
  5
39811
  8
0
 10
2754.2487080147179768
 20
150.0688660203701943
 30
0.0
 40
0.0224014630264246
 50
199.3464776089629993
 51
228.4608443339456869
  0
ARC
  5
39812
  8
0
 10
2754.2469009887358879
 20
150.0968105193421991
 30
0.0
 40
0.0665852676443243
 50
99.3375172860837949
 51
137.897572680821014
  0
ARC
  5
39813
  8
0
 10
2754.2503693522230606
 20
150.0909813954689014
 30
0.0
 40
0.0729419529260173
 50
48.6293141185757065
 51
101.2832809668741021
  0
ARC
  5
39814
  8
0
 10
2754.2563197331692209
 20
150.0990180242980045
 30
0.0
 40
0.0629837812638812
 50
348.9407472444876817
 51
47.8595343451344775
  0
ARC
  5
39815
  8
0
 10
2754.2555898085051922
 20
150.0987899974107052
 30
0.0
 40
0.063657449313394
 50
315.9450406519169974
 51
349.2682007589471027
  0
ARC
  5
39816
  8
0
 10
2754.2502174144037781
 20
150.065775168643313
 30
0.0
 40
0.0581493610480463
 50
48.350131668530409
 51
90.0957310043792745
  0
ARC
  5
39817
  8
0
 10
2754.256707524176818
 20
150.0730723528741919
 30
0.0
 40
0.0483835829140168
 50
355.266690289022506
 51
48.3501316685315032
  0
ARC
  5
39818
  8
0
 10
2754.2577691305318695
 20
150.0729844515626894
 30
0.0
 40
0.0473183436475459
 50
337.0397358111634958
 51
355.266690289022506
  0
ARC
  5
39819
  8
0
 10
2754.2519281606942059
 20
150.0754590168590994
 30
0.0
 40
0.0536618759487578
 50
279.7146281372027943
 51
337.0397358111634958
  0
ARC
  5
3981A
  8
0
 10
2754.249885431021994
 20
150.0777798355101993
 30
0.0
 40
0.0563174646444759
 50
229.382938771470009
 51
281.3648500721121195
  0
ARC
  5
3981B
  8
0
 10
2754.2439058172572004
 20
150.0729658246885094
 30
0.0
 40
0.0487907628028025
 50
168.1354590004926877
 51
231.0331607063590127
  0
ARC
  5
3981C
  8
0
 10
2754.2468627263401686
 20
150.0711818818174095
 30
0.0
 40
0.0520637141045048
 50
107.4711857003614028
 51
166.8831130307422086
  0
ARC
  5
3981D
  8
0
 10
2754.2501404668328178
 20
150.0643548966052947
 30
0.0
 40
0.0595695553480463
 50
90.019438169535178
 51
108.507029612820503
  0
ARC
  5
3981E
  8
0
 10
2754.2507815404228495
 20
150.0944567004430041
 30
0.0
 40
0.0710477188571738
 50
138.5873779821679932
 51
160.0193617833386952
  0
ARC
  5
3981F
  8
0
 10
2754.2446851206950669
 20
150.0990569077011969
 30
0.0
 40
0.0637857003711967
 50
162.0319999579924115
 51
205.811300865488306
  0
ARC
  5
39820
  8
0
 10
2754.2409951880749759
 20
150.0961946982750135
 30
0.0
 40
0.059225615119055
 50
204.8728402320552107
 51
224.306565152083607
  0
LINE
  5
39821
  8
0
 10
2754.1951165583309376
 20
150.0725827472298022
 30
0.0
 11
2754.1927055036089769
 21
150.1353828815842917
 31
0.0
  0
LINE
  5
39822
  8
0
 10
2754.3050772225788023
 20
150.0719133135883965
 30
0.0
 11
2754.307563217011193
 21
150.1354979376231995
 31
0.0
  0
ARC
  5
39823
  8
0
 10
2754.2475082036889944
 20
150.1148066950530051
 30
0.0
 40
0.0647741296937043
 50
180.488217838995098
 51
200.1697629086943948
  0
ARC
  5
39824
  8
0
 10
2754.2459773210161984
 20
150.1142443569933107
 30
0.0
 40
0.0631432324397103
 50
200.1697629086959012
 51
216.0807705166047867
  0
ARC
  5
39825
  8
0
 10
2754.2527318790139361
 20
150.1148066950530051
 30
0.0
 40
0.0647741296937043
 50
339.8302370913056052
 51
359.5117821610048168
  0
ARC
  5
39826
  8
0
 10
2754.2542627616871869
 20
150.1142443569933107
 30
0.0
 40
0.0631432324397103
 50
323.9192294833950996
 51
339.8302370913041273
  0
ARC
  5
39827
  8
0
 10
2753.8026181800278209
 20
150.3078926074940114
 30
0.0
 40
0.0205878218031923
 50
136.9004333335302874
 51
198.4751338457560053
  0
ARC
  5
39828
  8
0
 10
2753.8056359911720392
 20
150.3050686325831009
 30
0.0
 40
0.0247208616527655
 50
65.3608823607242897
 51
136.9004333335302874
  0
ARC
  5
39829
  8
0
 10
2753.8065659981589306
 20
150.3070962854073116
 30
0.0
 40
0.0224901019231741
 50
349.9785473550383017
 51
65.3608823607242897
  0
ARC
  5
3982A
  8
0
 10
2753.8069648582140871
 20
150.3087748992348907
 30
0.0
 40
0.0224555890709843
 50
296.1401888737851209
 51
345.5794684197896913
  0
ARC
  5
3982B
  8
0
 10
2753.8056866546189667
 20
150.3110679663149938
 30
0.0
 40
0.0250776306466944
 50
229.4181648716121913
 51
296.4536863863147005
  0
ARC
  5
3982C
  8
0
 10
2753.8042279374431018
 20
150.3087896237489076
 30
0.0
 40
0.0224014630264246
 50
199.3464776089629993
 51
228.4608443339456869
  0
ARC
  5
3982D
  8
0
 10
2753.802420911461013
 20
150.3367341227209124
 30
0.0
 40
0.0665852676443243
 50
99.3375172860837949
 51
137.897572680821014
  0
ARC
  5
3982E
  8
0
 10
2753.8058892749468214
 20
150.3309049988475863
 30
0.0
 40
0.0729419529260173
 50
48.6293141185757065
 51
101.2832809668741021
  0
ARC
  5
3982F
  8
0
 10
2753.8118396558938912
 20
150.3389416276766894
 30
0.0
 40
0.0629837812638812
 50
348.9407472444876817
 51
47.8595343451344775
  0
ARC
  5
39830
  8
0
 10
2753.8111097312298625
 20
150.3387136007893901
 30
0.0
 40
0.063657449313394
 50
315.9450406519169974
 51
349.2682007589471027
  0
ARC
  5
39831
  8
0
 10
2753.8057373371279937
 20
150.3056987720219979
 30
0.0
 40
0.0581493610480463
 50
48.350131668530409
 51
90.0957310043792745
  0
ARC
  5
39832
  8
0
 10
2753.8122274469010335
 20
150.3129959562527915
 30
0.0
 40
0.0483835829140168
 50
355.266690289022506
 51
48.3501316685315032
  0
ARC
  5
39833
  8
0
 10
2753.8132890532569945
 20
150.312908054941289
 30
0.0
 40
0.0473183436475459
 50
337.0397358111634958
 51
355.266690289022506
  0
ARC
  5
39834
  8
0
 10
2753.8074480834179667
 20
150.315382620237699
 30
0.0
 40
0.0536618759487578
 50
279.7146281372027943
 51
337.0397358111634958
  0
ARC
  5
39835
  8
0
 10
2753.8054053537471191
 20
150.3177034388887989
 30
0.0
 40
0.0563174646444759
 50
229.382938771470009
 51
281.3648500721121195
  0
ARC
  5
39836
  8
0
 10
2753.7994257399818707
 20
150.3128894280671091
 30
0.0
 40
0.0487907628028025
 50
168.1354590004926877
 51
231.0331607063590127
  0
ARC
  5
39837
  8
0
 10
2753.8023826490648389
 20
150.3111054851960944
 30
0.0
 40
0.0520637141045048
 50
107.4711857003614028
 51
166.8831130307422086
  0
ARC
  5
39838
  8
0
 10
2753.8056603895579428
 20
150.304278499984008
 30
0.0
 40
0.0595695553480463
 50
90.019438169535178
 51
108.507029612820503
  0
ARC
  5
39839
  8
0
 10
2753.8063014631479746
 20
150.334380303821689
 30
0.0
 40
0.0710477188571738
 50
138.5873779821679932
 51
160.0193617833386952
  0
ARC
  5
3983A
  8
0
 10
2753.8002050434201919
 20
150.3389805110797965
 30
0.0
 40
0.0637857003711967
 50
162.0319999579924115
 51
205.811300865488306
  0
ARC
  5
3983B
  8
0
 10
2753.796515110800101
 20
150.3361183016536984
 30
0.0
 40
0.059225615119055
 50
204.8728402320552107
 51
224.306565152083607
  0
LINE
  5
3983C
  8
0
 10
2753.7506364810560626
 20
150.3125063506084871
 30
0.0
 11
2753.7482254263341019
 21
150.375306484963005
 31
0.0
  0
LINE
  5
3983D
  8
0
 10
2753.8605971453030179
 20
150.3118369169671098
 30
0.0
 11
2753.8630831397358634
 21
150.3754215410019128
 31
0.0
  0
ARC
  5
3983E
  8
0
 10
2753.8030281264141195
 20
150.35473029843169
 30
0.0
 40
0.0647741296937043
 50
180.488217838995098
 51
200.1697629086943948
  0
ARC
  5
3983F
  8
0
 10
2753.8014972437408687
 20
150.3541679603719956
 30
0.0
 40
0.0631432324397103
 50
200.1697629086959012
 51
216.0807705166047867
  0
ARC
  5
39840
  8
0
 10
2753.8082518017381517
 20
150.35473029843169
 30
0.0
 40
0.0647741296937043
 50
339.8302370913056052
 51
359.5117821610048168
  0
ARC
  5
39841
  8
0
 10
2753.8097826844118572
 20
150.3541679603719956
 30
0.0
 40
0.0631432324397103
 50
323.9192294833950996
 51
339.8302370913041273
  0
ARC
  5
39842
  8
0
 10
2755.1361894147930798
 20
150.0543089060915918
 30
0.0
 40
0.0205878218031923
 50
136.9004333335302874
 51
198.4751338457560053
  0
ARC
  5
39843
  8
0
 10
2755.1392072259368433
 20
150.0514849311807097
 30
0.0
 40
0.0247208616527655
 50
65.3608823607242897
 51
136.9004333335302874
  0
ARC
  5
39844
  8
0
 10
2755.1401372329241894
 20
150.0535125840050057
 30
0.0
 40
0.0224901019231741
 50
349.9785473550383017
 51
65.3608823607242897
  0
ARC
  5
39845
  8
0
 10
2755.1405360929788912
 20
150.0551911978324995
 30
0.0
 40
0.0224555890709843
 50
296.1401888737851209
 51
345.5794684197896913
  0
ARC
  5
39846
  8
0
 10
2755.1392578893842256
 20
150.0574842649126026
 30
0.0
 40
0.0250776306466944
 50
229.4181648716121913
 51
296.4536863863147005
  0
ARC
  5
39847
  8
0
 10
2755.1377991722069964
 20
150.0552059223466017
 30
0.0
 40
0.0224014630264246
 50
199.3464776089629993
 51
228.4608443339456869
  0
ARC
  5
39848
  8
0
 10
2755.1359921462258171
 20
150.0831504213186065
 30
0.0
 40
0.0665852676443243
 50
99.3375172860837949
 51
137.897572680821014
  0
ARC
  5
39849
  8
0
 10
2755.1394605097120802
 20
150.0773212974451951
 30
0.0
 40
0.0729419529260173
 50
48.6293141185757065
 51
101.2832809668741021
  0
ARC
  5
3984A
  8
0
 10
2755.14541089065915
 20
150.0853579262742983
 30
0.0
 40
0.0629837812638812
 50
348.9407472444876817
 51
47.8595343451344775
  0
ARC
  5
3984B
  8
0
 10
2755.1446809659942119
 20
150.0851298993869989
 30
0.0
 40
0.063657449313394
 50
315.9450406519169974
 51
349.2682007589471027
  0
ARC
  5
3984C
  8
0
 10
2755.1393085718927978
 20
150.0521150706196067
 30
0.0
 40
0.0581493610480463
 50
48.350131668530409
 51
90.0957310043792745
  0
ARC
  5
3984D
  8
0
 10
2755.1457986816658376
 20
150.059412254850514
 30
0.0
 40
0.0483835829140168
 50
355.266690289022506
 51
48.3501316685315032
  0
ARC
  5
3984E
  8
0
 10
2755.1468602880217986
 20
150.0593243535390116
 30
0.0
 40
0.0473183436475459
 50
337.0397358111634958
 51
355.266690289022506
  0
ARC
  5
3984F
  8
0
 10
2755.141019318184135
 20
150.0617989188353931
 30
0.0
 40
0.0536618759487578
 50
279.7146281372027943
 51
337.0397358111634958
  0
ARC
  5
39850
  8
0
 10
2755.1389765885119232
 20
150.064119737486493
 30
0.0
 40
0.0563174646444759
 50
229.382938771470009
 51
281.3648500721121195
  0
ARC
  5
39851
  8
0
 10
2755.1329969747462201
 20
150.0593057266648032
 30
0.0
 40
0.0487907628028025
 50
168.1354590004926877
 51
231.0331607063590127
  0
ARC
  5
39852
  8
0
 10
2755.1359538838291883
 20
150.0575217837937032
 30
0.0
 40
0.0520637141045048
 50
107.4711857003614028
 51
166.8831130307422086
  0
ARC
  5
39853
  8
0
 10
2755.1392316243218374
 20
150.0506947985815884
 30
0.0
 40
0.0595695553480463
 50
90.019438169535178
 51
108.507029612820503
  0
ARC
  5
39854
  8
0
 10
2755.1398726979118692
 20
150.0807966024194116
 30
0.0
 40
0.0710477188571738
 50
138.5873779821679932
 51
160.0193617833386952
  0
ARC
  5
39855
  8
0
 10
2755.1337762781840866
 20
150.0853968096774906
 30
0.0
 40
0.0637857003711967
 50
162.0319999579924115
 51
205.811300865488306
  0
ARC
  5
39856
  8
0
 10
2755.1300863455639956
 20
150.0825346002513072
 30
0.0
 40
0.059225615119055
 50
204.8728402320552107
 51
224.306565152083607
  0
LINE
  5
39857
  8
0
 10
2755.0842077158199572
 20
150.0589226492060959
 30
0.0
 11
2755.0817966610979965
 21
150.1217227835606138
 31
0.0
  0
LINE
  5
39858
  8
0
 10
2755.194168380067822
 20
150.0582532155646902
 30
0.0
 11
2755.1966543745011222
 21
150.1218378395996069
 31
0.0
  0
ARC
  5
39859
  8
0
 10
2755.1365993611780141
 20
150.1011465970294125
 30
0.0
 40
0.0647741296937043
 50
180.488217838995098
 51
200.1697629086943948
  0
ARC
  5
3985A
  8
0
 10
2755.1350684785052181
 20
150.1005842589696044
 30
0.0
 40
0.0631432324397103
 50
200.1697629086959012
 51
216.0807705166047867
  0
ARC
  5
3985B
  8
0
 10
2755.1418230365029558
 20
150.1011465970294125
 30
0.0
 40
0.0647741296937043
 50
339.8302370913056052
 51
359.5117821610048168
  0
ARC
  5
3985C
  8
0
 10
2755.1433539191762065
 20
150.1005842589696044
 30
0.0
 40
0.0631432324397103
 50
323.9192294833950996
 51
339.8302370913041273
  0
ARC
  5
3985D
  8
0
 10
2755.1361894147930798
 20
149.6213592895780948
 30
0.0
 40
0.0205878218031923
 50
136.9004333335302874
 51
198.4751338457560053
  0
ARC
  5
3985E
  8
0
 10
2755.1392072259368433
 20
149.6185353146672128
 30
0.0
 40
0.0247208616527655
 50
65.3608823607242897
 51
136.9004333335302874
  0
ARC
  5
3985F
  8
0
 10
2755.1401372329241894
 20
149.6205629674913951
 30
0.0
 40
0.0224901019231741
 50
349.9785473550383017
 51
65.3608823607242897
  0
ARC
  5
39860
  8
0
 10
2755.1405360929788912
 20
149.6222415813190025
 30
0.0
 40
0.0224555890709843
 50
296.1401888737851209
 51
345.5794684197896913
  0
ARC
  5
39861
  8
0
 10
2755.1392578893842256
 20
149.6245346483991057
 30
0.0
 40
0.0250776306466944
 50
229.4181648716121913
 51
296.4536863863147005
  0
ARC
  5
39862
  8
0
 10
2755.1377991722069964
 20
149.6222563058329911
 30
0.0
 40
0.0224014630264246
 50
199.3464776089629993
 51
228.4608443339456869
  0
ARC
  5
39863
  8
0
 10
2755.1359921462258171
 20
149.6502008048049959
 30
0.0
 40
0.0665852676443243
 50
99.3375172860837949
 51
137.897572680821014
  0
ARC
  5
39864
  8
0
 10
2755.1394605097120802
 20
149.6443716809316982
 30
0.0
 40
0.0729419529260173
 50
48.6293141185757065
 51
101.2832809668741021
  0
ARC
  5
39865
  8
0
 10
2755.14541089065915
 20
149.6524083097608013
 30
0.0
 40
0.0629837812638812
 50
348.9407472444876817
 51
47.8595343451344775
  0
ARC
  5
39866
  8
0
 10
2755.1446809659942119
 20
149.6521802828735019
 30
0.0
 40
0.063657449313394
 50
315.9450406519169974
 51
349.2682007589471027
  0
ARC
  5
39867
  8
0
 10
2755.1393085718927978
 20
149.6191654541061098
 30
0.0
 40
0.0581493610480463
 50
48.350131668530409
 51
90.0957310043792745
  0
ARC
  5
39868
  8
0
 10
2755.1457986816658376
 20
149.6264626383369887
 30
0.0
 40
0.0483835829140168
 50
355.266690289022506
 51
48.3501316685315032
  0
ARC
  5
39869
  8
0
 10
2755.1468602880217986
 20
149.6263747370254862
 30
0.0
 40
0.0473183436475459
 50
337.0397358111634958
 51
355.266690289022506
  0
ARC
  5
3986A
  8
0
 10
2755.141019318184135
 20
149.6288493023218109
 30
0.0
 40
0.0536618759487578
 50
279.7146281372027943
 51
337.0397358111634958
  0
ARC
  5
3986B
  8
0
 10
2755.1389765885119232
 20
149.6311701209729108
 30
0.0
 40
0.0563174646444759
 50
229.382938771470009
 51
281.3648500721121195
  0
ARC
  5
3986C
  8
0
 10
2755.1329969747462201
 20
149.6263561101511925
 30
0.0
 40
0.0487907628028025
 50
168.1354590004926877
 51
231.0331607063590127
  0
ARC
  5
3986D
  8
0
 10
2755.1359538838291883
 20
149.6245721672802063
 30
0.0
 40
0.0520637141045048
 50
107.4711857003614028
 51
166.8831130307422086
  0
ARC
  5
3986E
  8
0
 10
2755.1392316243218374
 20
149.6177451820680915
 30
0.0
 40
0.0595695553480463
 50
90.019438169535178
 51
108.507029612820503
  0
ARC
  5
3986F
  8
0
 10
2755.1398726979118692
 20
149.6478469859058009
 30
0.0
 40
0.0710477188571738
 50
138.5873779821679932
 51
160.0193617833386952
  0
ARC
  5
39870
  8
0
 10
2755.1337762781840866
 20
149.6524471931639937
 30
0.0
 40
0.0637857003711967
 50
162.0319999579924115
 51
205.811300865488306
  0
ARC
  5
39871
  8
0
 10
2755.1300863455639956
 20
149.6495849837378103
 30
0.0
 40
0.059225615119055
 50
204.8728402320552107
 51
224.306565152083607
  0
LINE
  5
39872
  8
0
 10
2755.0842077158199572
 20
149.625973032692599
 30
0.0
 11
2755.0817966610979965
 21
149.6887731670470885
 31
0.0
  0
LINE
  5
39873
  8
0
 10
2755.194168380067822
 20
149.6253035990511933
 30
0.0
 11
2755.1966543745011222
 21
149.6888882230859963
 31
0.0
  0
ARC
  5
39874
  8
0
 10
2755.1365993611780141
 20
149.6681969805158019
 30
0.0
 40
0.0647741296937043
 50
180.488217838995098
 51
200.1697629086943948
  0
ARC
  5
39875
  8
0
 10
2755.1350684785052181
 20
149.6676346424561075
 30
0.0
 40
0.0631432324397103
 50
200.1697629086959012
 51
216.0807705166047867
  0
ARC
  5
39876
  8
0
 10
2755.1418230365029558
 20
149.6681969805158019
 30
0.0
 40
0.0647741296937043
 50
339.8302370913056052
 51
359.5117821610048168
  0
ARC
  5
39877
  8
0
 10
2755.1433539191762065
 20
149.6676346424561075
 30
0.0
 40
0.0631432324397103
 50
323.9192294833950996
 51
339.8302370913041273
  0
ARC
  5
39878
  8
0
 10
2754.6938547487989126
 20
152.6140338093526907
 30
0.0
 40
0.0226250013429237
 50
167.2471744155492956
 51
261.3155985719187129
  0
ARC
  5
39879
  8
0
 10
2754.6912891874972047
 20
152.6146144696087958
 30
0.0
 40
0.0199945505962036
 50
113.8916996340880985
 51
167.2471744155492956
  0
ARC
  5
3987A
  8
0
 10
2754.6944299470301303
 20
152.6109337197594016
 30
0.0
 40
0.0246706201330127
 50
35.4418754757669134
 51
117.1004169725090946
  0
ARC
  5
3987B
  8
0
 10
2754.6971558017580719
 20
152.6132114747441051
 30
0.0
 40
0.021130827640053
 50
313.6218648726555216
 51
34.6960982982932507
  0
ARC
  5
3987C
  8
0
 10
2754.6949738865400832
 20
152.6156294052121893
 30
0.0
 40
0.0243866436413685
 50
259.2819690074576897
 51
313.4136707037134215
  0
ARC
  5
3987D
  8
0
 10
2754.68784970075194
 20
152.6193866307258986
 30
0.0
 40
0.0680595270207456
 50
113.8522887102507042
 51
192.6020568767746113
  0
ARC
  5
3987E
  8
0
 10
2754.6930562423071933
 20
152.6076109381610877
 30
0.0
 40
0.0809348914952763
 50
38.6948224602787292
 51
113.8522887102507042
  0
ARC
  5
3987F
  8
0
 10
2754.7014838817808595
 20
152.6177363491325991
 30
0.0
 40
0.0680780804456562
 50
308.050864950414109
 51
36.4774242296443632
  0
ARC
  5
39880
  8
0
 10
2754.6954980064188021
 20
152.624987607500799
 30
0.0
 40
0.0774780284916132
 50
219.1123247760392019
 51
308.2315048209412112
  0
ARC
  5
39881
  8
0
 10
2754.6917418272819305
 20
152.6214107617319939
 30
0.0
 40
0.0723082801211352
 50
193.4944656957734139
 51
218.7908103616672975
  0
ARC
  5
39882
  8
0
 10
2754.6934259934660076
 20
152.6475447378925026
 30
0.0
 40
0.082422262180375
 50
165.2487454524286932
 51
207.9145673841445898
  0
ARC
  5
39883
  8
0
 10
2754.6765323540180361
 20
152.6519928575245899
 30
0.0
 40
0.0649528368302693
 50
125.2273717765507968
 51
165.2487454524271016
  0
ARC
  5
39884
  8
0
 10
2754.6974592360998031
 20
152.622357178371999
 30
0.0
 40
0.1012324161073921
 50
84.5938319283282425
 51
125.2273717765507968
  0
ARC
  5
39885
  8
0
 10
2754.6995438004078096
 20
152.6443842553082959
 30
0.0
 40
0.0791069211590559
 50
20.1417172731184699
 51
84.5938319283282425
  0
ARC
  5
39886
  8
0
 10
2754.700767255953906
 20
152.6448329868256906
 30
0.0
 40
0.0778037698062246
 50
339.2382591027458716
 51
20.1417172731169387
  0
ARC
  5
39887
  8
0
 10
2754.5984241124119762
 20
152.6836313194094998
 30
0.0
 40
0.1872543506235908
 50
335.1592897914646869
 51
339.2382591027458716
  0
LINE
  5
39888
  8
0
 10
2754.6198581141870818
 20
152.6163463388506898
 30
0.0
 11
2754.6166321158189021
 21
152.6771092361651938
 31
0.0
  0
LINE
  5
39889
  8
0
 10
2754.7695367104552133
 20
152.6195904113112931
 30
0.0
 11
2754.7692614141328704
 21
152.6817655248397898
 31
0.0
  0
ARC
  5
3988A
  8
0
 10
2754.2498475719180533
 20
152.3795718301047941
 30
0.0
 40
0.0226250013429237
 50
167.2471744155492956
 51
261.3155985719187129
  0
ARC
  5
3988B
  8
0
 10
2754.2472820106158906
 20
152.380152490360814
 30
0.0
 40
0.0199945505962036
 50
113.8916996340880985
 51
167.2471744155492956
  0
ARC
  5
3988C
  8
0
 10
2754.2504227701488162
 20
152.3764717405113913
 30
0.0
 40
0.0246706201330127
 50
35.4418754757669134
 51
117.1004169725090946
  0
ARC
  5
3988D
  8
0
 10
2754.2531486248758483
 20
152.3787494954962085
 30
0.0
 40
0.021130827640053
 50
313.6218648726555216
 51
34.6960982982932507
  0
ARC
  5
3988E
  8
0
 10
2754.2509667096592239
 20
152.3811674259642075
 30
0.0
 40
0.0243866436413685
 50
259.2819690074576897
 51
313.4136707037134215
  0
ARC
  5
3988F
  8
0
 10
2754.2438425238701711
 20
152.3849246514778883
 30
0.0
 40
0.0680595270207456
 50
113.8522887102507042
 51
192.6020568767746113
  0
ARC
  5
39890
  8
0
 10
2754.2490490654258792
 20
152.3731489589131911
 30
0.0
 40
0.0809348914952763
 50
38.6948224602787292
 51
113.8522887102507042
  0
ARC
  5
39891
  8
0
 10
2754.2574767048990907
 20
152.3832743698845889
 30
0.0
 40
0.0680780804456562
 50
308.050864950414109
 51
36.4774242296443632
  0
ARC
  5
39892
  8
0
 10
2754.2514908295370333
 20
152.3905256282529024
 30
0.0
 40
0.0774780284916132
 50
219.1123247760392019
 51
308.2315048209412112
  0
ARC
  5
39893
  8
0
 10
2754.2477346504010711
 20
152.3869487824840121
 30
0.0
 40
0.0723082801211352
 50
193.4944656957734139
 51
218.7908103616672975
  0
ARC
  5
39894
  8
0
 10
2754.2494188165851483
 20
152.4130827586444923
 30
0.0
 40
0.082422262180375
 50
165.2487454524286932
 51
207.9145673841445898
  0
ARC
  5
39895
  8
0
 10
2754.2325251771358126
 20
152.4175308782766081
 30
0.0
 40
0.0649528368302693
 50
125.2273717765507968
 51
165.2487454524271016
  0
ARC
  5
39896
  8
0
 10
2754.2534520592189438
 20
152.3878951991241024
 30
0.0
 40
0.1012324161073921
 50
84.5938319283282425
 51
125.2273717765507968
  0
ARC
  5
39897
  8
0
 10
2754.2555366235269503
 20
152.4099222760603141
 30
0.0
 40
0.0791069211590559
 50
20.1417172731184699
 51
84.5938319283282425
  0
ARC
  5
39898
  8
0
 10
2754.2567600790730467
 20
152.4103710075777087
 30
0.0
 40
0.0778037698062246
 50
339.2382591027458716
 51
20.1417172731169387
  0
ARC
  5
39899
  8
0
 10
2754.1544169355311169
 20
152.4491693401614896
 30
0.0
 40
0.1872543506235908
 50
335.1592897914646869
 51
339.2382591027458716
  0
LINE
  5
3989A
  8
0
 10
2754.1758509373048582
 20
152.3818843596027079
 30
0.0
 11
2754.1726249389380428
 21
152.4426472569172972
 31
0.0
  0
LINE
  5
3989B
  8
0
 10
2754.3255295335738992
 20
152.3851284320633965
 30
0.0
 11
2754.3252542372511016
 21
152.447303545591808
 31
0.0
  0
ARC
  5
3989C
  8
0
 10
2753.804021830891088
 20
152.1567714901505042
 30
0.0
 40
0.0226250013429237
 50
167.2471744155492956
 51
261.3155985719187129
  0
ARC
  5
3989D
  8
0
 10
2753.8014562695880159
 20
152.1573521504064956
 30
0.0
 40
0.0199945505962036
 50
113.8916996340880985
 51
167.2471744155492956
  0
ARC
  5
3989E
  8
0
 10
2753.8045970291209414
 20
152.1536714005571014
 30
0.0
 40
0.0246706201330127
 50
35.4418754757669134
 51
117.1004169725090946
  0
ARC
  5
3989F
  8
0
 10
2753.8073228838488831
 20
152.1559491555418901
 30
0.0
 40
0.021130827640053
 50
313.6218648726555216
 51
34.6960982982932507
  0
ARC
  5
398A0
  8
0
 10
2753.8051409686308943
 20
152.1583670860098891
 30
0.0
 40
0.0243866436413685
 50
259.2819690074576897
 51
313.4136707037134215
  0
ARC
  5
398A1
  8
0
 10
2753.7980167828418416
 20
152.1621243115235984
 30
0.0
 40
0.0680595270207456
 50
113.8522887102507042
 51
192.6020568767746113
  0
ARC
  5
398A2
  8
0
 10
2753.8032233243980045
 20
152.1503486189589012
 30
0.0
 40
0.0809348914952763
 50
38.6948224602787292
 51
113.8522887102507042
  0
ARC
  5
398A3
  8
0
 10
2753.8116509638712159
 20
152.1604740299304126
 30
0.0
 40
0.0680780804456562
 50
308.050864950414109
 51
36.4774242296443632
  0
ARC
  5
398A4
  8
0
 10
2753.8056650885091585
 20
152.1677252882986124
 30
0.0
 40
0.0774780284916132
 50
219.1123247760392019
 51
308.2315048209412112
  0
ARC
  5
398A5
  8
0
 10
2753.8019089093741059
 20
152.1641484425298074
 30
0.0
 40
0.0723082801211352
 50
193.4944656957734139
 51
218.7908103616672975
  0
ARC
  5
398A6
  8
0
 10
2753.8035930755568188
 20
152.1902824186902876
 30
0.0
 40
0.082422262180375
 50
165.2487454524286932
 51
207.9145673841445898
  0
ARC
  5
398A7
  8
0
 10
2753.7866994361088473
 20
152.1947305383224034
 30
0.0
 40
0.0649528368302693
 50
125.2273717765507968
 51
165.2487454524271016
  0
ARC
  5
398A8
  8
0
 10
2753.807626318191069
 20
152.1650948591698125
 30
0.0
 40
0.1012324161073921
 50
84.5938319283282425
 51
125.2273717765507968
  0
ARC
  5
398A9
  8
0
 10
2753.8097108824990755
 20
152.1871219361061094
 30
0.0
 40
0.0791069211590559
 50
20.1417172731184699
 51
84.5938319283282425
  0
ARC
  5
398AA
  8
0
 10
2753.8109343380451719
 20
152.1875706676233904
 30
0.0
 40
0.0778037698062246
 50
339.2382591027458716
 51
20.1417172731169387
  0
ARC
  5
398AB
  8
0
 10
2753.7085911945041516
 20
152.2263690002073133
 30
0.0
 40
0.1872543506235908
 50
335.1592897914646869
 51
339.2382591027458716
  0
LINE
  5
398AC
  8
0
 10
2753.730025196277893
 20
152.1590840196485033
 30
0.0
 11
2753.726799197910168
 21
152.2198469169630073
 31
0.0
  0
LINE
  5
398AD
  8
0
 10
2753.879703792545115
 20
152.1623280921089929
 30
0.0
 11
2753.8794284962232268
 21
152.2245032056376033
 31
0.0
  0
ARC
  5
398AE
  8
0
 10
2753.3591841770180508
 20
151.4736153423314136
 30
0.0
 40
0.0226250013429237
 50
167.2471744155492956
 51
261.3155985719187129
  0
ARC
  5
398AF
  8
0
 10
2753.3566186157158882
 20
151.474196002587405
 30
0.0
 40
0.0199945505962036
 50
113.8916996340880985
 51
167.2471744155492956
  0
ARC
  5
398B0
  8
0
 10
2753.3597593752488137
 20
151.4705152527380108
 30
0.0
 40
0.0246706201330127
 50
35.4418754757669134
 51
117.1004169725090946
  0
ARC
  5
398B1
  8
0
 10
2753.3624852299758459
 20
151.4727930077227995
 30
0.0
 40
0.021130827640053
 50
313.6218648726555216
 51
34.6960982982932507
  0
ARC
  5
398B2
  8
0
 10
2753.3603033147592214
 20
151.4752109381907985
 30
0.0
 40
0.0243866436413685
 50
259.2819690074576897
 51
313.4136707037134215
  0
ARC
  5
398B3
  8
0
 10
2753.3531791289701687
 20
151.4789681637045078
 30
0.0
 40
0.0680595270207456
 50
113.8522887102507042
 51
192.6020568767746113
  0
ARC
  5
398B4
  8
0
 10
2753.3583856705258768
 20
151.4671924711398106
 30
0.0
 40
0.0809348914952763
 50
38.6948224602787292
 51
113.8522887102507042
  0
ARC
  5
398B5
  8
0
 10
2753.3668133099990882
 20
151.4773178821112936
 30
0.0
 40
0.0680780804456562
 50
308.050864950414109
 51
36.4774242296443632
  0
ARC
  5
398B6
  8
0
 10
2753.3608274346370308
 20
151.4845691404794934
 30
0.0
 40
0.0774780284916132
 50
219.1123247760392019
 51
308.2315048209412112
  0
ARC
  5
398B7
  8
0
 10
2753.3570712555010687
 20
151.4809922947106884
 30
0.0
 40
0.0723082801211352
 50
193.4944656957734139
 51
218.7908103616672975
  0
ARC
  5
398B8
  8
0
 10
2753.3587554216851458
 20
151.5071262708711117
 30
0.0
 40
0.082422262180375
 50
165.2487454524286932
 51
207.9145673841445898
  0
ARC
  5
398B9
  8
0
 10
2753.3418617822358101
 20
151.5115743905033128
 30
0.0
 40
0.0649528368302693
 50
125.2273717765507968
 51
165.2487454524271016
  0
ARC
  5
398BA
  8
0
 10
2753.3627886643189413
 20
151.4819387113506934
 30
0.0
 40
0.1012324161073921
 50
84.5938319283282425
 51
125.2273717765507968
  0
ARC
  5
398BB
  8
0
 10
2753.3648732286260383
 20
151.5039657882869903
 30
0.0
 40
0.0791069211590559
 50
345.582234768356102
 51
84.5938319283282425
  0
ARC
  5
398BC
  8
0
 10
2753.3660966841730442
 20
151.5044145198042997
 30
0.0
 40
0.0778037698062246
 50
339.2382591027458716
 51
20.1417172731169387
  0
ARC
  5
398BD
  8
0
 10
2753.2637535406311144
 20
151.5432128523881943
 30
0.0
 40
0.1872543506235908
 50
335.1592897914646869
 51
339.2382591027458716
  0
LINE
  5
398BE
  8
0
 10
2753.28518754240622
 20
151.4759278718294127
 30
0.0
 11
2753.2819615440380403
 21
151.5366907691438882
 31
0.0
  0
LINE
  5
398BF
  8
0
 10
2753.4348661386738968
 20
151.4791719442899876
 30
0.0
 11
2753.4345908423510991
 21
151.5413470578185127
 31
0.0
  0
ARC
  5
398C0
  8
0
 10
2753.3600236199708888
 20
151.0080924319308053
 30
0.0
 40
0.0226250013429237
 50
167.2471744155492956
 51
261.3155985719187129
  0
ARC
  5
398C1
  8
0
 10
2753.3574580586691809
 20
151.0086730921867968
 30
0.0
 40
0.0199945505962036
 50
113.8916996340880985
 51
167.2471744155492956
  0
ARC
  5
398C2
  8
0
 10
2753.3605988182021065
 20
151.0049923423374025
 30
0.0
 40
0.0246706201330127
 50
35.4418754757669134
 51
117.1004169725090946
  0
ARC
  5
398C3
  8
0
 10
2753.3633246729291386
 20
151.0072700973221913
 30
0.0
 40
0.021130827640053
 50
313.6218648726555216
 51
34.6960982982932507
  0
ARC
  5
398C4
  8
0
 10
2753.3611427577120594
 20
151.0096880277901903
 30
0.0
 40
0.0243866436413685
 50
259.2819690074576897
 51
313.4136707037134215
  0
ARC
  5
398C5
  8
0
 10
2753.3540185719230067
 20
151.0134452533038996
 30
0.0
 40
0.0680595270207456
 50
113.8522887102507042
 51
192.6020568767746113
  0
ARC
  5
398C6
  8
0
 10
2753.3592251134791695
 20
151.0016695607390886
 30
0.0
 40
0.0809348914952763
 50
38.6948224602787292
 51
113.8522887102507042
  0
ARC
  5
398C7
  8
0
 10
2753.3676527529519262
 20
151.0117949717107138
 30
0.0
 40
0.0680780804456562
 50
308.050864950414109
 51
36.4774242296443632
  0
ARC
  5
398C8
  8
0
 10
2753.3616668775898688
 20
151.0190462300787999
 30
0.0
 40
0.0774780284916132
 50
219.1123247760392019
 51
308.2315048209412112
  0
ARC
  5
398C9
  8
0
 10
2753.3579106984539067
 20
151.0154693843101086
 30
0.0
 40
0.0723082801211352
 50
193.4944656957734139
 51
218.7908103616672975
  0
ARC
  5
398CA
  8
0
 10
2753.3595948646379838
 20
151.0416033604705035
 30
0.0
 40
0.082422262180375
 50
165.2487454524286932
 51
207.9145673841445898
  0
ARC
  5
398CB
  8
0
 10
2753.3427012251891028
 20
151.0460514801027045
 30
0.0
 40
0.0649528368302693
 50
125.2273717765507968
 51
165.2487454524271016
  0
ARC
  5
398CC
  8
0
 10
2753.3636281072717793
 20
151.0164158009501136
 30
0.0
 40
0.1012324161073921
 50
84.5938319283282425
 51
125.2273717765507968
  0
ARC
  5
398CD
  8
0
 10
2753.3657126715788763
 20
151.0384428778864105
 30
0.0
 40
0.0791069211590559
 50
20.1417172731184699
 51
84.5938319283282425
  0
ARC
  5
398CE
  8
0
 10
2753.3669361271258822
 20
151.0388916094036915
 30
0.0
 40
0.0778037698062246
 50
339.2382591027458716
 51
20.1417172731169387
  0
ARC
  5
398CF
  8
0
 10
2753.2645929835839524
 20
151.0776899419875008
 30
0.0
 40
0.1872543506235908
 50
335.1592897914646869
 51
339.2382591027458716
  0
LINE
  5
398D0
  8
0
 10
2753.2860269853581485
 20
151.0104049614288044
 30
0.0
 11
2753.2828009869908783
 21
151.0711678587433084
 31
0.0
  0
LINE
  5
398D1
  8
0
 10
2753.4357055816258253
 20
151.0136490338892941
 30
0.0
 11
2753.4354302853039371
 21
151.0758241474177908
 31
0.0
  0
ARC
  5
398D2
  8
0
 10
2753.3608456460660818
 20
150.5545123198160979
 30
0.0
 40
0.0226250013429237
 50
167.2471744155492956
 51
261.3155985719187129
  0
ARC
  5
398D3
  8
0
 10
2753.3582800847639191
 20
150.5550929800720894
 30
0.0
 40
0.0199945505962036
 50
113.8916996340880985
 51
167.2471744155492956
  0
ARC
  5
398D4
  8
0
 10
2753.3614208442968447
 20
150.5514122302226951
 30
0.0
 40
0.0246706201330127
 50
35.4418754757669134
 51
117.1004169725090946
  0
ARC
  5
398D5
  8
0
 10
2753.3641466990238769
 20
150.5536899852075123
 30
0.0
 40
0.021130827640053
 50
313.6218648726555216
 51
34.6960982982932507
  0
ARC
  5
398D6
  8
0
 10
2753.3619647838067976
 20
150.5561079156755113
 30
0.0
 40
0.0243866436413685
 50
259.2819690074576897
 51
313.4136707037134215
  0
ARC
  5
398D7
  8
0
 10
2753.3548405980181997
 20
150.5598651411893059
 30
0.0
 40
0.0680595270207456
 50
113.8522887102507042
 51
192.6020568767746113
  0
ARC
  5
398D8
  8
0
 10
2753.3600471395739078
 20
150.5480894486244949
 30
0.0
 40
0.0809348914952763
 50
38.6948224602787292
 51
113.8522887102507042
  0
ARC
  5
398D9
  8
0
 10
2753.3684747790471192
 20
150.5582148595960064
 30
0.0
 40
0.0680780804456562
 50
308.050864950414109
 51
36.4774242296443632
  0
ARC
  5
398DA
  8
0
 10
2753.3624889036850618
 20
150.5654661179642062
 30
0.0
 40
0.0774780284916132
 50
219.1123247760392019
 51
308.2315048209412112
  0
ARC
  5
398DB
  8
0
 10
2753.3587327245490997
 20
150.5618892721954012
 30
0.0
 40
0.0723082801211352
 50
193.4944656957734139
 51
218.7908103616672975
  0
ARC
  5
398DC
  8
0
 10
2753.3604168907318126
 20
150.5880232483557961
 30
0.0
 40
0.082422262180375
 50
165.2487454524286932
 51
207.9145673841445898
  0
ARC
  5
398DD
  8
0
 10
2753.3435232512852053
 20
150.5924713679879972
 30
0.0
 40
0.0649528368302693
 50
125.2273717765507968
 51
165.2487454524271016
  0
ARC
  5
398DE
  8
0
 10
2753.3644501333660628
 20
150.5628356888354062
 30
0.0
 40
0.1012324161073921
 50
84.5938319283282425
 51
125.2273717765507968
  0
ARC
  5
398DF
  8
0
 10
2753.3665346976740693
 20
150.5848627657717032
 30
0.0
 40
0.0791069211590559
 50
20.1417172731184699
 51
84.5938319283282425
  0
ARC
  5
398E0
  8
0
 10
2753.3677581532201657
 20
150.5853114972890126
 30
0.0
 40
0.0778037698062246
 50
339.2382591027458716
 51
20.1417172731169387
  0
ARC
  5
398E1
  8
0
 10
2753.2654150096791454
 20
150.6241098298729071
 30
0.0
 40
0.1872543506235908
 50
335.1592897914646869
 51
339.2382591027458716
  0
LINE
  5
398E2
  8
0
 10
2753.2868490114528868
 20
150.556824849314097
 30
0.0
 11
2753.2836230130860713
 21
150.6175877466286011
 31
0.0
  0
LINE
  5
398E3
  8
0
 10
2753.4365276077219278
 20
150.5600689217745867
 30
0.0
 11
2753.4362523113991301
 21
150.6222440353031118
 31
0.0
  0
ARC
  5
398E4
  8
0
 10
2753.8046877538649824
 20
149.868619226344407
 30
0.0
 40
0.0226250013429237
 50
167.2471744155492956
 51
261.3155985719187129
  0
ARC
  5
398E5
  8
0
 10
2753.8021221925628197
 20
149.8691998866003985
 30
0.0
 40
0.0199945505962036
 50
113.8916996340880985
 51
167.2471744155492956
  0
ARC
  5
398E6
  8
0
 10
2753.8052629520962
 20
149.8655191367508905
 30
0.0
 40
0.0246706201330127
 50
35.4418754757669134
 51
117.1004169725090946
  0
ARC
  5
398E7
  8
0
 10
2753.8079888068241416
 20
149.8677968917357077
 30
0.0
 40
0.021130827640053
 50
313.6218648726555216
 51
34.6960982982932507
  0
ARC
  5
398E8
  8
0
 10
2753.8058068916061529
 20
149.870214822203792
 30
0.0
 40
0.0243866436413685
 50
259.2819690074576897
 51
313.4136707037134215
  0
ARC
  5
398E9
  8
0
 10
2753.7986827058180097
 20
149.8739720477175013
 30
0.0
 40
0.0680595270207456
 50
113.8522887102507042
 51
192.6020568767746113
  0
ARC
  5
398EA
  8
0
 10
2753.8038892473728083
 20
149.8621963551526903
 30
0.0
 40
0.0809348914952763
 50
38.6948224602787292
 51
113.8522887102507042
  0
ARC
  5
398EB
  8
0
 10
2753.8123168868469293
 20
149.8723217661242018
 30
0.0
 40
0.0680780804456562
 50
308.050864950414109
 51
36.4774242296443632
  0
ARC
  5
398EC
  8
0
 10
2753.8063310114839624
 20
149.8795730244924016
 30
0.0
 40
0.0774780284916132
 50
219.1123247760392019
 51
308.2315048209412112
  0
ARC
  5
398ED
  8
0
 10
2753.8025748323489097
 20
149.8759961787237103
 30
0.0
 40
0.0723082801211352
 50
193.4944656957734139
 51
218.7908103616672975
  0
ARC
  5
398EE
  8
0
 10
2753.8042589985320774
 20
149.9021301548841052
 30
0.0
 40
0.082422262180375
 50
165.2487454524286932
 51
207.9145673841445898
  0
ARC
  5
398EF
  8
0
 10
2753.7873653590841059
 20
149.9065782745161926
 30
0.0
 40
0.0649528368302693
 50
125.2273717765507968
 51
165.2487454524271016
  0
ARC
  5
398F0
  8
0
 10
2753.8082922411667823
 20
149.8769425953636016
 30
0.0
 40
0.1012324161073921
 50
84.5938319283282425
 51
125.2273717765507968
  0
ARC
  5
398F1
  8
0
 10
2753.8103768054738794
 20
149.8989696722998985
 30
0.0
 40
0.0791069211590559
 50
20.1417172731184699
 51
84.5938319283282425
  0
ARC
  5
398F2
  8
0
 10
2753.8116002610199757
 20
149.8994184038172932
 30
0.0
 40
0.0778037698062246
 50
339.2382591027458716
 51
20.1417172731169387
  0
ARC
  5
398F3
  8
0
 10
2753.7092571174789555
 20
149.9382167364011025
 30
0.0
 40
0.1872543506235908
 50
335.1592897914646869
 51
339.2382591027458716
  0
LINE
  5
398F4
  8
0
 10
2753.7306911192531516
 20
149.8709317558422924
 30
0.0
 11
2753.7274651208849718
 21
149.9316946531567964
 31
0.0
  0
LINE
  5
398F5
  8
0
 10
2753.8803697155208283
 20
149.8741758283028958
 30
0.0
 11
2753.8800944191989402
 21
149.9363509418313924
 31
0.0
  0
ARC
  5
398F6
  8
0
 10
2754.248994947094161
 20
149.6358005242817057
 30
0.0
 40
0.0226250013429237
 50
167.2471744155492956
 51
261.3155985719187129
  0
ARC
  5
398F7
  8
0
 10
2754.2464293857910889
 20
149.6363811845378109
 30
0.0
 40
0.0199945505962036
 50
113.8916996340880985
 51
167.2471744155492956
  0
ARC
  5
398F8
  8
0
 10
2754.2495701453240144
 20
149.6327004346883029
 30
0.0
 40
0.0246706201330127
 50
35.4418754757669134
 51
117.1004169725090946
  0
ARC
  5
398F9
  8
0
 10
2754.2522960000519561
 20
149.6349781896730917
 30
0.0
 40
0.021130827640053
 50
313.6218648726555216
 51
34.6960982982932507
  0
ARC
  5
398FA
  8
0
 10
2754.2501140848339674
 20
149.6373961201410907
 30
0.0
 40
0.0243866436413685
 50
259.2819690074576897
 51
313.4136707037134215
  0
ARC
  5
398FB
  8
0
 10
2754.2429898990458241
 20
149.6411533456549137
 30
0.0
 40
0.0680595270207456
 50
113.8522887102507042
 51
192.6020568767746113
  0
ARC
  5
398FC
  8
0
 10
2754.2481964406010775
 20
149.6293776530901027
 30
0.0
 40
0.0809348914952763
 50
38.6948224602787292
 51
113.8522887102507042
  0
ARC
  5
398FD
  8
0
 10
2754.2566240800738342
 20
149.6395030640616142
 30
0.0
 40
0.0680780804456562
 50
308.050864950414109
 51
36.4774242296443632
  0
ARC
  5
398FE
  8
0
 10
2754.2506382047117768
 20
149.646754322429814
 30
0.0
 40
0.0774780284916132
 50
219.1123247760392019
 51
308.2315048209412112
  0
ARC
  5
398FF
  8
0
 10
2754.2468820255758146
 20
149.643177476661009
 30
0.0
 40
0.0723082801211352
 50
193.4944656957734139
 51
218.7908103616672975
  0
ARC
  5
39900
  8
0
 10
2754.2485661917598918
 20
149.6693114528214892
 30
0.0
 40
0.082422262180375
 50
165.2487454524286932
 51
207.9145673841445898
  0
ARC
  5
39901
  8
0
 10
2754.2316725523119203
 20
149.673759572453605
 30
0.0
 40
0.0649528368302693
 50
125.2273717765507968
 51
165.2487454524271016
  0
ARC
  5
39902
  8
0
 10
2754.2525994343950515
 20
149.644123893301014
 30
0.0
 40
0.1012324161073921
 50
84.5938319283282425
 51
125.2273717765507968
  0
ARC
  5
39903
  8
0
 10
2754.2546839987021485
 20
149.666150970237311
 30
0.0
 40
0.0791069211590559
 50
20.1417172731184699
 51
84.5938319283282425
  0
ARC
  5
39904
  8
0
 10
2754.2559074542477902
 20
149.6665997017547056
 30
0.0
 40
0.0778037698062246
 50
339.2382591027458716
 51
20.1417172731169387
  0
ARC
  5
39905
  8
0
 10
2754.1535643107072246
 20
149.7053980343384865
 30
0.0
 40
0.1872543506235908
 50
335.1592897914646869
 51
339.2382591027458716
  0
LINE
  5
39906
  8
0
 10
2754.174998312480966
 20
149.6381130537797048
 30
0.0
 11
2754.1717723141127863
 21
149.6988759510942089
 31
0.0
  0
LINE
  5
39907
  8
0
 10
2754.3246769087490975
 20
149.6413571262403082
 30
0.0
 11
2754.3244016124258451
 21
149.7035322397686912
 31
0.0
  0
ARC
  5
39908
  8
0
 10
2754.6939561404751657
 20
149.4135735073193985
 30
0.0
 40
0.0226250013429237
 50
167.2471744155492956
 51
261.3155985719187129
  0
ARC
  5
39909
  8
0
 10
2754.6913905791730031
 20
149.4141541675755036
 30
0.0
 40
0.0199945505962036
 50
113.8916996340880985
 51
167.2471744155492956
  0
ARC
  5
3990A
  8
0
 10
2754.6945313387059286
 20
149.4104734177259957
 30
0.0
 40
0.0246706201330127
 50
35.4418754757669134
 51
117.1004169725090946
  0
ARC
  5
3990B
  8
0
 10
2754.6972571934329608
 20
149.4127511727108129
 30
0.0
 40
0.021130827640053
 50
313.6218648726555216
 51
34.6960982982932507
  0
ARC
  5
3990C
  8
0
 10
2754.6950752782149721
 20
149.4151691031788118
 30
0.0
 40
0.0243866436413685
 50
259.2819690074576897
 51
313.4136707037134215
  0
ARC
  5
3990D
  8
0
 10
2754.6879510924268288
 20
149.4189263286926064
 30
0.0
 40
0.0680595270207456
 50
113.8522887102507042
 51
192.6020568767746113
  0
ARC
  5
3990E
  8
0
 10
2754.6931576339829917
 20
149.4071506361277955
 30
0.0
 40
0.0809348914952763
 50
38.6948224602787292
 51
113.8522887102507042
  0
ARC
  5
3990F
  8
0
 10
2754.7015852734562031
 20
149.4172760470993069
 30
0.0
 40
0.0680780804456562
 50
308.050864950414109
 51
36.4774242296443632
  0
ARC
  5
39910
  8
0
 10
2754.6955993980941457
 20
149.4245273054675067
 30
0.0
 40
0.0774780284916132
 50
219.1123247760392019
 51
308.2315048209412112
  0
ARC
  5
39911
  8
0
 10
2754.6918432189581836
 20
149.4209504596987017
 30
0.0
 40
0.0723082801211352
 50
193.4944656957734139
 51
218.7908103616672975
  0
ARC
  5
39912
  8
0
 10
2754.6935273851408965
 20
149.4470844358592103
 30
0.0
 40
0.082422262180375
 50
165.2487454524286932
 51
207.9145673841445898
  0
ARC
  5
39913
  8
0
 10
2754.6766337456938345
 20
149.4515325554912977
 30
0.0
 40
0.0649528368302693
 50
125.2273717765507968
 51
165.2487454524271016
  0
ARC
  5
39914
  8
0
 10
2754.6975606277751467
 20
149.4218968763387068
 30
0.0
 40
0.1012324161073921
 50
84.5938319283282425
 51
125.2273717765507968
  0
ARC
  5
39915
  8
0
 10
2754.6996451920831532
 20
149.4439239532750037
 30
0.0
 40
0.0791069211590559
 50
20.1417172731184699
 51
84.5938319283282425
  0
ARC
  5
39916
  8
0
 10
2754.7008686476287949
 20
149.4443726847923983
 30
0.0
 40
0.0778037698062246
 50
339.2382591027458716
 51
20.1417172731169387
  0
ARC
  5
39917
  8
0
 10
2754.5985255040877746
 20
149.4831710173762076
 30
0.0
 40
0.1872543506235908
 50
335.1592897914646869
 51
339.2382591027458716
  0
LINE
  5
39918
  8
0
 10
2754.6199595058619707
 20
149.4158860368173976
 30
0.0
 11
2754.6167335074951552
 21
149.4766489341319016
 31
0.0
  0
LINE
  5
39919
  8
0
 10
2754.7696381021310117
 20
149.4191301092780009
 30
0.0
 11
2754.769362805808214
 21
149.4813052228064123
 31
0.0
  0
LINE
  5
3991A
  8
0
 10
2754.7672868884360469
 20
152.6002838607084868
 30
0.0
 11
2755.0774254300381472
 21
152.4258924819226877
 31
0.0
  0
LINE
  5
3991B
  8
0
 10
2754.6946506184331156
 20
152.5475142131479913
 30
0.0
 11
2754.694647147059186
 21
152.2231038011557018
 31
0.0
  0
LINE
  5
3991C
  8
0
 10
2754.757399702767998
 20
152.1858023287134927
 30
0.0
 11
2755.0813869757389512
 21
152.3600413385617003
 31
0.0
  0
LINE
  5
3991D
  8
0
 10
2754.3255750800290116
 20
152.4466988934418055
 30
0.0
 11
2754.6218794339620217
 21
152.6027631513341021
 31
0.0
  0
LINE
  5
3991E
  8
0
 10
2754.3230855888668884
 20
152.3651057325772058
 30
0.0
 11
2754.6327997423668421
 21
152.1875179564173948
 31
0.0
  0
LINE
  5
3991F
  8
0
 10
2755.0818814130088867
 20
151.8777027899847951
 30
0.0
 11
2754.7585485666409113
 21
151.7076690691754095
 31
0.0
  0
LINE
  5
39920
  8
0
 10
2754.6364511528431649
 20
152.1221253540514056
 30
0.0
 11
2754.3132594178359795
 21
151.9559162369681076
 31
0.0
  0
LINE
  5
39921
  8
0
 10
2754.6370488351499262
 20
151.6451153090474975
 30
0.0
 11
2754.3141552767169742
 21
151.4828092693657027
 31
0.0
  0
LINE
  5
39922
  8
0
 10
2754.2500795111009211
 20
151.5221820511868032
 30
0.0
 11
2754.2500816249271338
 21
151.8521834196583882
 31
0.0
  0
LINE
  5
39923
  8
0
 10
2754.2500827545991342
 20
151.9946417696309027
 30
0.0
 11
2754.2500834955581013
 21
152.3130603824324112
 31
0.0
  0
LINE
  5
39924
  8
0
 10
2753.8687691293730495
 20
151.73629833879329
 30
0.0
 11
2754.1910980591719635
 21
151.8944740342485034
 31
0.0
  0
LINE
  5
39925
  8
0
 10
2753.8697856421317738
 20
151.2683485900770108
 30
0.0
 11
2754.1914028269047776
 21
151.42247741147699
 31
0.0
  0
LINE
  5
39926
  8
0
 10
2754.3147419578949666
 20
151.0199463469053001
 30
0.0
 11
2754.5987681449291813
 21
151.159447755733197
 31
0.0
  0
LINE
  5
39927
  8
0
 10
2753.8701496653447975
 20
150.8105249144468871
 30
0.0
 11
2754.1914957692220014
 21
150.960793027558509
 31
0.0
  0
LINE
  5
39928
  8
0
 10
2753.4384301212321589
 20
150.617862054351491
 30
0.0
 11
2753.7455842188342103
 21
150.7537804543167965
 31
0.0
  0
LINE
  5
39929
  8
0
 10
2753.431150880469886
 20
150.9949610727690867
 30
0.0
 11
2753.7434364460559664
 21
150.8158939152278037
 31
0.0
  0
LINE
  5
3992A
  8
0
 10
2753.8053837499519432
 20
151.1661328865172038
 30
0.0
 11
2753.8055090577499868
 21
150.8519815490813869
 31
0.0
  0
LINE
  5
3992B
  8
0
 10
2753.8623372086881318
 20
151.2056842912770094
 30
0.0
 11
2754.1877015622758336
 21
151.0231848133551011
 31
0.0
  0
LINE
  5
3992C
  8
0
 10
2754.2500779721090112
 20
151.3797231707368951
 30
0.0
 11
2754.2500804422988949
 21
151.0605622107370891
 31
0.0
  0
LINE
  5
3992D
  8
0
 10
2754.3071029301590897
 20
151.4192988941358067
 30
0.0
 11
2754.5958247628309437
 21
151.2607947698053863
 31
0.0
  0
LINE
  5
3992E
  8
0
 10
2754.6946488125449832
 20
151.3135654207025027
 30
0.0
 11
2754.6946482280959572
 21
151.6035535004160124
 31
0.0
  0
LINE
  5
3992F
  8
0
 10
2754.7520365278819554
 20
151.6432263787474142
 30
0.0
 11
2755.0404470184039383
 21
151.4882447203760876
 31
0.0
  0
LINE
  5
39930
  8
0
 10
2754.7516806818421173
 20
152.1207245620128106
 30
0.0
 11
2755.0763698287510124
 21
151.9423714765358113
 31
0.0
  0
LINE
  5
39931
  8
0
 10
2754.3065085044859188
 20
151.8917689760999963
 30
0.0
 11
2754.6326214006849114
 21
151.7088492731363942
 31
0.0
  0
LINE
  5
39932
  8
0
 10
2754.6946467697612206
 20
152.0806438374802951
 30
0.0
 11
2754.6946459187661276
 21
151.7460084762510917
 31
0.0
  0
LINE
  5
39933
  8
0
 10
2753.8771022490809628
 20
152.1417455942892047
 30
0.0
 11
2754.1882852205858399
 21
151.9595995070133085
 31
0.0
  0
LINE
  5
39934
  8
0
 10
2753.8055183495112033
 20
152.0902473987648023
 30
0.0
 11
2753.805518650041904
 21
151.7752750260216885
 31
0.0
  0
LINE
  5
39935
  8
0
 10
2753.3795789171358592
 20
151.9553373502820932
 30
0.0
 11
2753.7442377939419202
 21
151.7412197746498919
 31
0.0
  0
LINE
  5
39936
  8
0
 10
2753.4317113301008249
 20
152.0341276072520884
 30
0.0
 11
2753.7302509411579194
 21
152.1526744325059042
 31
0.0
  0
LINE
  5
39937
  8
0
 10
2753.8809403289301372
 20
152.2215351739131961
 30
0.0
 11
2754.1773408520089106
 21
152.3704200038843055
 31
0.0
  0
LINE
  5
39938
  8
0
 10
2753.3289579904508173
 20
151.8679838610885895
 30
0.0
 11
2753.3535608075740129
 21
151.5827496667614014
 31
0.0
  0
LINE
  5
39939
  8
0
 10
2753.4381345463511934
 20
151.5338101227661127
 30
0.0
 11
2753.7452910539977893
 21
151.6771756006604903
 31
0.0
  0
LINE
  5
3993A
  8
0
 10
2753.4316034289399795
 20
151.4564165538079124
 30
0.0
 11
2753.7440465799018057
 21
151.2735301286321885
 31
0.0
  0
LINE
  5
3993B
  8
0
 10
2753.3610197223938485
 20
151.4070913506016041
 30
0.0
 11
2753.360962841365108
 21
151.1176131251665993
 31
0.0
  0
LINE
  5
3993C
  8
0
 10
2753.4381061215221962
 20
151.0703281883156137
 30
0.0
 11
2753.7457484307919913
 21
151.2103466556116018
 31
0.0
  0
LINE
  5
3993D
  8
0
 10
2753.8054933940838964
 20
151.6328168777230019
 30
0.0
 11
2753.8055241516130991
 21
151.3085929958403995
 31
0.0
  0
LINE
  5
3993E
  8
0
 10
2753.8621938766018502
 20
151.6727991245552971
 30
0.0
 11
2754.1882743033988845
 21
151.4860082858974977
 31
0.0
  0
LINE
  5
3993F
  8
0
 10
2753.3608953622629087
 20
150.9415720430031058
 30
0.0
 11
2753.3611235327248323
 21
150.6640134324310907
 31
0.0
  0
LINE
  5
39940
  8
0
 10
2753.3579030398482246
 20
150.4881239253923866
 30
0.0
 11
2753.3484567276041162
 21
150.2038426148754979
 31
0.0
  0
LINE
  5
39941
  8
0
 10
2753.286644000394972
 20
150.6238341138910926
 30
0.0
 11
2753.1496327213471886
 21
150.7014402216285873
 31
0.0
  0
LINE
  5
39942
  8
0
 10
2753.4346435288721295
 20
150.5422048132597013
 30
0.0
 11
2753.7437479002242071
 21
150.3682154762439893
 31
0.0
  0
LINE
  5
39943
  8
0
 10
2753.8055131136147793
 20
150.7095215196121956
 30
0.0
 11
2753.8055144030131487
 21
150.403845988474103
 31
0.0
  0
LINE
  5
39944
  8
0
 10
2753.8622466127389998
 20
150.749135019326701
 30
0.0
 11
2754.187752181920132
 21
150.5703342065415029
 31
0.0
  0
LINE
  5
39945
  8
0
 10
2754.2500806011798886
 20
150.9181038031381092
 30
0.0
 11
2754.2500790928647803
 21
150.6073195039587063
 31
0.0
  0
LINE
  5
39946
  8
0
 10
2754.3147068422840675
 20
150.5670935862196131
 30
0.0
 11
2754.5977994904169464
 21
150.7028487766615115
 31
0.0
  0
LINE
  5
39947
  8
0
 10
2754.3081079752860205
 20
150.5055843346528093
 30
0.0
 11
2754.6317670714161068
 21
150.3353826185064861
 31
0.0
  0
LINE
  5
39948
  8
0
 10
2754.6356420254937802
 20
150.2747264008771992
 30
0.0
 11
2754.31399905626904
 21
150.1243172809899988
 31
0.0
  0
LINE
  5
39949
  8
0
 10
2754.2500783652340033
 20
150.4648626996917073
 30
0.0
 11
2754.2500774618970354
 21
150.163922764366788
 31
0.0
  0
LINE
  5
3994A
  8
0
 10
2753.8633882366898433
 20
150.3023924124850055
 30
0.0
 11
2754.1880390029127739
 21
150.1277906522288959
 31
0.0
  0
LINE
  5
3994B
  8
0
 10
2754.1891932940520746
 20
150.0674851656802105
 30
0.0
 11
2753.8823831977470036
 21
149.9317261136054924
 31
0.0
  0
LINE
  5
3994C
  8
0
 10
2753.8055146320461972
 20
150.2613860802661918
 30
0.0
 11
2753.8055749790942173
 21
149.9781385367732014
 31
0.0
  0
LINE
  5
3994D
  8
0
 10
2753.7451029783410377
 20
150.3068498715597912
 30
0.0
 11
2753.3835180231089907
 21
150.1472387841758973
 31
0.0
  0
LINE
  5
3994E
  8
0
 10
2753.4213922537510371
 20
150.0909085175887867
 30
0.0
 11
2753.7293071352428342
 21
149.9357006655015994
 31
0.0
  0
LINE
  5
3994F
  8
0
 10
2753.8790844883560567
 20
149.8590284435186959
 30
0.0
 11
2754.1739829479088257
 21
149.7036055195177937
 31
0.0
  0
LINE
  5
39950
  8
0
 10
2754.2500780245118222
 20
150.0214627001805923
 30
0.0
 11
2754.2500793444710325
 21
149.7453249368614081
 31
0.0
  0
LINE
  5
39951
  8
0
 10
2754.3269040002410293
 20
149.6984337265155887
 30
0.0
 11
2754.6355057257001135
 21
149.8388873720880952
 31
0.0
  0
LINE
  5
39952
  8
0
 10
2754.3089852133048225
 20
150.0641316420066005
 30
0.0
 11
2754.6285829295748044
 21
149.8997757844367129
 31
0.0
  0
LINE
  5
39953
  8
0
 10
2754.6946515930130772
 20
150.2313466916193931
 30
0.0
 11
2754.6946513642860737
 21
149.9377591980752982
 31
0.0
  0
LINE
  5
39954
  8
0
 10
2755.0802194598650203
 20
150.050582022939011
 30
0.0
 11
2754.7605282119129697
 21
149.8973757851555035
 31
0.0
  0
LINE
  5
39955
  8
0
 10
2754.7531437285479115
 20
150.2729094127232941
 30
0.0
 11
2755.0754620013240128
 21
150.1108938786624094
 31
0.0
  0
LINE
  5
39956
  8
0
 10
2754.753256674982822
 20
149.8370420913192049
 30
0.0
 11
2755.0758356464239114
 21
149.6787453909614101
 31
0.0
  0
LINE
  5
39957
  8
0
 10
2755.0727388773029816
 20
149.6339255499966896
 30
0.0
 11
2754.7764533115000631
 21
149.4248110381332992
 31
0.0
  0
LINE
  5
39958
  8
0
 10
2754.3234691444890814
 20
149.6266049091341017
 30
0.0
 11
2754.6165895328240367
 21
149.4793607514191933
 31
0.0
  0
LINE
  5
39959
  8
0
 10
2754.6946435585628024
 20
149.7953008594261064
 30
0.0
 11
2754.6946455907818745
 21
149.5228727275662948
 31
0.0
  0
LINE
  5
3995A
  8
0
 10
2754.7665904445289016
 20
149.3970534663812941
 30
0.0
 11
2755.0244751900268056
 21
149.2469995883951128
 31
0.0
  0
LINE
  5
3995B
  8
0
 10
2754.4831466294758684
 20
149.3411140777554067
 30
0.0
 11
2754.6214166437921449
 21
149.4045992088433934
 31
0.0
  0
LINE
  5
3995C
  8
0
 10
2754.250086556523911
 20
149.5692782578470883
 30
0.0
 11
2754.2500758553528613
 21
149.427028556896687
 31
0.0
  0
LINE
  5
3995D
  8
0
 10
2754.175722067787774
 20
149.6307477016339931
 30
0.0
 11
2754.0072188459830613
 21
149.5517718127854891
 31
0.0
  0
LINE
  5
3995E
  8
0
 10
2753.8055766494671843
 20
149.8020986684971092
 30
0.0
 11
2753.8055519690478832
 21
149.6900215406228938
 31
0.0
  0
LINE
  5
3995F
  8
0
 10
2753.1166833070810753
 20
150.9238648041130944
 30
0.0
 11
2753.2869664941667907
 21
151.0026347948594889
 31
0.0
  0
LINE
  5
39960
  8
0
 10
2753.1166843279361274
 20
151.1756634301470967
 30
0.0
 11
2753.2860954575198775
 21
151.0779051781439932
 31
0.0
  0
LINE
  5
39961
  8
0
 10
2753.1499316034519325
 20
151.3988218502302914
 30
0.0
 11
2753.2872964434318419
 21
151.4620196044760974
 31
0.0
  0
LINE
  5
39962
  8
0
 10
2753.805530937011099
 20
152.4183013429401967
 30
0.0
 11
2753.8055180378678415
 21
152.2663053192272002
 31
0.0
  0
LINE
  5
39963
  8
0
 10
2753.9992426148310187
 20
152.5512286108483977
 30
0.0
 11
2754.1758555233950574
 21
152.4492707799329025
 31
0.0
  0
LINE
  5
39964
  8
0
 10
2754.2502388142970631
 20
152.6806627240299861
 30
0.0
 11
2754.2506807340992054
 21
152.4890896744080919
 31
0.0
  0
LINE
  5
39965
  8
0
 10
2754.4757291712221559
 20
152.7633858851812931
 30
0.0
 11
2754.6190171694020137
 21
152.6821735558418993
 31
0.0
  0
LINE
  5
39966
  8
0
 10
2754.7686933252889503
 20
152.6828062305822016
 30
0.0
 11
2755.0774210783520175
 21
152.8599971214217135
 31
0.0
  0
LINE
  5
39967
  8
0
 10
2754.6944072828509888
 20
150.6382506513616875
 30
0.0
 11
2754.6944072828509888
 21
150.3738025116898882
 31
0.0
  0
LINE
  5
39968
  8
0
 10
2754.7609766720520383
 20
150.32878311855319
 30
0.0
 11
2755.050523601426903
 21
150.456726519378492
 31
0.0
  0
ARC
  5
39969
  8
0
 10
2755.1159402227399369
 20
149.899547645267802
 30
0.0
 40
0.6844117847564734
 50
264.2867906535979046
 51
266.8370766095858926
  0
ARC
  5
3996A
  8
0
 10
2755.1537948561767735
 20
151.6985039704483995
 30
0.0
 40
2.4822321673017349
 50
263.6662015743751795
 51
267.5528200895981854
  0
ARC
  5
3996B
  8
0
 10
2755.1382313768867789
 20
151.521124620559192
 30
0.0
 40
2.3042222070606551
 50
252.6311490570853096
 51
263.5642497373967217
  0
ARC
  5
3996C
  8
0
 10
2755.1042430055581463
 20
151.4025272003144096
 30
0.0
 40
2.180888241949444
 50
238.8038583660861889
 51
252.5532443154160092
  0
ARC
  5
3996D
  8
0
 10
2755.0166587548278585
 20
151.2545551628489022
 30
0.0
 40
2.0089478665563201
 50
222.0373237585500021
 51
238.7546467248382953
  0
ARC
  5
3996E
  8
0
 10
2754.8535747739210819
 20
151.1094419813705088
 30
0.0
 40
1.7906546301598449
 50
203.8220832314804056
 51
222.0829700421741961
  0
ARC
  5
3996F
  8
0
 10
2754.7325698692939113
 20
151.0604528244815015
 30
0.0
 40
1.6601771932916309
 50
175.942258693620289
 51
203.9621375796286884
  0
ARC
  5
39970
  8
0
 10
2754.7487179246218147
 20
151.0544477571376945
 30
0.0
 40
1.676716705328775
 50
154.3518557433698959
 51
175.7766176863167971
  0
ARC
  5
39971
  8
0
 10
2754.8795579691150124
 20
150.990917515253301
 30
0.0
 40
1.8221637236539361
 50
135.3276879560924044
 51
154.3318164527225917
  0
ARC
  5
39972
  8
0
 10
2755.0593533554488204
 20
150.8055971926062
 30
0.0
 40
2.0803199167120279
 50
110.0448219220073014
 51
135.179424277166703
  0
ARC
  5
39973
  8
0
 10
2755.1345274567602246
 20
150.6195551546807962
 30
0.0
 40
2.280869023412857
 50
94.0590367757095009
 51
110.2169843168637016
  0
ARC
  5
39974
  8
0
 10
2755.141156407778908
 20
150.5546473717465119
 30
0.0
 40
2.3460840880888831
 50
90.0475056609242159
 51
94.1083169678952913
  0
ARC
  5
39975
  8
0
 10
2755.1401013306349341
 20
148.8827387042969121
 30
0.0
 40
0.0571187896992244
 50
215.7255642370068074
 51
269.1068428225132152
  0
ARC
  5
39976
  8
0
 10
2755.1630987245839606
 20
148.8992795577308073
 30
0.0
 40
0.0854468669514598
 50
180.1442544042286045
 51
215.7255562217713987
  0
LINE
  5
39977
  8
0
 10
2755.0776521284519731
 20
148.8990644271580095
 30
0.0
 11
2755.0781065650580786
 21
149.2038790683917
 31
0.0
  0
LINE
  5
39978
  8
0
 10
2755.0781065650580786
 20
149.2038790683917
 30
0.0
 11
2755.0804915218877795
 21
149.6172117393714984
 31
0.0
  0
ARC
  5
39979
  8
0
 10
2755.0593308059487754
 20
149.2251309397165926
 30
0.0
 40
0.0203559522495244
 50
21.4856469268752299
 51
87.4186302844754977
  0
ARC
  5
3997A
  8
0
 10
2755.1395835987100327
 20
148.7693179352791049
 30
0.0
 40
0.4885908858675522
 50
269.956329633796372
 51
284.7536636635721834
  0
ARC
  5
3997B
  8
0
 10
2755.1862188166642227
 20
148.5921948596715083
 30
0.0
 40
0.305431317919219
 50
284.7553883187118799
 51
330.0172815677036056
  0
ARC
  5
3997C
  8
0
 10
2755.1037196833349299
 20
148.6106538536915878
 30
0.0
 40
0.3869388086261872
 50
333.7572303352534959
 51
2.5454002019119821
  0
LINE
  5
3997D
  8
0
 10
2755.4902767167291131
 20
148.6278381940580005
 30
0.0
 11
2755.4900309364279565
 21
148.8614198056068858
 31
0.0
  0
ARC
  5
3997E
  8
0
 10
2755.8921546143028536
 20
148.8915046548584087
 30
0.0
 40
0.403247544688447
 50
155.4982140118312088
 51
184.2786840205982912
  0
ARC
  5
3997F
  8
0
 10
2755.744232388411092
 20
148.9764785026241043
 30
0.0
 40
0.233951538582463
 50
124.631133647869305
 51
159.4136757295221116
  0
ARC
  5
39980
  8
0
 10
2755.7261481852701763
 20
148.9806747363273871
 30
0.0
 40
0.2205758885018179
 50
111.3579522501361936
 51
121.3836210375770008
  0
ARC
  5
39981
  8
0
 10
2755.803578096279125
 20
148.7583569816870863
 30
0.0
 40
0.4559110550011229
 50
102.0826623293140045
 51
110.2451246716859004
  0
ARC
  5
39982
  8
0
 10
2755.1781354128729618
 20
151.4083768215072894
 30
0.0
 40
2.267034848531166
 50
283.520310331754672
 51
306.6689765840976065
  0
ARC
  5
39983
  8
0
 10
2755.4433583464729054
 20
151.1016943071240917
 30
0.0
 40
1.862891314933963
 50
305.7589475210551768
 51
352.7261043313354207
  0
ARC
  5
39984
  8
0
 10
2755.4230995961961526
 20
151.082357945259588
 30
0.0
 40
1.880664524070939
 50
353.3886191678769251
 51
0.0699801273581531
  0
ARC
  5
39985
  8
0
 10
2755.5656140158162088
 20
151.0668541709632962
 30
0.0
 40
1.738239850299532
 50
0.5867589396259527
 51
16.6732998223937585
  0
ARC
  5
39986
  8
0
 10
2755.3870510783817736
 20
150.9904256627328039
 30
0.0
 40
1.931348871973509
 50
17.3254641705198082
 51
56.3392698750294727
  0
ARC
  5
39987
  8
0
 10
2755.1849728289730592
 20
150.7271916082686971
 30
0.0
 40
2.2625641449761091
 50
55.7747309719726374
 51
73.1327309168961364
  0
ARC
  5
39988
  8
0
 10
2755.1403635207989282
 20
150.5891588425043039
 30
0.0
 40
2.4076037565841761
 50
73.0699231694308509
 51
90.0274227796652724
  0
ARC
  5
39989
  8
0
 10
2755.1114797055720373
 20
150.8607972507508919
 30
0.0
 40
2.5092048124642661
 50
70.0980303136661007
 51
89.3667595950777951
  0
ARC
  5
3998A
  8
0
 10
2755.2366533211838941
 20
151.2104918480428069
 30
0.0
 40
2.1377850629687818
 50
34.0314910538910098
 51
70.0620521894150698
  0
ARC
  5
3998B
  8
0
 10
2755.5073050868550126
 20
151.430386343206095
 30
0.0
 40
1.7906884489188879
 50
4.9327778988439102
 51
33.0471231654369006
  0
ARC
  5
3998C
  8
0
 10
2745.7219376829571047
 20
151.0757478331508992
 30
0.0
 40
11.5805980593481994
 50
0.3453010330250307
 51
2.517212589544366
  0
ARC
  5
3998D
  8
0
 10
2693.8624345795910813
 20
-1356.7704861945310313
 30
0.0
 40
1510.876108728456984
 50
87.6685364310727948
 51
87.6756109407029243
  0
ARC
  5
3998E
  8
0
 10
2755.1456944727201517
 20
150.6283380294482015
 30
0.0
 40
2.2338479600645278
 50
70.5756047384078329
 51
85.380348267730227
  0
ARC
  5
3998F
  8
0
 10
2755.2090739085101632
 20
150.7841800255729936
 30
0.0
 40
2.06581395217954
 50
48.5114416108735824
 51
70.7959536082899206
  0
ARC
  5
39990
  8
0
 10
2755.4993972880261026
 20
151.0860209788538953
 30
0.0
 40
1.6474709707277639
 50
25.2401139358805686
 51
49.120661361724828
  0
ARC
  5
39991
  8
0
 10
2755.5174768306878832
 20
151.0441856048219904
 30
0.0
 40
1.649585662305691
 50
5.9813800506025503
 51
26.8224454882115317
  0
ARC
  5
39992
  8
0
 10
2755.5446899102958014
 20
151.0497575612066896
 30
0.0
 40
1.6219423657489069
 50
336.6493554020487977
 51
5.8857938401434371
  0
ARC
  5
39993
  8
0
 10
2755.3827893359489281
 20
151.1230270933720021
 30
0.0
 40
1.7996262707570989
 50
311.6423806084663966
 51
336.5507212378179247
  0
ARC
  5
39994
  8
0
 10
2755.2231033614962143
 20
151.2968627731615072
 30
0.0
 40
2.0356464498256179
 50
296.7178302656840856
 51
311.7500182369441859
  0
ARC
  5
39995
  8
0
 10
2755.1603710592339667
 20
151.4225952848800034
 30
0.0
 40
2.1761590027126752
 50
280.7207671224688852
 51
296.7048109257879105
  0
ARC
  5
39996
  8
0
 10
2755.1386351962851222
 20
151.5191326089079098
 30
0.0
 40
2.2750572130982749
 50
272.0035594351854229
 51
280.8063518984311031
  0
ARC
  5
39997
  8
0
 10
2755.5868568695518661
 20
152.1271497029705131
 30
0.0
 40
0.0205878218031923
 50
341.5248661542440232
 51
43.0995666664697197
  0
ARC
  5
39998
  8
0
 10
2755.5838390584081026
 20
152.1243257280596026
 30
0.0
 40
0.0247208616527655
 50
43.0995666664697197
 51
114.6391176392756961
  0
ARC
  5
39999
  8
0
 10
2755.5829090514212112
 20
152.1263533808838133
 30
0.0
 40
0.0224901019231741
 50
114.6391176392756961
 51
190.0214526449616983
  0
ARC
  5
3999A
  8
0
 10
2755.5825101913669641
 20
152.1280319947113924
 30
0.0
 40
0.0224555890709843
 50
194.4205315802103087
 51
243.8598111262149075
  0
ARC
  5
3999B
  8
0
 10
2755.5837883949611751
 20
152.1303250617914955
 30
0.0
 40
0.0250776306466944
 50
243.5463136136854132
 51
310.5818351283879224
  0
ARC
  5
3999C
  8
0
 10
2755.5852471121379494
 20
152.1280467192254093
 30
0.0
 40
0.0224014630264246
 50
311.5391556660542847
 51
340.653522391037086
  0
ARC
  5
3999D
  8
0
 10
2755.5870541381200383
 20
152.1559912181974141
 30
0.0
 40
0.0665852676443243
 50
42.1024273191789575
 51
80.6624827139162051
  0
ARC
  5
3999E
  8
0
 10
2755.5835857746328657
 20
152.150162094324088
 30
0.0
 40
0.0729419529260173
 50
78.7167190331258979
 51
131.3706858814242935
  0
ARC
  5
3999F
  8
0
 10
2755.5776353936871601
 20
152.1581987231531912
 30
0.0
 40
0.0629837812638812
 50
132.1404656548654941
 51
191.0592527555122899
  0
ARC
  5
399A0
  8
0
 10
2755.5783653183511888
 20
152.1579706962658918
 30
0.0
 40
0.063657449313394
 50
190.7317992410528973
 51
224.0549593480830026
  0
ARC
  5
399A1
  8
0
 10
2755.5837377124521481
 20
152.1249558674984996
 30
0.0
 40
0.0581493610480463
 50
89.9042689955946912
 51
131.6498683314696052
  0
ARC
  5
399A2
  8
0
 10
2755.5772476026791082
 20
152.1322530517292932
 30
0.0
 40
0.0483835829140168
 50
131.6498683314684968
 51
184.7333097109757887
  0
ARC
  5
399A3
  8
0
 10
2755.5761859963240568
 20
152.1321651504179044
 30
0.0
 40
0.0473183436475459
 50
184.733309710977494
 51
202.9602641888363905
  0
ARC
  5
399A4
  8
0
 10
2755.5820269661621751
 20
152.134639715714286
 30
0.0
 40
0.0536618759487578
 50
202.9602641888363905
 51
260.285371862797092
  0
ARC
  5
399A5
  8
0
 10
2755.5840696958339322
 20
152.1369605343653006
 30
0.0
 40
0.0563174646444759
 50
258.6351499278879942
 51
310.6170612285300194
  0
ARC
  5
399A6
  8
0
 10
2755.5900493095991806
 20
152.132146523543696
 30
0.0
 40
0.0487907628028025
 50
308.966839293641101
 51
11.8645409995072608
  0
ARC
  5
399A7
  8
0
 10
2755.5870924005162124
 20
152.1303625806725961
 30
0.0
 40
0.0520637141045048
 50
13.1168869692577292
 51
72.5288142996386256
  0
ARC
  5
399A8
  8
0
 10
2755.5838146600231084
 20
152.1235355954605097
 30
0.0
 40
0.0595695553480463
 50
71.4929703871795112
 51
89.9805618304648078
  0
ARC
  5
399A9
  8
0
 10
2755.5831735864330767
 20
152.1536373992981908
 30
0.0
 40
0.0710477188571738
 50
19.9806382166612693
 51
41.4126220178320068
  0
ARC
  5
399AA
  8
0
 10
2755.5892700061608593
 20
152.1582376065564119
 30
0.0
 40
0.0637857003711967
 50
334.1886991345118076
 51
17.9680000420075494
  0
ARC
  5
399AB
  8
0
 10
2755.5929599387809503
 20
152.1553753971302001
 30
0.0
 40
0.059225615119055
 50
315.6934348479164214
 51
335.1271597679433967
  0
LINE
  5
399AC
  8
0
 10
2755.6388385685249887
 20
152.1317634460849888
 30
0.0
 11
2755.6412496232469493
 21
152.1945635804395067
 31
0.0
  0
LINE
  5
399AD
  8
0
 10
2755.5288779042771239
 20
152.1310940124436115
 30
0.0
 11
2755.5263919098451879
 21
152.1946786364783861
 31
0.0
  0
ARC
  5
399AE
  8
0
 10
2755.5864469231669318
 20
152.1739873939081917
 30
0.0
 40
0.0647741296937043
 50
339.8302370913056052
 51
359.5117821610048168
  0
ARC
  5
399AF
  8
0
 10
2755.5879778058401826
 20
152.1734250558484973
 30
0.0
 40
0.0631432324397103
 50
323.9192294833950996
 51
339.8302370913041273
  0
ARC
  5
399B0
  8
0
 10
2755.5812232478419901
 20
152.1739873939081917
 30
0.0
 40
0.0647741296937043
 50
180.488217838995098
 51
200.1697629086943948
  0
ARC
  5
399B1
  8
0
 10
2755.5796923651691941
 20
152.1734250558484973
 30
0.0
 40
0.0631432324397103
 50
200.1697629086959012
 51
216.0807705166047867
  0
ARC
  5
399B2
  8
0
 10
2756.0316695014221295
 20
151.8986874490217076
 30
0.0
 40
0.0205878218031923
 50
341.5248661542440232
 51
43.0995666664697197
  0
ARC
  5
399B3
  8
0
 10
2756.0286516902779113
 20
151.8958634741107971
 30
0.0
 40
0.0247208616527655
 50
43.0995666664697197
 51
114.6391176392756961
  0
ARC
  5
399B4
  8
0
 10
2756.0277216832910199
 20
151.8978911269350078
 30
0.0
 40
0.0224901019231741
 50
114.6391176392756961
 51
190.0214526449616983
  0
ARC
  5
399B5
  8
0
 10
2756.0273228232367728
 20
151.8995697407625869
 30
0.0
 40
0.0224555890709843
 50
194.4205315802103087
 51
243.8598111262149075
  0
ARC
  5
399B6
  8
0
 10
2756.0286010268309838
 20
151.90186280784269
 30
0.0
 40
0.0250776306466944
 50
243.5463136136854132
 51
310.5818351283879224
  0
ARC
  5
399B7
  8
0
 10
2756.0300597440068486
 20
151.8995844652766891
 30
0.0
 40
0.0224014630264246
 50
311.5391556660542847
 51
340.653522391037086
  0
ARC
  5
399B8
  8
0
 10
2756.0318667699898469
 20
151.9275289642486086
 30
0.0
 40
0.0665852676443243
 50
42.1024273191789575
 51
80.6624827139162051
  0
ARC
  5
399B9
  8
0
 10
2756.0283984065031291
 20
151.9216998403753962
 30
0.0
 40
0.0729419529260173
 50
78.7167190331258979
 51
131.3706858814242935
  0
ARC
  5
399BA
  8
0
 10
2756.0224480255560593
 20
151.9297364692044994
 30
0.0
 40
0.0629837812638812
 50
132.1404656548654941
 51
191.0592527555122899
  0
ARC
  5
399BB
  8
0
 10
2756.0231779502209974
 20
151.9295084423172
 30
0.0
 40
0.063657449313394
 50
190.7317992410528973
 51
224.0549593480830026
  0
ARC
  5
399BC
  8
0
 10
2756.0285503443219568
 20
151.8964936135496941
 30
0.0
 40
0.0581493610480463
 50
89.9042689955946912
 51
131.6498683314696052
  0
ARC
  5
399BD
  8
0
 10
2756.0220602345489169
 20
151.9037907977806015
 30
0.0
 40
0.0483835829140168
 50
131.6498683314684968
 51
184.7333097109757887
  0
ARC
  5
399BE
  8
0
 10
2756.0209986281929559
 20
151.903702896469099
 30
0.0
 40
0.0473183436475459
 50
184.733309710977494
 51
202.9602641888363905
  0
ARC
  5
399BF
  8
0
 10
2756.0268395980319838
 20
151.906177461765509
 30
0.0
 40
0.0536618759487578
 50
202.9602641888363905
 51
260.285371862797092
  0
ARC
  5
399C0
  8
0
 10
2756.0288823277028314
 20
151.9084982804166088
 30
0.0
 40
0.0563174646444759
 50
258.6351499278879942
 51
310.6170612285300194
  0
ARC
  5
399C1
  8
0
 10
2756.0348619414689892
 20
151.9036842695948906
 30
0.0
 40
0.0487907628028025
 50
308.966839293641101
 51
11.8645409995072608
  0
ARC
  5
399C2
  8
0
 10
2756.031905032386021
 20
151.9019003267239043
 30
0.0
 40
0.0520637141045048
 50
13.1168869692577292
 51
72.5288142996386256
  0
ARC
  5
399C3
  8
0
 10
2756.0286272918929171
 20
151.8950733415117043
 30
0.0
 40
0.0595695553480463
 50
71.4929703871795112
 51
89.9805618304648078
  0
ARC
  5
399C4
  8
0
 10
2756.0279862183028854
 20
151.925175145349499
 30
0.0
 40
0.0710477188571738
 50
19.9806382166612693
 51
41.4126220178320068
  0
ARC
  5
399C5
  8
0
 10
2756.0340826380311228
 20
151.9297753526076065
 30
0.0
 40
0.0637857003711967
 50
334.1886991345118076
 51
17.9680000420075494
  0
ARC
  5
399C6
  8
0
 10
2756.0377725706498495
 20
151.9269131431815083
 30
0.0
 40
0.059225615119055
 50
315.6934348479164214
 51
335.1271597679433967
  0
LINE
  5
399C7
  8
0
 10
2756.0836512003947973
 20
151.9033011921362117
 30
0.0
 11
2756.0860622551158485
 21
151.9661013264907012
 31
0.0
  0
LINE
  5
399C8
  8
0
 10
2755.9736905361460231
 20
151.902631758494806
 30
0.0
 11
2755.9712045417140871
 21
151.9662163825296943
 31
0.0
  0
ARC
  5
399C9
  8
0
 10
2756.0312595550371952
 20
151.9455251399594999
 30
0.0
 40
0.0647741296937043
 50
339.8302370913056052
 51
359.5117821610048168
  0
ARC
  5
399CA
  8
0
 10
2756.0327904377099912
 20
151.9449628018996918
 30
0.0
 40
0.0631432324397103
 50
323.9192294833950996
 51
339.8302370913041273
  0
ARC
  5
399CB
  8
0
 10
2756.0260358797117988
 20
151.9455251399594999
 30
0.0
 40
0.0647741296937043
 50
180.488217838995098
 51
200.1697629086943948
  0
ARC
  5
399CC
  8
0
 10
2756.0245049970380933
 20
151.9449628018996918
 30
0.0
 40
0.0631432324397103
 50
200.1697629086959012
 51
216.0807705166047867
  0
ARC
  5
399CD
  8
0
 10
2755.5862045668141036
 20
151.6500590035477956
 30
0.0
 40
0.0205878218031923
 50
341.5248661542440232
 51
43.0995666664697197
  0
ARC
  5
399CE
  8
0
 10
2755.5831867556698853
 20
151.6472350286369135
 30
0.0
 40
0.0247208616527655
 50
43.0995666664697197
 51
114.6391176392756961
  0
ARC
  5
399CF
  8
0
 10
2755.5822567486829939
 20
151.6492626814610958
 30
0.0
 40
0.0224901019231741
 50
114.6391176392756961
 51
190.0214526449616983
  0
ARC
  5
399D0
  8
0
 10
2755.5818578886292016
 20
151.6509412952887033
 30
0.0
 40
0.0224555890709843
 50
194.4205315802103087
 51
243.8598111262149075
  0
ARC
  5
399D1
  8
0
 10
2755.5831360922229578
 20
151.6532343623688064
 30
0.0
 40
0.0250776306466944
 50
243.5463136136854132
 51
310.5818351283879224
  0
ARC
  5
399D2
  8
0
 10
2755.5845948093988227
 20
151.6509560198026918
 30
0.0
 40
0.0224014630264246
 50
311.5391556660542847
 51
340.653522391037086
  0
ARC
  5
399D3
  8
0
 10
2755.586401835381821
 20
151.6789005187746966
 30
0.0
 40
0.0665852676443243
 50
42.1024273191789575
 51
80.6624827139162051
  0
ARC
  5
399D4
  8
0
 10
2755.5829334718951031
 20
151.6730713949013989
 30
0.0
 40
0.0729419529260173
 50
78.7167190331258979
 51
131.3706858814242935
  0
ARC
  5
399D5
  8
0
 10
2755.5769830909480334
 20
151.6811080237305021
 30
0.0
 40
0.0629837812638812
 50
132.1404656548654941
 51
191.0592527555122899
  0
ARC
  5
399D6
  8
0
 10
2755.5777130156129715
 20
151.6808799968432027
 30
0.0
 40
0.063657449313394
 50
190.7317992410528973
 51
224.0549593480830026
  0
ARC
  5
399D7
  8
0
 10
2755.5830854097139309
 20
151.6478651680758105
 30
0.0
 40
0.0581493610480463
 50
89.9042689955946912
 51
131.6498683314696052
  0
ARC
  5
399D8
  8
0
 10
2755.576595299940891
 20
151.6551623523066041
 30
0.0
 40
0.0483835829140168
 50
131.6498683314684968
 51
184.7333097109757887
  0
ARC
  5
399D9
  8
0
 10
2755.5755336935858395
 20
151.6550744509951869
 30
0.0
 40
0.0473183436475459
 50
184.733309710977494
 51
202.9602641888363905
  0
ARC
  5
399DA
  8
0
 10
2755.5813746634239578
 20
151.6575490162915969
 30
0.0
 40
0.0536618759487578
 50
202.9602641888363905
 51
260.285371862797092
  0
ARC
  5
399DB
  8
0
 10
2755.5834173930961697
 20
151.6598698349426115
 30
0.0
 40
0.0563174646444759
 50
258.6351499278879942
 51
310.6170612285300194
  0
ARC
  5
399DC
  8
0
 10
2755.5893970068609633
 20
151.6550558241208932
 30
0.0
 40
0.0487907628028025
 50
308.966839293641101
 51
11.8645409995072608
  0
ARC
  5
399DD
  8
0
 10
2755.5864400977779951
 20
151.653271881249907
 30
0.0
 40
0.0520637141045048
 50
13.1168869692577292
 51
72.5288142996386256
  0
ARC
  5
399DE
  8
0
 10
2755.5831623572848912
 20
151.6464448960377922
 30
0.0
 40
0.0595695553480463
 50
71.4929703871795112
 51
89.9805618304648078
  0
ARC
  5
399DF
  8
0
 10
2755.58252128369395
 20
151.6765466998755016
 30
0.0
 40
0.0710477188571738
 50
19.9806382166612693
 51
41.4126220178320068
  0
ARC
  5
399E0
  8
0
 10
2755.5886177034230968
 20
151.6811469071336944
 30
0.0
 40
0.0637857003711967
 50
334.1886991345118076
 51
17.9680000420075494
  0
ARC
  5
399E1
  8
0
 10
2755.5923076360431878
 20
151.678284697707511
 30
0.0
 40
0.059225615119055
 50
315.6934348479164214
 51
335.1271597679433967
  0
LINE
  5
399E2
  8
0
 10
2755.6381862657872261
 20
151.6546727466622997
 30
0.0
 11
2755.6405973205091868
 21
151.7174728810167039
 31
0.0
  0
LINE
  5
399E3
  8
0
 10
2755.5282256015389066
 20
151.654003313020894
 30
0.0
 11
2755.5257396071060612
 21
151.717587937055697
 31
0.0
  0
ARC
  5
399E4
  8
0
 10
2755.5857946204278051
 20
151.6968966944855026
 30
0.0
 40
0.0647741296937043
 50
339.8302370913056052
 51
359.5117821610048168
  0
ARC
  5
399E5
  8
0
 10
2755.5873255031019653
 20
151.6963343564256945
 30
0.0
 40
0.0631432324397103
 50
323.9192294833950996
 51
339.8302370913041273
  0
ARC
  5
399E6
  8
0
 10
2755.5805709451037728
 20
151.6968966944855026
 30
0.0
 40
0.0647741296937043
 50
180.488217838995098
 51
200.1697629086943948
  0
ARC
  5
399E7
  8
0
 10
2755.5790400624309768
 20
151.6963343564256945
 30
0.0
 40
0.0631432324397103
 50
200.1697629086959012
 51
216.0807705166047867
  0
ARC
  5
399E8
  8
0
 10
2756.4762739251978019
 20
151.6793207490379132
 30
0.0
 40
0.0205878218031923
 50
341.5248661542440232
 51
43.0995666664697197
  0
ARC
  5
399E9
  8
0
 10
2756.4732561140540383
 20
151.6764967741270027
 30
0.0
 40
0.0247208616527655
 50
43.0995666664697197
 51
114.6391176392756961
  0
ARC
  5
399EA
  8
0
 10
2756.4723261070671469
 20
151.6785244269512134
 30
0.0
 40
0.0224901019231741
 50
114.6391176392756961
 51
190.0214526449616983
  0
ARC
  5
399EB
  8
0
 10
2756.4719272470119904
 20
151.6802030407787925
 30
0.0
 40
0.0224555890709843
 50
194.4205315802103087
 51
243.8598111262149075
  0
ARC
  5
399EC
  8
0
 10
2756.4732054506071108
 20
151.6824961078588956
 30
0.0
 40
0.0250776306466944
 50
243.5463136136854132
 51
310.5818351283879224
  0
ARC
  5
399ED
  8
0
 10
2756.4746641677838852
 20
151.6802177652928094
 30
0.0
 40
0.0224014630264246
 50
311.5391556660542847
 51
340.653522391037086
  0
ARC
  5
399EE
  8
0
 10
2756.4764711937650645
 20
151.7081622642647858
 30
0.0
 40
0.0665852676443243
 50
42.1024273191789575
 51
80.6624827139162051
  0
ARC
  5
399EF
  8
0
 10
2756.4730028302788014
 20
151.7023331403914881
 30
0.0
 40
0.0729419529260173
 50
78.7167190331258979
 51
131.3706858814242935
  0
ARC
  5
399F0
  8
0
 10
2756.4670524493330959
 20
151.7103697692205913
 30
0.0
 40
0.0629837812638812
 50
132.1404656548654941
 51
191.0592527555122899
  0
ARC
  5
399F1
  8
0
 10
2756.4677823739971245
 20
151.7101417423332919
 30
0.0
 40
0.063657449313394
 50
190.7317992410528973
 51
224.0549593480830026
  0
ARC
  5
399F2
  8
0
 10
2756.4731547680980839
 20
151.677126913565786
 30
0.0
 40
0.0581493610480463
 50
89.9042689955946912
 51
131.6498683314696052
  0
ARC
  5
399F3
  8
0
 10
2756.466664658325044
 20
151.6844240977966933
 30
0.0
 40
0.0483835829140168
 50
131.6498683314684968
 51
184.7333097109757887
  0
ARC
  5
399F4
  8
0
 10
2756.4656030519699925
 20
151.6843361964851908
 30
0.0
 40
0.0473183436475459
 50
184.733309710977494
 51
202.9602641888363905
  0
ARC
  5
399F5
  8
0
 10
2756.4714440218072014
 20
151.6868107617816008
 30
0.0
 40
0.0536618759487578
 50
202.9602641888363905
 51
260.285371862797092
  0
ARC
  5
399F6
  8
0
 10
2756.4734867514789585
 20
151.6891315804327007
 30
0.0
 40
0.0563174646444759
 50
258.6351499278879942
 51
310.6170612285300194
  0
ARC
  5
399F7
  8
0
 10
2756.4794663652451163
 20
151.6843175696110109
 30
0.0
 40
0.0487907628028025
 50
308.966839293641101
 51
11.8645409995072608
  0
ARC
  5
399F8
  8
0
 10
2756.4765094561621481
 20
151.6825336267399962
 30
0.0
 40
0.0520637141045048
 50
13.1168869692577292
 51
72.5288142996386256
  0
ARC
  5
399F9
  8
0
 10
2756.4732317156690442
 20
151.6757066415277961
 30
0.0
 40
0.0595695553480463
 50
71.4929703871795112
 51
89.9805618304648078
  0
ARC
  5
399FA
  8
0
 10
2756.4725906420790125
 20
151.7058084453655908
 30
0.0
 40
0.0710477188571738
 50
19.9806382166612693
 51
41.4126220178320068
  0
ARC
  5
399FB
  8
0
 10
2756.4786870618067951
 20
151.7104086526236983
 30
0.0
 40
0.0637857003711967
 50
334.1886991345118076
 51
17.9680000420075494
  0
ARC
  5
399FC
  8
0
 10
2756.4823769944268861
 20
151.7075464431976002
 30
0.0
 40
0.059225615119055
 50
315.6934348479164214
 51
335.1271597679433967
  0
LINE
  5
399FD
  8
0
 10
2756.5282556241709244
 20
151.6839344921523889
 30
0.0
 11
2756.5306666788928851
 21
151.7467346265067931
 31
0.0
  0
LINE
  5
399FE
  8
0
 10
2756.4182949599230597
 20
151.6832650585110116
 30
0.0
 11
2756.4158089654902142
 21
151.7468496825457862
 31
0.0
  0
ARC
  5
399FF
  8
0
 10
2756.4758639788119581
 20
151.7261584399755918
 30
0.0
 40
0.0647741296937043
 50
339.8302370913056052
 51
359.5117821610048168
  0
ARC
  5
39A00
  8
0
 10
2756.4773948614861183
 20
151.7255961019158121
 30
0.0
 40
0.0631432324397103
 50
323.9192294833950996
 51
339.8302370913041273
  0
ARC
  5
39A01
  8
0
 10
2756.4706403034879258
 20
151.7261584399755918
 30
0.0
 40
0.0647741296937043
 50
180.488217838995098
 51
200.1697629086943948
  0
ARC
  5
39A02
  8
0
 10
2756.4691094208151299
 20
151.7255961019158121
 30
0.0
 40
0.0631432324397103
 50
200.1697629086959012
 51
216.0807705166047867
  0
ARC
  5
39A03
  8
0
 10
2756.0310659458168629
 20
151.426229765717892
 30
0.0
 40
0.0205878218031923
 50
341.5248661542440232
 51
43.0995666664697197
  0
ARC
  5
39A04
  8
0
 10
2756.0280481346730994
 20
151.4234057908070099
 30
0.0
 40
0.0247208616527655
 50
43.0995666664697197
 51
114.6391176392756961
  0
ARC
  5
39A05
  8
0
 10
2756.027118127686208
 20
151.4254334436313059
 30
0.0
 40
0.0224901019231741
 50
114.6391176392756961
 51
190.0214526449616983
  0
ARC
  5
39A06
  8
0
 10
2756.0267192676310515
 20
151.4271120574587997
 30
0.0
 40
0.0224555890709843
 50
194.4205315802103087
 51
243.8598111262149075
  0
ARC
  5
39A07
  8
0
 10
2756.0279974712261719
 20
151.4294051245389028
 30
0.0
 40
0.0250776306466944
 50
243.5463136136854132
 51
310.5818351283879224
  0
ARC
  5
39A08
  8
0
 10
2756.0294561884020368
 20
151.4271267819727882
 30
0.0
 40
0.0224014630264246
 50
311.5391556660542847
 51
340.653522391037086
  0
ARC
  5
39A09
  8
0
 10
2756.0312632143841256
 20
151.4550712809449067
 30
0.0
 40
0.0665852676443243
 50
42.1024273191789575
 51
80.6624827139162051
  0
ARC
  5
39A0A
  8
0
 10
2756.027794850896953
 20
151.4492421570714953
 30
0.0
 40
0.0729419529260173
 50
78.7167190331258979
 51
131.3706858814242935
  0
ARC
  5
39A0B
  8
0
 10
2756.0218444699507927
 20
151.4572787859005985
 30
0.0
 40
0.0629837812638812
 50
132.1404656548654941
 51
191.0592527555122899
  0
ARC
  5
39A0C
  8
0
 10
2756.0225743946148214
 20
151.4570507590132991
 30
0.0
 40
0.063657449313394
 50
190.7317992410528973
 51
224.0549593480830026
  0
ARC
  5
39A0D
  8
0
 10
2756.0279467887157807
 20
151.4240359302459069
 30
0.0
 40
0.0581493610480463
 50
89.9042689955946912
 51
131.6498683314696052
  0
ARC
  5
39A0E
  8
0
 10
2756.0214566789441051
 20
151.4313331144767858
 30
0.0
 40
0.0483835829140168
 50
131.6498683314684968
 51
184.7333097109757887
  0
ARC
  5
39A0F
  8
0
 10
2756.0203950725881441
 20
151.4312452131653117
 30
0.0
 40
0.0473183436475459
 50
184.733309710977494
 51
202.9602641888363905
  0
ARC
  5
39A10
  8
0
 10
2756.0262360424271719
 20
151.4337197784616933
 30
0.0
 40
0.0536618759487578
 50
202.9602641888363905
 51
260.285371862797092
  0
ARC
  5
39A11
  8
0
 10
2756.0282787720980195
 20
151.4360405971127079
 30
0.0
 40
0.0563174646444759
 50
258.6351499278879942
 51
310.6170612285300194
  0
ARC
  5
39A12
  8
0
 10
2756.0342583858628132
 20
151.4312265862909896
 30
0.0
 40
0.0487907628028025
 50
308.966839293641101
 51
11.8645409995072608
  0
ARC
  5
39A13
  8
0
 10
2756.0313014767812092
 20
151.4294426434200034
 30
0.0
 40
0.0520637141045048
 50
13.1168869692577292
 51
72.5288142996386256
  0
ARC
  5
39A14
  8
0
 10
2756.0280237362871958
 20
151.4226156582078886
 30
0.0
 40
0.0595695553480463
 50
71.4929703871795112
 51
89.9805618304648078
  0
ARC
  5
39A15
  8
0
 10
2756.0273826626971641
 20
151.452717462045598
 30
0.0
 40
0.0710477188571738
 50
19.9806382166612693
 51
41.4126220178320068
  0
ARC
  5
39A16
  8
0
 10
2756.0334790824258562
 20
151.4573176693037908
 30
0.0
 40
0.0637857003711967
 50
334.1886991345118076
 51
17.9680000420075494
  0
ARC
  5
39A17
  8
0
 10
2756.0371690150459472
 20
151.4544554598776074
 30
0.0
 40
0.059225615119055
 50
315.6934348479164214
 51
335.1271597679433967
  0
LINE
  5
39A18
  8
0
 10
2756.0830476447899855
 20
151.4308435088323961
 30
0.0
 11
2756.0854586995110367
 21
151.493643643186914
 31
0.0
  0
LINE
  5
39A19
  8
0
 10
2755.9730869805412112
 20
151.4301740751909904
 30
0.0
 11
2755.9706009861088205
 21
151.4937586992257934
 31
0.0
  0
ARC
  5
39A1A
  8
0
 10
2756.0306559994310192
 20
151.473067456655599
 30
0.0
 40
0.0647741296937043
 50
339.8302370913056052
 51
359.5117821610048168
  0
ARC
  5
39A1B
  8
0
 10
2756.0321868821051794
 20
151.4725051185959046
 30
0.0
 40
0.0631432324397103
 50
323.9192294833950996
 51
339.8302370913041273
  0
ARC
  5
39A1C
  8
0
 10
2756.0254323241060774
 20
151.473067456655599
 30
0.0
 40
0.0647741296937043
 50
180.488217838995098
 51
200.1697629086943948
  0
ARC
  5
39A1D
  8
0
 10
2756.0239014414328267
 20
151.4725051185959046
 30
0.0
 40
0.0631432324397103
 50
200.1697629086959012
 51
216.0807705166047867
  0
ARC
  5
39A1E
  8
0
 10
2756.4758137192129652
 20
151.2126395184664887
 30
0.0
 40
0.0205878218031923
 50
341.5248661542440232
 51
43.0995666664697197
  0
ARC
  5
39A1F
  8
0
 10
2756.4727959080692017
 20
151.2098155435556066
 30
0.0
 40
0.0247208616527655
 50
43.0995666664697197
 51
114.6391176392756961
  0
ARC
  5
39A20
  8
0
 10
2756.4718659010818556
 20
151.2118431963797889
 30
0.0
 40
0.0224901019231741
 50
114.6391176392756961
 51
190.0214526449616983
  0
ARC
  5
39A21
  8
0
 10
2756.4714670410271538
 20
151.2135218102073964
 30
0.0
 40
0.0224555890709843
 50
194.4205315802103087
 51
243.8598111262149075
  0
ARC
  5
39A22
  8
0
 10
2756.4727452446218194
 20
151.2158148772874995
 30
0.0
 40
0.0250776306466944
 50
243.5463136136854132
 51
310.5818351283879224
  0
ARC
  5
39A23
  8
0
 10
2756.4742039617981391
 20
151.2135365347214133
 30
0.0
 40
0.0224014630264246
 50
311.5391556660542847
 51
340.653522391037086
  0
ARC
  5
39A24
  8
0
 10
2756.4760109877811374
 20
151.2414810336933897
 30
0.0
 40
0.0665852676443243
 50
42.1024273191789575
 51
80.6624827139162051
  0
ARC
  5
39A25
  8
0
 10
2756.4725426242939648
 20
151.235651909820092
 30
0.0
 40
0.0729419529260173
 50
78.7167190331258979
 51
131.3706858814242935
  0
ARC
  5
39A26
  8
0
 10
2756.466592243346895
 20
151.2436885386493088
 30
0.0
 40
0.0629837812638812
 50
132.1404656548654941
 51
191.0592527555122899
  0
ARC
  5
39A27
  8
0
 10
2756.4673221680118331
 20
151.2434605117618958
 30
0.0
 40
0.063657449313394
 50
190.7317992410528973
 51
224.0549593480830026
  0
ARC
  5
39A28
  8
0
 10
2756.4726945621127925
 20
151.2104456829945036
 30
0.0
 40
0.0581493610480463
 50
89.9042689955946912
 51
131.6498683314696052
  0
ARC
  5
39A29
  8
0
 10
2756.4662044523402074
 20
151.2177428672254109
 30
0.0
 40
0.0483835829140168
 50
131.6498683314684968
 51
184.7333097109757887
  0
ARC
  5
39A2A
  8
0
 10
2756.4651428459837916
 20
151.2176549659139084
 30
0.0
 40
0.0473183436475459
 50
184.733309710977494
 51
202.9602641888363905
  0
ARC
  5
39A2B
  8
0
 10
2756.47098381582191
 20
151.2201295312102047
 30
0.0
 40
0.0536618759487578
 50
202.9602641888363905
 51
260.285371862797092
  0
ARC
  5
39A2C
  8
0
 10
2756.4730265454941218
 20
151.2224503498613899
 30
0.0
 40
0.0563174646444759
 50
258.6351499278879942
 51
310.6170612285300194
  0
ARC
  5
39A2D
  8
0
 10
2756.4790061592589154
 20
151.2176363390397
 30
0.0
 40
0.0487907628028025
 50
308.966839293641101
 51
11.8645409995072608
  0
ARC
  5
39A2E
  8
0
 10
2756.4760492501768567
 20
151.2158523961686001
 30
0.0
 40
0.0520637141045048
 50
13.1168869692577292
 51
72.5288142996386256
  0
ARC
  5
39A2F
  8
0
 10
2756.4727715096828433
 20
151.2090254109565137
 30
0.0
 40
0.0595695553480463
 50
71.4929703871795112
 51
89.9805618304648078
  0
ARC
  5
39A30
  8
0
 10
2756.4721304360941758
 20
151.2391272147943084
 30
0.0
 40
0.0710477188571738
 50
19.9806382166612693
 51
41.4126220178320068
  0
ARC
  5
39A31
  8
0
 10
2756.4782268558219585
 20
151.2437274220523875
 30
0.0
 40
0.0637857003711967
 50
334.1886991345118076
 51
17.9680000420075494
  0
ARC
  5
39A32
  8
0
 10
2756.4819167884420494
 20
151.2408652126262041
 30
0.0
 40
0.059225615119055
 50
315.6934348479164214
 51
335.1271597679433967
  0
LINE
  5
39A33
  8
0
 10
2756.5277954181860878
 20
151.2172532615809928
 30
0.0
 11
2756.530206472907139
 21
151.2800533959355107
 31
0.0
  0
LINE
  5
39A34
  8
0
 10
2756.417834753938223
 20
151.2165838279395871
 30
0.0
 11
2756.4153487595049228
 21
151.2801684519743901
 31
0.0
  0
ARC
  5
39A35
  8
0
 10
2756.4754037728271214
 20
151.2594772094043094
 30
0.0
 40
0.0647741296937043
 50
339.8302370913056052
 51
359.5117821610048168
  0
ARC
  5
39A36
  8
0
 10
2756.4769346555008269
 20
151.2589148713445013
 30
0.0
 40
0.0631432324397103
 50
323.9192294833950996
 51
339.8302370913041273
  0
ARC
  5
39A37
  8
0
 10
2756.4701800975030892
 20
151.2594772094043094
 30
0.0
 40
0.0647741296937043
 50
180.488217838995098
 51
200.1697629086943948
  0
ARC
  5
39A38
  8
0
 10
2756.468649214828929
 20
151.2589148713445013
 30
0.0
 40
0.0631432324397103
 50
200.1697629086959012
 51
216.0807705166047867
  0
ARC
  5
39A39
  8
0
 10
2756.0310147200161737
 20
150.964610320498906
 30
0.0
 40
0.0205878218031923
 50
341.5248661542440232
 51
43.0995666664697197
  0
ARC
  5
39A3A
  8
0
 10
2756.0279969088719554
 20
150.9617863455879956
 30
0.0
 40
0.0247208616527655
 50
43.0995666664697197
 51
114.6391176392756961
  0
ARC
  5
39A3B
  8
0
 10
2756.027066901885064
 20
150.9638139984122063
 30
0.0
 40
0.0224901019231741
 50
114.6391176392756961
 51
190.0214526449616983
  0
ARC
  5
39A3C
  8
0
 10
2756.0266680418308169
 20
150.9654926122398138
 30
0.0
 40
0.0224555890709843
 50
194.4205315802103087
 51
243.8598111262149075
  0
ARC
  5
39A3D
  8
0
 10
2756.0279462454250279
 20
150.9677856793198885
 30
0.0
 40
0.0250776306466944
 50
243.5463136136854132
 51
310.5818351283879224
  0
ARC
  5
39A3E
  8
0
 10
2756.0294049626008928
 20
150.9655073367538023
 30
0.0
 40
0.0224014630264246
 50
311.5391556660542847
 51
340.653522391037086
  0
ARC
  5
39A3F
  8
0
 10
2756.0312119885829816
 20
150.9934518357258071
 30
0.0
 40
0.0665852676443243
 50
42.1024273191789575
 51
80.6624827139162051
  0
ARC
  5
39A40
  8
0
 10
2756.0277436250971732
 20
150.9876227118525094
 30
0.0
 40
0.0729419529260173
 50
78.7167190331258979
 51
131.3706858814242935
  0
ARC
  5
39A41
  8
0
 10
2756.0217932441501034
 20
150.9956593406816125
 30
0.0
 40
0.0629837812638812
 50
132.1404656548654941
 51
191.0592527555122899
  0
ARC
  5
39A42
  8
0
 10
2756.0225231688150416
 20
150.9954313137943132
 30
0.0
 40
0.063657449313394
 50
190.7317992410528973
 51
224.0549593480830026
  0
ARC
  5
39A43
  8
0
 10
2756.0278955629160009
 20
150.9624164850268926
 30
0.0
 40
0.0581493610480463
 50
89.9042689955946912
 51
131.6498683314696052
  0
ARC
  5
39A44
  8
0
 10
2756.0214054531429611
 20
150.9697136692577999
 30
0.0
 40
0.0483835829140168
 50
131.6498683314684968
 51
184.7333097109757887
  0
ARC
  5
39A45
  8
0
 10
2756.0203438467870001
 20
150.9696257679462974
 30
0.0
 40
0.0473183436475459
 50
184.733309710977494
 51
202.9602641888363905
  0
ARC
  5
39A46
  8
0
 10
2756.0261848166251184
 20
150.9721003332427074
 30
0.0
 40
0.0536618759487578
 50
202.9602641888363905
 51
260.285371862797092
  0
ARC
  5
39A47
  8
0
 10
2756.0282275462968755
 20
150.9744211518938073
 30
0.0
 40
0.0563174646444759
 50
258.6351499278879942
 51
310.6170612285300194
  0
ARC
  5
39A48
  8
0
 10
2756.0342071600630334
 20
150.9696071410720037
 30
0.0
 40
0.0487907628028025
 50
308.966839293641101
 51
11.8645409995072608
  0
ARC
  5
39A49
  8
0
 10
2756.0312502509800652
 20
150.9678231982009891
 30
0.0
 40
0.0520637141045048
 50
13.1168869692577292
 51
72.5288142996386256
  0
ARC
  5
39A4A
  8
0
 10
2756.0279725104869613
 20
150.9609962129889027
 30
0.0
 40
0.0595695553480463
 50
71.4929703871795112
 51
89.9805618304648078
  0
ARC
  5
39A4B
  8
0
 10
2756.0273314368969295
 20
150.9910980168266121
 30
0.0
 40
0.0710477188571738
 50
19.9806382166612693
 51
41.4126220178320068
  0
ARC
  5
39A4C
  8
0
 10
2756.0334278566251669
 20
150.9956982240848049
 30
0.0
 40
0.0637857003711967
 50
334.1886991345118076
 51
17.9680000420075494
  0
ARC
  5
39A4D
  8
0
 10
2756.0371177892448031
 20
150.9928360146585931
 30
0.0
 40
0.059225615119055
 50
315.6934348479164214
 51
335.1271597679433967
  0
LINE
  5
39A4E
  8
0
 10
2756.0829964189888415
 20
150.9692240636134102
 30
0.0
 11
2756.0854074737098927
 21
151.0320241979678997
 31
0.0
  0
LINE
  5
39A4F
  8
0
 10
2755.9730357547400672
 20
150.9685546299720045
 30
0.0
 11
2755.9705497603081312
 21
151.0321392540068928
 31
0.0
  0
ARC
  5
39A50
  8
0
 10
2756.0306047736307846
 20
151.0114480114366984
 30
0.0
 40
0.0647741296937043
 50
339.8302370913056052
 51
359.5117821610048168
  0
ARC
  5
39A51
  8
0
 10
2756.0321356563040354
 20
151.0108856733768903
 30
0.0
 40
0.0631432324397103
 50
323.9192294833950996
 51
339.8302370913041273
  0
ARC
  5
39A52
  8
0
 10
2756.0253810983058429
 20
151.0114480114366984
 30
0.0
 40
0.0647741296937043
 50
180.488217838995098
 51
200.1697629086943948
  0
ARC
  5
39A53
  8
0
 10
2756.0238502156321374
 20
151.0108856733768903
 30
0.0
 40
0.0631432324397103
 50
200.1697629086959012
 51
216.0807705166047867
  0
ARC
  5
39A54
  8
0
 10
2756.4759504590529104
 20
150.7560275800647105
 30
0.0
 40
0.0205878218031923
 50
341.5248661542440232
 51
43.0995666664697197
  0
ARC
  5
39A55
  8
0
 10
2756.4729326479077827
 20
150.7532036051538
 30
0.0
 40
0.0247208616527655
 50
43.0995666664697197
 51
114.6391176392756961
  0
ARC
  5
39A56
  8
0
 10
2756.4720026409218008
 20
150.7552312579780107
 30
0.0
 40
0.0224901019231741
 50
114.6391176392756961
 51
190.0214526449616983
  0
ARC
  5
39A57
  8
0
 10
2756.4716037808661895
 20
150.7569098718055898
 30
0.0
 40
0.0224555890709843
 50
194.4205315802103087
 51
243.8598111262149075
  0
ARC
  5
39A58
  8
0
 10
2756.4728819844608552
 20
150.7592029388856929
 30
0.0
 40
0.0250776306466944
 50
243.5463136136854132
 51
310.5818351283879224
  0
ARC
  5
39A59
  8
0
 10
2756.4743407016380843
 20
150.7569245963196067
 30
0.0
 40
0.0224014630264246
 50
311.5391556660542847
 51
340.653522391037086
  0
ARC
  5
39A5A
  8
0
 10
2756.4761477276201731
 20
150.7848690952916115
 30
0.0
 40
0.0665852676443243
 50
42.1024273191789575
 51
80.6624827139162051
  0
ARC
  5
39A5B
  8
0
 10
2756.4726793641330005
 20
150.7790399714183138
 30
0.0
 40
0.0729419529260173
 50
78.7167190331258979
 51
131.3706858814242935
  0
ARC
  5
39A5C
  8
0
 10
2756.4667289831859307
 20
150.7870766002473886
 30
0.0
 40
0.0629837812638812
 50
132.1404656548654941
 51
191.0592527555122899
  0
ARC
  5
39A5D
  8
0
 10
2756.4674589078508689
 20
150.7868485733600892
 30
0.0
 40
0.063657449313394
 50
190.7317992410528973
 51
224.0549593480830026
  0
ARC
  5
39A5E
  8
0
 10
2756.4728313019518282
 20
150.753833744592697
 30
0.0
 40
0.0581493610480463
 50
89.9042689955946912
 51
131.6498683314696052
  0
ARC
  5
39A5F
  8
0
 10
2756.4663411921787883
 20
150.7611309288234906
 30
0.0
 40
0.0483835829140168
 50
131.6498683314684968
 51
184.7333097109757887
  0
ARC
  5
39A60
  8
0
 10
2756.4652795858228274
 20
150.7610430275119882
 30
0.0
 40
0.0473183436475459
 50
184.733309710977494
 51
202.9602641888363905
  0
ARC
  5
39A61
  8
0
 10
2756.4711205556618552
 20
150.7635175928083981
 30
0.0
 40
0.0536618759487578
 50
202.9602641888363905
 51
260.285371862797092
  0
ARC
  5
39A62
  8
0
 10
2756.473163285334067
 20
150.765838411459498
 30
0.0
 40
0.0563174646444759
 50
258.6351499278879942
 51
310.6170612285300194
  0
ARC
  5
39A63
  8
0
 10
2756.4791428990988607
 20
150.7610244006378935
 30
0.0
 40
0.0487907628028025
 50
308.966839293641101
 51
11.8645409995072608
  0
ARC
  5
39A64
  8
0
 10
2756.4761859900158925
 20
150.7592404577667935
 30
0.0
 40
0.0520637141045048
 50
13.1168869692577292
 51
72.5288142996386256
  0
ARC
  5
39A65
  8
0
 10
2756.4729082495227885
 20
150.7524134725547071
 30
0.0
 40
0.0595695553480463
 50
71.4929703871795112
 51
89.9805618304648078
  0
ARC
  5
39A66
  8
0
 10
2756.4722671759332115
 20
150.7825152763923882
 30
0.0
 40
0.0710477188571738
 50
19.9806382166612693
 51
41.4126220178320068
  0
ARC
  5
39A67
  8
0
 10
2756.4783635956619037
 20
150.7871154836506093
 30
0.0
 40
0.0637857003711967
 50
334.1886991345118076
 51
17.9680000420075494
  0
ARC
  5
39A68
  8
0
 10
2756.4820535282810852
 20
150.7842532742243975
 30
0.0
 40
0.059225615119055
 50
315.6934348479164214
 51
335.1271597679433967
  0
LINE
  5
39A69
  8
0
 10
2756.5279321580251235
 20
150.7606413231791862
 30
0.0
 11
2756.5303432127470842
 21
150.8234414575337041
 31
0.0
  0
LINE
  5
39A6A
  8
0
 10
2756.417971493776804
 20
150.7599718895378089
 30
0.0
 11
2756.4154854993439585
 21
150.8235565135726119
 31
0.0
  0
ARC
  5
39A6B
  8
0
 10
2756.4755405126670667
 20
150.8028652710023891
 30
0.0
 40
0.0647741296937043
 50
339.8302370913056052
 51
359.5117821610048168
  0
ARC
  5
39A6C
  8
0
 10
2756.4770713953398626
 20
150.8023029329426947
 30
0.0
 40
0.0631432324397103
 50
323.9192294833950996
 51
339.8302370913041273
  0
ARC
  5
39A6D
  8
0
 10
2756.4703168373421249
 20
150.8028652710023891
 30
0.0
 40
0.0647741296937043
 50
180.488217838995098
 51
200.1697629086943948
  0
ARC
  5
39A6E
  8
0
 10
2756.4687859546679647
 20
150.8023029329426947
 30
0.0
 40
0.0631432324397103
 50
200.1697629086959012
 51
216.0807705166047867
  0
ARC
  5
39A6F
  8
0
 10
2756.0308858292919467
 20
150.5113687983815964
 30
0.0
 40
0.0205878218031923
 50
341.5248661542440232
 51
43.0995666664697197
  0
ARC
  5
39A70
  8
0
 10
2756.0278680181481832
 20
150.508544823470686
 30
0.0
 40
0.0247208616527655
 50
43.0995666664697197
 51
114.6391176392756961
  0
ARC
  5
39A71
  8
0
 10
2756.026938011160837
 20
150.5105724762948967
 30
0.0
 40
0.0224901019231741
 50
114.6391176392756961
 51
190.0214526449616983
  0
ARC
  5
39A72
  8
0
 10
2756.0265391511061353
 20
150.5122510901223905
 30
0.0
 40
0.0224555890709843
 50
194.4205315802103087
 51
243.8598111262149075
  0
ARC
  5
39A73
  8
0
 10
2756.0278173547008009
 20
150.5145441572026073
 30
0.0
 40
0.0250776306466944
 50
243.5463136136854132
 51
310.5818351283879224
  0
ARC
  5
39A74
  8
0
 10
2756.0292760718771206
 20
150.5122658146364927
 30
0.0
 40
0.0224014630264246
 50
311.5391556660542847
 51
340.653522391037086
  0
ARC
  5
39A75
  8
0
 10
2756.0310830978578451
 20
150.5402103136084975
 30
0.0
 40
0.0665852676443243
 50
42.1024273191789575
 51
80.6624827139162051
  0
ARC
  5
39A76
  8
0
 10
2756.0276147343720368
 20
150.5343811897351998
 30
0.0
 40
0.0729419529260173
 50
78.7167190331258979
 51
131.3706858814242935
  0
ARC
  5
39A77
  8
0
 10
2756.0216643534258765
 20
150.5424178185643029
 30
0.0
 40
0.0629837812638812
 50
132.1404656548654941
 51
191.0592527555122899
  0
ARC
  5
39A78
  8
0
 10
2756.0223942780899051
 20
150.5421897916770035
 30
0.0
 40
0.063657449313394
 50
190.7317992410528973
 51
224.0549593480830026
  0
ARC
  5
39A79
  8
0
 10
2756.0277666721908645
 20
150.5091749629096114
 30
0.0
 40
0.0581493610480463
 50
89.9042689955946912
 51
131.6498683314696052
  0
ARC
  5
39A7A
  8
0
 10
2756.0212765624178246
 20
150.516472147140405
 30
0.0
 40
0.0483835829140168
 50
131.6498683314684968
 51
184.7333097109757887
  0
ARC
  5
39A7B
  8
0
 10
2756.0202149560627731
 20
150.5163842458289025
 30
0.0
 40
0.0473183436475459
 50
184.733309710977494
 51
202.9602641888363905
  0
ARC
  5
39A7C
  8
0
 10
2756.0260559259008915
 20
150.5188588111253125
 30
0.0
 40
0.0536618759487578
 50
202.9602641888363905
 51
260.285371862797092
  0
ARC
  5
39A7D
  8
0
 10
2756.0280986555731033
 20
150.5211796297764124
 30
0.0
 40
0.0563174646444759
 50
258.6351499278879942
 51
310.6170612285300194
  0
ARC
  5
39A7E
  8
0
 10
2756.0340782693378969
 20
150.5163656189546941
 30
0.0
 40
0.0487907628028025
 50
308.966839293641101
 51
11.8645409995072608
  0
ARC
  5
39A7F
  8
0
 10
2756.0311213602549287
 20
150.5145816760837079
 30
0.0
 40
0.0520637141045048
 50
13.1168869692577292
 51
72.5288142996386256
  0
ARC
  5
39A80
  8
0
 10
2756.0278436197618248
 20
150.5077546908715931
 30
0.0
 40
0.0595695553480463
 50
71.4929703871795112
 51
89.9805618304648078
  0
ARC
  5
39A81
  8
0
 10
2756.0272025461717931
 20
150.5378564947093025
 30
0.0
 40
0.0710477188571738
 50
19.9806382166612693
 51
41.4126220178320068
  0
ARC
  5
39A82
  8
0
 10
2756.0332989659000305
 20
150.54245670196741
 30
0.0
 40
0.0637857003711967
 50
334.1886991345118076
 51
17.9680000420075494
  0
ARC
  5
39A83
  8
0
 10
2756.0369888985201214
 20
150.5395944925413119
 30
0.0
 40
0.059225615119055
 50
315.6934348479164214
 51
335.1271597679433967
  0
LINE
  5
39A84
  8
0
 10
2756.0828675282641598
 20
150.5159825414961006
 30
0.0
 11
2756.0852785829861205
 21
150.5787826758505048
 31
0.0
  0
LINE
  5
39A85
  8
0
 10
2755.9729068640158403
 20
150.5153131078546949
 30
0.0
 11
2755.9704208695829948
 21
150.5788977318894979
 31
0.0
  0
ARC
  5
39A86
  8
0
 10
2756.0304758829061029
 20
150.5582064893193035
 30
0.0
 40
0.0647741296937043
 50
339.8302370913056052
 51
359.5117821610048168
  0
ARC
  5
39A87
  8
0
 10
2756.0320067655788989
 20
150.5576441512596091
 30
0.0
 40
0.0631432324397103
 50
323.9192294833950996
 51
339.8302370913041273
  0
ARC
  5
39A88
  8
0
 10
2756.0252522075820707
 20
150.5582064893193035
 30
0.0
 40
0.0647741296937043
 50
180.488217838995098
 51
200.1697629086943948
  0
ARC
  5
39A89
  8
0
 10
2756.0237213249079105
 20
150.5576441512596091
 30
0.0
 40
0.0631432324397103
 50
200.1697629086959012
 51
216.0807705166047867
  0
ARC
  5
39A8A
  8
0
 10
2755.5864309518051414
 20
150.2778531816117038
 30
0.0
 40
0.0205878218031923
 50
341.5248661542440232
 51
43.0995666664697197
  0
ARC
  5
39A8B
  8
0
 10
2755.5834131406609231
 20
150.275029206700907
 30
0.0
 40
0.0247208616527655
 50
43.0995666664697197
 51
114.6391176392756961
  0
ARC
  5
39A8C
  8
0
 10
2755.5824831336740317
 20
150.277056859525004
 30
0.0
 40
0.0224901019231741
 50
114.6391176392756961
 51
190.0214526449616983
  0
ARC
  5
39A8D
  8
0
 10
2755.5820842736197847
 20
150.2787354733526115
 30
0.0
 40
0.0224555890709843
 50
194.4205315802103087
 51
243.8598111262149075
  0
ARC
  5
39A8E
  8
0
 10
2755.5833624772139956
 20
150.2810285404326862
 30
0.0
 40
0.0250776306466944
 50
243.5463136136854132
 51
310.5818351283879224
  0
ARC
  5
39A8F
  8
0
 10
2755.5848211943898605
 20
150.2787501978667137
 30
0.0
 40
0.0224014630264246
 50
311.5391556660542847
 51
340.653522391037086
  0
ARC
  5
39A90
  8
0
 10
2755.5866282203719493
 20
150.3066946968386901
 30
0.0
 40
0.0665852676443243
 50
42.1024273191789575
 51
80.6624827139162051
  0
ARC
  5
39A91
  8
0
 10
2755.5831598568861409
 20
150.3008655729653071
 30
0.0
 40
0.0729419529260173
 50
78.7167190331258979
 51
131.3706858814242935
  0
ARC
  5
39A92
  8
0
 10
2755.5772094759390711
 20
150.3089022017944956
 30
0.0
 40
0.0629837812638812
 50
132.1404656548654941
 51
191.0592527555122899
  0
ARC
  5
39A93
  8
0
 10
2755.5779394006040093
 20
150.3086741749071109
 30
0.0
 40
0.063657449313394
 50
190.7317992410528973
 51
224.0549593480830026
  0
ARC
  5
39A94
  8
0
 10
2755.5833117947049686
 20
150.2756593461396903
 30
0.0
 40
0.0581493610480463
 50
89.9042689955946912
 51
131.6498683314696052
  0
ARC
  5
39A95
  8
0
 10
2755.5768216849319288
 20
150.2829565303705976
 30
0.0
 40
0.0483835829140168
 50
131.6498683314684968
 51
184.733309710977494
  0
ARC
  5
39A96
  8
0
 10
2755.5757600785759678
 20
150.2828686290590952
 30
0.0
 40
0.0473183436475459
 50
184.733309710977494
 51
202.9602641888363905
  0
ARC
  5
39A97
  8
0
 10
2755.5816010484140861
 20
150.2853431943555051
 30
0.0
 40
0.0536618759487578
 50
202.9602641888363905
 51
260.285371862797092
  0
ARC
  5
39A98
  8
0
 10
2755.5836437780858432
 20
150.287664013006605
 30
0.0
 40
0.0563174646444759
 50
258.6351499278879942
 51
310.6170612285300194
  0
ARC
  5
39A99
  8
0
 10
2755.5896233918520011
 20
150.2828500021848868
 30
0.0
 40
0.0487907628028025
 50
308.966839293641101
 51
11.8645409995072608
  0
ARC
  5
39A9A
  8
0
 10
2755.5866664827690329
 20
150.2810660593139005
 30
0.0
 40
0.0520637141045048
 50
13.1168869692577292
 51
72.5288142996386256
  0
ARC
  5
39A9B
  8
0
 10
2755.5833887422750195
 20
150.2742390741017005
 30
0.0
 40
0.0595695553480463
 50
71.4929703871795112
 51
89.9805618304648078
  0
ARC
  5
39A9C
  8
0
 10
2755.5827476686858972
 20
150.3043408779394952
 30
0.0
 40
0.0710477188571738
 50
19.9806382166612693
 51
41.4126220178320068
  0
ARC
  5
39A9D
  8
0
 10
2755.5888440884141346
 20
150.3089410851976027
 30
0.0
 40
0.0637857003711967
 50
334.1886991345118076
 51
17.9680000420075494
  0
ARC
  5
39A9E
  8
0
 10
2755.5925340210342256
 20
150.3060788757713908
 30
0.0
 40
0.059225615119055
 50
315.6934348479164214
 51
335.1271597679433967
  0
LINE
  5
39A9F
  8
0
 10
2755.6384126507768997
 20
150.2824669247262079
 30
0.0
 11
2755.6408237055002246
 21
150.3452670590806974
 31
0.0
  0
LINE
  5
39AA0
  8
0
 10
2755.5284519865299444
 20
150.2817974910848022
 30
0.0
 11
2755.5259659920970989
 21
150.3453821151196905
 31
0.0
  0
ARC
  5
39AA1
  8
0
 10
2755.5860210054188428
 20
150.3246908725494961
 30
0.0
 40
0.0647741296937043
 50
339.8302370913056052
 51
359.5117821610048168
  0
ARC
  5
39AA2
  8
0
 10
2755.5875518880930031
 20
150.324128534489688
 30
0.0
 40
0.0631432324397103
 50
323.9192294833950996
 51
339.8302370913041273
  0
ARC
  5
39AA3
  8
0
 10
2755.5807973300939011
 20
150.3246908725494961
 30
0.0
 40
0.0647741296937043
 50
180.488217838995098
 51
200.1697629086943948
  0
ARC
  5
39AA4
  8
0
 10
2755.5792664474211051
 20
150.324128534489688
 30
0.0
 40
0.0631432324397103
 50
200.1697629086959012
 51
216.0807705166047867
  0
ARC
  5
39AA5
  8
0
 10
2755.5864388009199502
 20
149.8418073490001063
 30
0.0
 40
0.0205878218031923
 50
341.5248661542440232
 51
43.0995666664697197
  0
ARC
  5
39AA6
  8
0
 10
2755.5834209897761866
 20
149.8389833740891959
 30
0.0
 40
0.0247208616527655
 50
43.0995666664697197
 51
114.6391176392756961
  0
ARC
  5
39AA7
  8
0
 10
2755.5824909827888405
 20
149.8410110269134918
 30
0.0
 40
0.0224901019231741
 50
114.6391176392756961
 51
190.0214526449616983
  0
ARC
  5
39AA8
  8
0
 10
2755.5820921227341387
 20
149.842689640741014
 30
0.0
 40
0.0224555890709843
 50
194.4205315802103087
 51
243.8598111262149075
  0
ARC
  5
39AA9
  8
0
 10
2755.5833703263288044
 20
149.8449827078212024
 30
0.0
 40
0.0250776306466944
 50
243.5463136136854132
 51
310.5818351283879224
  0
ARC
  5
39AAA
  8
0
 10
2755.584829043505124
 20
149.8427043652550879
 30
0.0
 40
0.0224014630264246
 50
311.5391556660542847
 51
340.653522391037086
  0
ARC
  5
39AAB
  8
0
 10
2755.5866360694872128
 20
149.8706488642270926
 30
0.0
 40
0.0665852676443243
 50
42.1024273191789575
 51
80.6624827139162051
  0
ARC
  5
39AAC
  8
0
 10
2755.5831677060000402
 20
149.8648197403537097
 30
0.0
 40
0.0729419529260173
 50
78.7167190331258979
 51
131.3706858814242935
  0
ARC
  5
39AAD
  8
0
 10
2755.5772173250538799
 20
149.8728563691828981
 30
0.0
 40
0.0629837812638812
 50
132.1404656548654941
 51
191.0592527555122899
  0
ARC
  5
39AAE
  8
0
 10
2755.5779472497188181
 20
149.8726283422955134
 30
0.0
 40
0.063657449313394
 50
190.7317992410528973
 51
224.0549593480830026
  0
ARC
  5
39AAF
  8
0
 10
2755.5833196438188679
 20
149.8396135135280929
 30
0.0
 40
0.0581493610480463
 50
89.9042689955946912
 51
131.6498683314696052
  0
ARC
  5
39AB0
  8
0
 10
2755.576829534045828
 20
149.8469106977590002
 30
0.0
 40
0.0483835829140168
 50
131.6498683314684968
 51
184.733309710977494
  0
ARC
  5
39AB1
  8
0
 10
2755.5757679276907766
 20
149.8468227964474977
 30
0.0
 40
0.0473183436475459
 50
184.733309710977494
 51
202.9602641888363905
  0
ARC
  5
39AB2
  8
0
 10
2755.5816088975288949
 20
149.8492973617439077
 30
0.0
 40
0.0536618759487578
 50
202.9602641888363905
 51
260.285371862797092
  0
ARC
  5
39AB3
  8
0
 10
2755.5836516272011067
 20
149.8516181803950076
 30
0.0
 40
0.0563174646444759
 50
258.6351499278879942
 51
310.6170612285300194
  0
ARC
  5
39AB4
  8
0
 10
2755.5896312409659004
 20
149.8468041695732893
 30
0.0
 40
0.0487907628028025
 50
308.966839293641101
 51
11.8645409995072608
  0
ARC
  5
39AB5
  8
0
 10
2755.5866743318838417
 20
149.8450202267021893
 30
0.0
 40
0.0520637141045048
 50
13.1168869692577292
 51
72.5288142996386256
  0
ARC
  5
39AB6
  8
0
 10
2755.5833965913898282
 20
149.838193241490103
 30
0.0
 40
0.0595695553480463
 50
71.4929703871795112
 51
89.9805618304648078
  0
ARC
  5
39AB7
  8
0
 10
2755.5827555177997965
 20
149.8682950453278977
 30
0.0
 40
0.0710477188571738
 50
19.9806382166612693
 51
41.4126220178320068
  0
ARC
  5
39AB8
  8
0
 10
2755.5888519375289434
 20
149.8728952525860052
 30
0.0
 40
0.0637857003711967
 50
334.1886991345118076
 51
17.9680000420075494
  0
ARC
  5
39AB9
  8
0
 10
2755.5925418701481249
 20
149.870033043159907
 30
0.0
 40
0.059225615119055
 50
315.6934348479164214
 51
335.1271597679433967
  0
LINE
  5
39ABA
  8
0
 10
2755.6384204998921632
 20
149.8464210921146105
 30
0.0
 11
2755.6408315546150334
 21
149.9092212264691
 31
0.0
  0
LINE
  5
39ABB
  8
0
 10
2755.5284598356438437
 20
149.8457516584732048
 30
0.0
 11
2755.5259738412119077
 21
149.9093362825080931
 31
0.0
  0
ARC
  5
39ABC
  8
0
 10
2755.5860288545341064
 20
149.8886450399378987
 30
0.0
 40
0.0647741296937043
 50
339.8302370913056052
 51
359.5117821610048168
  0
ARC
  5
39ABD
  8
0
 10
2755.5875597372078118
 20
149.8880827018780906
 30
0.0
 40
0.0631432324397103
 50
323.9192294833950996
 51
339.8302370913041273
  0
ARC
  5
39ABE
  8
0
 10
2755.5808051792091646
 20
149.8886450399378987
 30
0.0
 40
0.0647741296937043
 50
180.488217838995098
 51
200.1697629086943948
  0
ARC
  5
39ABF
  8
0
 10
2755.5792742965359139
 20
149.8880827018780906
 30
0.0
 40
0.0631432324397103
 50
200.1697629086959012
 51
216.0807705166047867
  0
ARC
  5
39AC0
  8
0
 10
2756.0313241403778193
 20
150.067969004115298
 30
0.0
 40
0.0205878218031923
 50
341.5248661542440232
 51
43.0995666664697197
  0
ARC
  5
39AC1
  8
0
 10
2756.0283063292340557
 20
150.0651450292043876
 30
0.0
 40
0.0247208616527655
 50
43.0995666664697197
 51
114.6391176392756961
  0
ARC
  5
39AC2
  8
0
 10
2756.0273763222471644
 20
150.0671726820285983
 30
0.0
 40
0.0224901019231741
 50
114.6391176392756961
 51
190.0214526449616983
  0
ARC
  5
39AC3
  8
0
 10
2756.0269774621920078
 20
150.0688512958562058
 30
0.0
 40
0.0224555890709843
 50
194.4205315802103087
 51
243.8598111262149075
  0
ARC
  5
39AC4
  8
0
 10
2756.0282556657871282
 20
150.0711443629363089
 30
0.0
 40
0.0250776306466944
 50
243.5463136136854132
 51
310.5818351283879224
  0
ARC
  5
39AC5
  8
0
 10
2756.0297143829629931
 20
150.0688660203701943
 30
0.0
 40
0.0224014630264246
 50
311.5391556660542847
 51
340.653522391037086
  0
ARC
  5
39AC6
  8
0
 10
2756.0315214089450819
 20
150.0968105193421991
 30
0.0
 40
0.0665852676443243
 50
42.1024273191789575
 51
80.6624827139162051
  0
ARC
  5
39AC7
  8
0
 10
2756.0280530454579093
 20
150.0909813954689014
 30
0.0
 40
0.0729419529260173
 50
78.7167190331258979
 51
131.3706858814242935
  0
ARC
  5
39AC8
  8
0
 10
2756.0221026645122038
 20
150.0990180242980045
 30
0.0
 40
0.0629837812638812
 50
132.1404656548654941
 51
191.0592527555122899
  0
ARC
  5
39AC9
  8
0
 10
2756.0228325891757777
 20
150.0987899974107052
 30
0.0
 40
0.063657449313394
 50
190.7317992410528973
 51
224.0549593480830026
  0
ARC
  5
39ACA
  8
0
 10
2756.0282049832771918
 20
150.065775168643313
 30
0.0
 40
0.0581493610480463
 50
89.9042689955946912
 51
131.6498683314696052
  0
ARC
  5
39ACB
  8
0
 10
2756.0217148735041519
 20
150.0730723528741919
 30
0.0
 40
0.0483835829140168
 50
131.6498683314684968
 51
184.733309710977494
  0
ARC
  5
39ACC
  8
0
 10
2756.0206532671491004
 20
150.0729844515626894
 30
0.0
 40
0.0473183436475459
 50
184.733309710977494
 51
202.9602641888363905
  0
ARC
  5
39ACD
  8
0
 10
2756.0264942369872188
 20
150.0754590168590994
 30
0.0
 40
0.0536618759487578
 50
202.9602641888363905
 51
260.285371862797092
  0
ARC
  5
39ACE
  8
0
 10
2756.0285369666589759
 20
150.0777798355101993
 30
0.0
 40
0.0563174646444759
 50
258.6351499278879942
 51
310.6170612285300194
  0
ARC
  5
39ACF
  8
0
 10
2756.0345165804242242
 20
150.0729658246885094
 30
0.0
 40
0.0487907628028025
 50
308.966839293641101
 51
11.8645409995072608
  0
ARC
  5
39AD0
  8
0
 10
2756.0315596713408013
 20
150.0711818818174095
 30
0.0
 40
0.0520637141045048
 50
13.1168869692577292
 51
72.5288142996386256
  0
ARC
  5
39AD1
  8
0
 10
2756.0282819308490616
 20
150.0643548966052947
 30
0.0
 40
0.0595695553480463
 50
71.4929703871795112
 51
89.9805618304648078
  0
ARC
  5
39AD2
  8
0
 10
2756.0276408572581204
 20
150.0944567004430041
 30
0.0
 40
0.0710477188571738
 50
19.9806382166612693
 51
41.4126220178320068
  0
ARC
  5
39AD3
  8
0
 10
2756.033737276985903
 20
150.0990569077011969
 30
0.0
 40
0.0637857003711967
 50
334.1886991345118076
 51
17.9680000420075494
  0
ARC
  5
39AD4
  8
0
 10
2756.037427209605994
 20
150.0961946982750135
 30
0.0
 40
0.059225615119055
 50
315.6934348479164214
 51
335.1271597679433967
  0
LINE
  5
39AD5
  8
0
 10
2756.0833058393509418
 20
150.0725827472298022
 30
0.0
 11
2756.085716894071993
 21
150.1353828815842917
 31
0.0
  0
LINE
  5
39AD6
  8
0
 10
2755.9733451751021676
 20
150.0719133135883965
 30
0.0
 11
2755.9708591806688673
 21
150.1354979376231995
 31
0.0
  0
ARC
  5
39AD7
  8
0
 10
2756.0309141939919755
 20
150.1148066950530051
 30
0.0
 40
0.0647741296937043
 50
339.8302370913056052
 51
359.5117821610048168
  0
ARC
  5
39AD8
  8
0
 10
2756.0324450766661357
 20
150.1142443569933107
 30
0.0
 40
0.0631432324397103
 50
323.9192294833950996
 51
339.8302370913041273
  0
ARC
  5
39AD9
  8
0
 10
2756.0256905186670338
 20
150.1148066950530051
 30
0.0
 40
0.0647741296937043
 50
180.488217838995098
 51
200.1697629086943948
  0
ARC
  5
39ADA
  8
0
 10
2756.024159635993783
 20
150.1142443569933107
 30
0.0
 40
0.0631432324397103
 50
200.1697629086959012
 51
216.0807705166047867
  0
ARC
  5
39ADB
  8
0
 10
2756.475804217653149
 20
150.3078926074940114
 30
0.0
 40
0.0205878218031923
 50
341.5248661542440232
 51
43.0995666664697197
  0
ARC
  5
39ADC
  8
0
 10
2756.4727864065089307
 20
150.3050686325831009
 30
0.0
 40
0.0247208616527655
 50
43.0995666664697197
 51
114.6391176392756961
  0
ARC
  5
39ADD
  8
0
 10
2756.4718563995220393
 20
150.3070962854073116
 30
0.0
 40
0.0224901019231741
 50
114.6391176392756961
 51
190.0214526449616983
  0
ARC
  5
39ADE
  8
0
 10
2756.4714575394668827
 20
150.3087748992348907
 30
0.0
 40
0.0224555890709843
 50
194.4205315802103087
 51
243.8598111262149075
  0
ARC
  5
39ADF
  8
0
 10
2756.4727357430620032
 20
150.3110679663149938
 30
0.0
 40
0.0250776306466944
 50
243.5463136136854132
 51
310.5818351283879224
  0
ARC
  5
39AE0
  8
0
 10
2756.4741944602387775
 20
150.3087896237489076
 30
0.0
 40
0.0224014630264246
 50
311.5391556660542847
 51
340.653522391037086
  0
ARC
  5
39AE1
  8
0
 10
2756.4760014862208664
 20
150.3367341227209124
 30
0.0
 40
0.0665852676443243
 50
42.1024273191789575
 51
80.6624827139162051
  0
ARC
  5
39AE2
  8
0
 10
2756.4725331227341485
 20
150.3309049988475863
 30
0.0
 40
0.0729419529260173
 50
78.7167190331258979
 51
131.3706858814242935
  0
ARC
  5
39AE3
  8
0
 10
2756.4665827417870787
 20
150.3389416276766894
 30
0.0
 40
0.0629837812638812
 50
132.1404656548654941
 51
191.0592527555122899
  0
ARC
  5
39AE4
  8
0
 10
2756.4673126664520169
 20
150.3387136007893901
 30
0.0
 40
0.063657449313394
 50
190.7317992410528973
 51
224.0549593480830026
  0
ARC
  5
39AE5
  8
0
 10
2756.4726850605529762
 20
150.3056987720219979
 30
0.0
 40
0.0581493610480463
 50
89.9042689955946912
 51
131.6498683314696052
  0
ARC
  5
39AE6
  8
0
 10
2756.4661949507799363
 20
150.3129959562527915
 30
0.0
 40
0.0483835829140168
 50
131.6498683314684968
 51
184.733309710977494
  0
ARC
  5
39AE7
  8
0
 10
2756.4651333444248849
 20
150.312908054941289
 30
0.0
 40
0.0473183436475459
 50
184.733309710977494
 51
202.9602641888363905
  0
ARC
  5
39AE8
  8
0
 10
2756.4709743142630032
 20
150.315382620237699
 30
0.0
 40
0.0536618759487578
 50
202.9602641888363905
 51
260.285371862797092
  0
ARC
  5
39AE9
  8
0
 10
2756.4730170439338508
 20
150.3177034388887989
 30
0.0
 40
0.0563174646444759
 50
258.6351499278879942
 51
310.6170612285300194
  0
ARC
  5
39AEA
  8
0
 10
2756.4789966577000087
 20
150.3128894280671091
 30
0.0
 40
0.0487907628028025
 50
308.966839293641101
 51
11.8645409995072608
  0
ARC
  5
39AEB
  8
0
 10
2756.4760397486170405
 20
150.3111054851960944
 30
0.0
 40
0.0520637141045048
 50
13.1168869692577292
 51
72.5288142996386256
  0
ARC
  5
39AEC
  8
0
 10
2756.4727620081239365
 20
150.304278499984008
 30
0.0
 40
0.0595695553480463
 50
71.4929703871795112
 51
89.9805618304648078
  0
ARC
  5
39AED
  8
0
 10
2756.4721209345339048
 20
150.334380303821689
 30
0.0
 40
0.0710477188571738
 50
19.9806382166612693
 51
41.4126220178320068
  0
ARC
  5
39AEE
  8
0
 10
2756.4782173542621422
 20
150.3389805110797965
 30
0.0
 40
0.0637857003711967
 50
334.1886991345118076
 51
17.9680000420075494
  0
ARC
  5
39AEF
  8
0
 10
2756.4819072868817784
 20
150.3361183016536984
 30
0.0
 40
0.059225615119055
 50
315.6934348479164214
 51
335.1271597679433967
  0
LINE
  5
39AF0
  8
0
 10
2756.5277859166258168
 20
150.3125063506084871
 30
0.0
 11
2756.5301969713468679
 21
150.375306484963005
 31
0.0
  0
LINE
  5
39AF1
  8
0
 10
2756.4178252523770425
 20
150.3118369169671098
 30
0.0
 11
2756.4153392579451065
 21
150.3754215410019128
 31
0.0
  0
ARC
  5
39AF2
  8
0
 10
2756.4753942712682147
 20
150.35473029843169
 30
0.0
 40
0.0647741296937043
 50
339.8302370913056052
 51
359.5117821610048168
  0
ARC
  5
39AF3
  8
0
 10
2756.4769251539410106
 20
150.3541679603719956
 30
0.0
 40
0.0631432324397103
 50
323.9192294833950996
 51
339.8302370913041273
  0
ARC
  5
39AF4
  8
0
 10
2756.4701705959428182
 20
150.35473029843169
 30
0.0
 40
0.0647741296937043
 50
180.488217838995098
 51
200.1697629086943948
  0
ARC
  5
39AF5
  8
0
 10
2756.4686397132700222
 20
150.3541679603719956
 30
0.0
 40
0.0631432324397103
 50
200.1697629086959012
 51
216.0807705166047867
  0
ARC
  5
39AF6
  8
0
 10
2755.5845676488811478
 20
152.6140338093526907
 30
0.0
 40
0.0226250013429237
 50
278.6844014280812871
 51
12.7528255844507008
  0
ARC
  5
39AF7
  8
0
 10
2755.5871332101842199
 20
152.6146144696087958
 30
0.0
 40
0.0199945505962036
 50
12.7528255844507008
 51
66.1083003659118589
  0
ARC
  5
39AF8
  8
0
 10
2755.5839924506508396
 20
152.6109337197594016
 30
0.0
 40
0.0246706201330127
 50
62.8995830274909267
 51
144.5581245242331079
  0
ARC
  5
39AF9
  8
0
 10
2755.581266595922898
 20
152.6132114747441051
 30
0.0
 40
0.021130827640053
 50
145.3039017017067067
 51
226.3781351273445068
  0
ARC
  5
39AFA
  8
0
 10
2755.5834485111417962
 20
152.6156294052121893
 30
0.0
 40
0.0243866436413685
 50
226.5863292962866069
 51
280.7180309925421966
  0
ARC
  5
39AFB
  8
0
 10
2755.5905726969299394
 20
152.6193866307258986
 30
0.0
 40
0.0680595270207456
 50
347.397943123225275
 51
66.1477112897493242
  0
ARC
  5
39AFC
  8
0
 10
2755.5853661553737766
 20
152.6076109381610877
 30
0.0
 40
0.0809348914952763
 50
66.1477112897493242
 51
141.3051775397213135
  0
ARC
  5
39AFD
  8
0
 10
2755.5769385159010199
 20
152.6177363491325991
 30
0.0
 40
0.0680780804456562
 50
143.5225757703555871
 51
231.9491350495860047
  0
ARC
  5
39AFE
  8
0
 10
2755.5829243912630773
 20
152.624987607500799
 30
0.0
 40
0.0774780284916132
 50
231.7684951790587888
 51
320.8876752239607981
  0
ARC
  5
39AFF
  8
0
 10
2755.5866805703990394
 20
152.6214107617319939
 30
0.0
 40
0.0723082801211352
 50
321.2091896383313951
 51
346.5055343042250229
  0
ARC
  5
39B00
  8
0
 10
2755.5849964042149622
 20
152.6475447378925026
 30
0.0
 40
0.082422262180375
 50
332.0854326158539038
 51
14.7512545475713104
  0
ARC
  5
39B01
  8
0
 10
2755.6018900436638432
 20
152.6519928575245899
 30
0.0
 40
0.0649528368302693
 50
14.7512545475728896
 51
54.7726282234491819
  0
ARC
  5
39B02
  8
0
 10
2755.5809631615811668
 20
152.622357178371999
 30
0.0
 40
0.1012324161073921
 50
54.7726282234491819
 51
95.4061680716717433
  0
ARC
  5
39B03
  8
0
 10
2755.5788785972740698
 20
152.6443842553082959
 30
0.0
 40
0.0791069211590559
 50
95.4061680716717433
 51
159.8582827268814981
  0
ARC
  5
39B04
  8
0
 10
2755.5776551417279734
 20
152.6448329868256906
 30
0.0
 40
0.0778037698062246
 50
159.8582827268830044
 51
200.7617408972541
  0
ARC
  5
39B05
  8
0
 10
2755.6799982852689936
 20
152.6836313194094998
 30
0.0
 40
0.1872543506235908
 50
200.7617408972541
 51
204.8407102085338067
  0
LINE
  5
39B06
  8
0
 10
2755.6585642834938881
 20
152.6163463388506898
 30
0.0
 11
2755.6617902818620678
 21
152.6771092361651938
 31
0.0
  0
LINE
  5
39B07
  8
0
 10
2755.5088856872262113
 20
152.6195904113112931
 30
0.0
 11
2755.509160983549009
 21
152.6817655248397898
 31
0.0
  0
ARC
  5
39B08
  8
0
 10
2756.0285748257629166
 20
152.3795718301047941
 30
0.0
 40
0.0226250013429237
 50
278.6844014280812871
 51
12.7528255844507008
  0
ARC
  5
39B09
  8
0
 10
2756.0311403870659888
 20
152.380152490360814
 30
0.0
 40
0.0199945505962036
 50
12.7528255844507008
 51
66.1083003659118589
  0
ARC
  5
39B0A
  8
0
 10
2756.0279996275321537
 20
152.3764717405113913
 30
0.0
 40
0.0246706201330127
 50
62.8995830274909267
 51
144.5581245242331079
  0
ARC
  5
39B0B
  8
0
 10
2756.0252737728051216
 20
152.3787494954962085
 30
0.0
 40
0.021130827640053
 50
145.3039017017067067
 51
226.3781351273445068
  0
ARC
  5
39B0C
  8
0
 10
2756.0274556880222008
 20
152.3811674259642075
 30
0.0
 40
0.0243866436413685
 50
226.5863292962866069
 51
280.7180309925421966
  0
ARC
  5
39B0D
  8
0
 10
2756.0345798738107987
 20
152.3849246514778883
 30
0.0
 40
0.0680595270207456
 50
347.397943123225275
 51
66.1477112897493242
  0
ARC
  5
39B0E
  8
0
 10
2756.0293733322560001
 20
152.3731489589131911
 30
0.0
 40
0.0809348914952763
 50
66.1477112897493242
 51
141.3051775397213135
  0
ARC
  5
39B0F
  8
0
 10
2756.0209456927818792
 20
152.3832743698845889
 30
0.0
 40
0.0680780804456562
 50
143.5225757703555871
 51
231.9491350495860047
  0
ARC
  5
39B10
  8
0
 10
2756.0269315681439366
 20
152.3905256282529024
 30
0.0
 40
0.0774780284916132
 50
231.7684951790587888
 51
320.8876752239607981
  0
ARC
  5
39B11
  8
0
 10
2756.0306877472798988
 20
152.3869487824840121
 30
0.0
 40
0.0723082801211352
 50
321.2091896383313951
 51
346.5055343042250229
  0
ARC
  5
39B12
  8
0
 10
2756.0290035810971858
 20
152.4130827586444923
 30
0.0
 40
0.082422262180375
 50
332.0854326158539038
 51
14.7512545475713104
  0
ARC
  5
39B13
  8
0
 10
2756.0458972205451573
 20
152.4175308782766081
 30
0.0
 40
0.0649528368302693
 50
14.7512545475728896
 51
54.7726282234491819
  0
ARC
  5
39B14
  8
0
 10
2756.0249703384620261
 20
152.3878951991241024
 30
0.0
 40
0.1012324161073921
 50
54.7726282234491819
 51
95.4061680716717433
  0
ARC
  5
39B15
  8
0
 10
2756.0228857741549291
 20
152.4099222760603141
 30
0.0
 40
0.0791069211590559
 50
95.4061680716717433
 51
159.8582827268814981
  0
ARC
  5
39B16
  8
0
 10
2756.0216623186079232
 20
152.4103710075777087
 30
0.0
 40
0.0778037698062246
 50
159.8582827268830044
 51
200.7617408972541
  0
ARC
  5
39B17
  8
0
 10
2756.124005462149853
 20
152.4491693401614896
 30
0.0
 40
0.1872543506235908
 50
200.7617408972541
 51
204.8407102085338067
  0
LINE
  5
39B18
  8
0
 10
2756.1025714603761116
 20
152.3818843596027079
 30
0.0
 11
2756.1057974587438366
 21
152.4426472569172972
 31
0.0
  0
LINE
  5
39B19
  8
0
 10
2755.9528928641079801
 20
152.3851284320633965
 30
0.0
 11
2755.9531681604298683
 21
152.447303545591808
 31
0.0
  0
ARC
  5
39B1A
  8
0
 10
2756.4744005667907913
 20
152.1567714901505042
 30
0.0
 40
0.0226250013429237
 50
278.6844014280812871
 51
12.7528255844507008
  0
ARC
  5
39B1B
  8
0
 10
2756.4769661280938635
 20
152.1573521504064956
 30
0.0
 40
0.0199945505962036
 50
12.7528255844507008
 51
66.1083003659118589
  0
ARC
  5
39B1C
  8
0
 10
2756.4738253685600284
 20
152.1536714005571014
 30
0.0
 40
0.0246706201330127
 50
62.8995830274909267
 51
144.5581245242331079
  0
ARC
  5
39B1D
  8
0
 10
2756.4710995138329963
 20
152.1559491555418901
 30
0.0
 40
0.021130827640053
 50
145.3039017017067067
 51
226.3781351273445068
  0
ARC
  5
39B1E
  8
0
 10
2756.4732814290500755
 20
152.1583670860098891
 30
0.0
 40
0.0243866436413685
 50
226.5863292962866069
 51
280.7180309925421966
  0
ARC
  5
39B1F
  8
0
 10
2756.4804056148391282
 20
152.1621243115235984
 30
0.0
 40
0.0680595270207456
 50
347.397943123225275
 51
66.1477112897493242
  0
ARC
  5
39B20
  8
0
 10
2756.4751990732829654
 20
152.1503486189589012
 30
0.0
 40
0.0809348914952763
 50
66.1477112897493242
 51
141.3051775397213135
  0
ARC
  5
39B21
  8
0
 10
2756.4667714338102087
 20
152.1604740299304126
 30
0.0
 40
0.0680780804456562
 50
143.5225757703555871
 51
231.9491350495860047
  0
ARC
  5
39B22
  8
0
 10
2756.4727573091718114
 20
152.1677252882986124
 30
0.0
 40
0.0774780284916132
 50
231.7684951790587888
 51
320.8876752239607981
  0
ARC
  5
39B23
  8
0
 10
2756.4765134883077735
 20
152.1641484425298074
 30
0.0
 40
0.0723082801211352
 50
321.2091896383313951
 51
346.5055343042250229
  0
ARC
  5
39B24
  8
0
 10
2756.4748293221250606
 20
152.1902824186902876
 30
0.0
 40
0.082422262180375
 50
332.0854326158539038
 51
14.7512545475713104
  0
ARC
  5
39B25
  8
0
 10
2756.4917229615730321
 20
152.1947305383224034
 30
0.0
 40
0.0649528368302693
 50
14.7512545475728896
 51
54.7726282234491819
  0
ARC
  5
39B26
  8
0
 10
2756.4707960794899009
 20
152.1650948591698125
 30
0.0
 40
0.1012324161073921
 50
54.7726282234491819
 51
95.4061680716717433
  0
ARC
  5
39B27
  8
0
 10
2756.4687115151828039
 20
152.1871219361061094
 30
0.0
 40
0.0791069211590559
 50
95.4061680716717433
 51
159.8582827268814981
  0
ARC
  5
39B28
  8
0
 10
2756.467488059635798
 20
152.1875706676233904
 30
0.0
 40
0.0778037698062246
 50
159.8582827268830044
 51
200.7617408972541
  0
ARC
  5
39B29
  8
0
 10
2756.5698312031781825
 20
152.2263690002073133
 30
0.0
 40
0.1872543506235908
 50
200.7617408972541
 51
204.8407102085338067
  0
LINE
  5
39B2A
  8
0
 10
2756.5483972014039864
 20
152.1590840196485033
 30
0.0
 11
2756.5516231997708019
 21
152.2198469169630073
 31
0.0
  0
LINE
  5
39B2B
  8
0
 10
2756.3987186051349454
 20
152.1623280921089929
 30
0.0
 11
2756.3989939014581978
 21
152.2245032056376033
 31
0.0
  0
ARC
  5
39B2C
  8
0
 10
2756.919238220662919
 20
151.4736153423314136
 30
0.0
 40
0.0226250013429237
 50
278.6844014280812871
 51
12.7528255844507008
  0
ARC
  5
39B2D
  8
0
 10
2756.9218037819659912
 20
151.474196002587405
 30
0.0
 40
0.0199945505962036
 50
12.7528255844507008
 51
66.1083003659118589
  0
ARC
  5
39B2E
  8
0
 10
2756.9186630224321561
 20
151.4705152527380108
 30
0.0
 40
0.0246706201330127
 50
62.8995830274909267
 51
144.5581245242331079
  0
ARC
  5
39B2F
  8
0
 10
2756.9159371677042145
 20
151.4727930077227995
 30
0.0
 40
0.021130827640053
 50
145.3039017017067067
 51
226.3781351273445068
  0
ARC
  5
39B30
  8
0
 10
2756.9181190829231127
 20
151.4752109381907985
 30
0.0
 40
0.0243866436413685
 50
226.5863292962866069
 51
280.7180309925421966
  0
ARC
  5
39B31
  8
0
 10
2756.9252432687108012
 20
151.4789681637045078
 30
0.0
 40
0.0680595270207456
 50
347.397943123225275
 51
66.1477112897493242
  0
ARC
  5
39B32
  8
0
 10
2756.9200367271560026
 20
151.4671924711398106
 30
0.0
 40
0.0809348914952763
 50
66.1477112897493242
 51
141.3051775397213135
  0
ARC
  5
39B33
  8
0
 10
2756.9116090876827911
 20
151.4773178821112936
 30
0.0
 40
0.0680780804456562
 50
143.5225757703555871
 51
231.9491350495860047
  0
ARC
  5
39B34
  8
0
 10
2756.9175949630439391
 20
151.4845691404794934
 30
0.0
 40
0.0774780284916132
 50
231.7684951790587888
 51
320.8876752239607981
  0
ARC
  5
39B35
  8
0
 10
2756.9213511421799012
 20
151.4809922947106884
 30
0.0
 40
0.0723082801211352
 50
321.2091896383313951
 51
346.5055343042250229
  0
ARC
  5
39B36
  8
0
 10
2756.9196669759971883
 20
151.5071262708711117
 30
0.0
 40
0.082422262180375
 50
332.0854326158539038
 51
14.7512545475713104
  0
ARC
  5
39B37
  8
0
 10
2756.9365606154451598
 20
151.5115743905033128
 30
0.0
 40
0.0649528368302693
 50
14.7512545475728896
 51
54.7726282234491819
  0
ARC
  5
39B38
  8
0
 10
2756.9156337333620286
 20
151.4819387113506934
 30
0.0
 40
0.1012324161073921
 50
54.7726282234491819
 51
95.4061680716717433
  0
ARC
  5
39B39
  8
0
 10
2756.9135491690549316
 20
151.5039657882869903
 30
0.0
 40
0.0791069211590559
 50
95.4061680716717433
 51
194.4177652316438127
  0
ARC
  5
39B3A
  8
0
 10
2756.9123257135088352
 20
151.5044145198042997
 30
0.0
 40
0.0778037698062246
 50
159.8582827268830044
 51
200.7617408972541
  0
ARC
  5
39B3B
  8
0
 10
2757.0146688570498554
 20
151.5432128523881943
 30
0.0
 40
0.1872543506235908
 50
200.7617408972541
 51
204.8407102085338067
  0
LINE
  5
39B3C
  8
0
 10
2756.9932348552761141
 20
151.4759278718294127
 30
0.0
 11
2756.9964608536438391
 21
151.5366907691438882
 31
0.0
  0
LINE
  5
39B3D
  8
0
 10
2756.8435562590079826
 20
151.4791719442899876
 30
0.0
 11
2756.8438315553298708
 21
151.5413470578185127
 31
0.0
  0
ARC
  5
39B3E
  8
0
 10
2756.918398777710081
 20
151.0080924319308053
 30
0.0
 40
0.0226250013429237
 50
278.6844014280812871
 51
12.7528255844507008
  0
ARC
  5
39B3F
  8
0
 10
2756.9209643390131532
 20
151.0086730921867968
 30
0.0
 40
0.0199945505962036
 50
12.7528255844507008
 51
66.1083003659118589
  0
ARC
  5
39B40
  8
0
 10
2756.9178235794797729
 20
151.0049923423374025
 30
0.0
 40
0.0246706201330127
 50
62.8995830274909267
 51
144.5581245242331079
  0
ARC
  5
39B41
  8
0
 10
2756.9150977247518313
 20
151.0072700973221913
 30
0.0
 40
0.021130827640053
 50
145.3039017017067067
 51
226.3781351273445068
  0
ARC
  5
39B42
  8
0
 10
2756.9172796399689105
 20
151.0096880277901903
 30
0.0
 40
0.0243866436413685
 50
226.5863292962866069
 51
280.7180309925421966
  0
ARC
  5
39B43
  8
0
 10
2756.9244038257579632
 20
151.0134452533038996
 30
0.0
 40
0.0680595270207456
 50
347.397943123225275
 51
66.1477112897493242
  0
ARC
  5
39B44
  8
0
 10
2756.9191972842031646
 20
151.0016695607390886
 30
0.0
 40
0.0809348914952763
 50
66.1477112897493242
 51
141.3051775397213135
  0
ARC
  5
39B45
  8
0
 10
2756.9107696447290436
 20
151.0117949717107138
 30
0.0
 40
0.0680780804456562
 50
143.5225757703555871
 51
231.9491350495860047
  0
ARC
  5
39B46
  8
0
 10
2756.9167555200911011
 20
151.0190462300787999
 30
0.0
 40
0.0774780284916132
 50
231.7684951790587888
 51
320.8876752239607981
  0
ARC
  5
39B47
  8
0
 10
2756.9205116992270632
 20
151.0154693843101086
 30
0.0
 40
0.0723082801211352
 50
321.2091896383313951
 51
346.5055343042250229
  0
ARC
  5
39B48
  8
0
 10
2756.9188275330438955
 20
151.0416033604705035
 30
0.0
 40
0.082422262180375
 50
332.0854326158539038
 51
14.7512545475713104
  0
ARC
  5
39B49
  8
0
 10
2756.935721172491867
 20
151.0460514801027045
 30
0.0
 40
0.0649528368302693
 50
14.7512545475728896
 51
54.7726282234491819
  0
ARC
  5
39B4A
  8
0
 10
2756.9147942904091906
 20
151.0164158009501136
 30
0.0
 40
0.1012324161073921
 50
54.7726282234491819
 51
95.4061680716717433
  0
ARC
  5
39B4B
  8
0
 10
2756.9127097261020936
 20
151.0384428778864105
 30
0.0
 40
0.0791069211590559
 50
95.4061680716717433
 51
159.8582827268814981
  0
ARC
  5
39B4C
  8
0
 10
2756.9114862705559972
 20
151.0388916094036915
 30
0.0
 40
0.0778037698062246
 50
159.8582827268830044
 51
200.7617408972541
  0
ARC
  5
39B4D
  8
0
 10
2757.0138294140979269
 20
151.0776899419875008
 30
0.0
 40
0.1872543506235908
 50
200.7617408972541
 51
204.8407102085338067
  0
LINE
  5
39B4E
  8
0
 10
2756.9923954123228214
 20
151.0104049614288044
 30
0.0
 11
2756.9956214106910011
 21
151.0711678587433084
 31
0.0
  0
LINE
  5
39B4F
  8
0
 10
2756.8427168160551446
 20
151.0136490338892941
 30
0.0
 11
2756.8429921123770328
 21
151.0758241474177908
 31
0.0
  0
ARC
  5
39B50
  8
0
 10
2756.9175767516148881
 20
150.5545123198160979
 30
0.0
 40
0.0226250013429237
 50
278.6844014280812871
 51
12.7528255844507008
  0
ARC
  5
39B51
  8
0
 10
2756.9201423129179602
 20
150.5550929800720894
 30
0.0
 40
0.0199945505962036
 50
12.7528255844507008
 51
66.1083003659118589
  0
ARC
  5
39B52
  8
0
 10
2756.9170015533850346
 20
150.5514122302226951
 30
0.0
 40
0.0246706201330127
 50
62.8995830274909267
 51
144.5581245242331079
  0
ARC
  5
39B53
  8
0
 10
2756.914275698657093
 20
150.5536899852075123
 30
0.0
 40
0.021130827640053
 50
145.3039017017067067
 51
226.3781351273445068
  0
ARC
  5
39B54
  8
0
 10
2756.9164576138750817
 20
150.5561079156755113
 30
0.0
 40
0.0243866436413685
 50
226.5863292962866069
 51
280.7180309925421966
  0
ARC
  5
39B55
  8
0
 10
2756.923581799663225
 20
150.5598651411893059
 30
0.0
 40
0.0680595270207456
 50
347.397943123225275
 51
66.1477112897493242
  0
ARC
  5
39B56
  8
0
 10
2756.9183752581079716
 20
150.5480894486244949
 30
0.0
 40
0.0809348914952763
 50
66.1477112897493242
 51
141.3051775397213135
  0
ARC
  5
39B57
  8
0
 10
2756.9099476186338507
 20
150.5582148595960064
 30
0.0
 40
0.0680780804456562
 50
143.5225757703555871
 51
231.9491350495860047
  0
ARC
  5
39B58
  8
0
 10
2756.9159334939959081
 20
150.5654661179642062
 30
0.0
 40
0.0774780284916132
 50
231.7684951790587888
 51
320.8876752239607981
  0
ARC
  5
39B59
  8
0
 10
2756.9196896731318702
 20
150.5618892721954012
 30
0.0
 40
0.0723082801211352
 50
321.2091896383313951
 51
346.5055343042250229
  0
ARC
  5
39B5A
  8
0
 10
2756.9180055069491573
 20
150.5880232483557961
 30
0.0
 40
0.082422262180375
 50
332.0854326158539038
 51
14.7512545475713104
  0
ARC
  5
39B5B
  8
0
 10
2756.9348991463971288
 20
150.5924713679879972
 30
0.0
 40
0.0649528368302693
 50
14.7512545475728896
 51
54.7726282234491819
  0
ARC
  5
39B5C
  8
0
 10
2756.9139722643139976
 20
150.5628356888354062
 30
0.0
 40
0.1012324161073921
 50
54.7726282234491819
 51
95.4061680716717433
  0
ARC
  5
39B5D
  8
0
 10
2756.9118877000069006
 20
150.5848627657717032
 30
0.0
 40
0.0791069211590559
 50
95.4061680716717433
 51
159.8582827268814981
  0
ARC
  5
39B5E
  8
0
 10
2756.9106642444608042
 20
150.5853114972890126
 30
0.0
 40
0.0778037698062246
 50
159.8582827268830044
 51
200.7617408972541
  0
ARC
  5
39B5F
  8
0
 10
2757.0130073880018244
 20
150.6241098298729071
 30
0.0
 40
0.1872543506235908
 50
200.7617408972541
 51
204.8407102085338067
  0
LINE
  5
39B60
  8
0
 10
2756.9915733862280831
 20
150.556824849314097
 30
0.0
 11
2756.9947993845958081
 21
150.6175877466286011
 31
0.0
  0
LINE
  5
39B61
  8
0
 10
2756.8418947899599516
 20
150.5600689217745867
 30
0.0
 11
2756.842170086283204
 21
150.6222440353031118
 31
0.0
  0
ARC
  5
39B62
  8
0
 10
2756.4737346438159875
 20
149.868619226344407
 30
0.0
 40
0.0226250013429237
 50
278.6844014280812871
 51
12.7528255844507008
  0
ARC
  5
39B63
  8
0
 10
2756.4763002051190597
 20
149.8691998866003985
 30
0.0
 40
0.0199945505962036
 50
12.7528255844507008
 51
66.1083003659118589
  0
ARC
  5
39B64
  8
0
 10
2756.4731594455852246
 20
149.8655191367508905
 30
0.0
 40
0.0246706201330127
 50
62.8995830274909267
 51
144.5581245242331079
  0
ARC
  5
39B65
  8
0
 10
2756.4704335908581925
 20
149.8677968917357077
 30
0.0
 40
0.021130827640053
 50
145.3039017017067067
 51
226.3781351273445068
  0
ARC
  5
39B66
  8
0
 10
2756.4726155060748169
 20
149.870214822203792
 30
0.0
 40
0.0243866436413685
 50
226.5863292962866069
 51
280.7180309925421966
  0
ARC
  5
39B67
  8
0
 10
2756.4797396918638697
 20
149.8739720477175013
 30
0.0
 40
0.0680595270207456
 50
347.397943123225275
 51
66.1477112897493242
  0
ARC
  5
39B68
  8
0
 10
2756.4745331503081616
 20
149.8621963551526903
 30
0.0
 40
0.0809348914952763
 50
66.1477112897493242
 51
141.3051775397213135
  0
ARC
  5
39B69
  8
0
 10
2756.4661055108349501
 20
149.8723217661242018
 30
0.0
 40
0.0680780804456562
 50
143.5225757703555871
 51
231.9491350495860047
  0
ARC
  5
39B6A
  8
0
 10
2756.4720913861970075
 20
149.8795730244924016
 30
0.0
 40
0.0774780284916132
 50
231.7684951790587888
 51
320.8876752239607981
  0
ARC
  5
39B6B
  8
0
 10
2756.4758475653329697
 20
149.8759961787237103
 30
0.0
 40
0.0723082801211352
 50
321.2091896383313951
 51
346.5055343042250229
  0
ARC
  5
39B6C
  8
0
 10
2756.474163399149802
 20
149.9021301548841052
 30
0.0
 40
0.082422262180375
 50
332.0854326158539038
 51
14.7512545475713104
  0
ARC
  5
39B6D
  8
0
 10
2756.491057038596864
 20
149.9065782745161926
 30
0.0
 40
0.0649528368302693
 50
14.7512545475728896
 51
54.7726282234491819
  0
ARC
  5
39B6E
  8
0
 10
2756.470130156515097
 20
149.8769425953636016
 30
0.0
 40
0.1012324161073921
 50
54.7726282234491819
 51
95.4061680716717433
  0
ARC
  5
39B6F
  8
0
 10
2756.468045592208
 20
149.8989696722998985
 30
0.0
 40
0.0791069211590559
 50
95.4061680716717433
 51
159.8582827268814981
  0
ARC
  5
39B70
  8
0
 10
2756.4668221366609941
 20
149.8994184038172932
 30
0.0
 40
0.0778037698062246
 50
159.8582827268830044
 51
200.7617408972541
  0
ARC
  5
39B71
  8
0
 10
2756.5691652802029239
 20
149.9382167364011025
 30
0.0
 40
0.1872543506235908
 50
200.7617408972541
 51
204.8407102085338067
  0
LINE
  5
39B72
  8
0
 10
2756.5477312784278183
 20
149.8709317558422924
 30
0.0
 11
2756.550957276795998
 21
149.9316946531567964
 31
0.0
  0
LINE
  5
39B73
  8
0
 10
2756.3980526821601416
 20
149.8741758283028958
 30
0.0
 11
2756.3983279784820297
 21
149.9363509418313924
 31
0.0
  0
ARC
  5
39B74
  8
0
 10
2756.0294274505881731
 20
149.6358005242817057
 30
0.0
 40
0.0226250013429237
 50
278.6844014280812871
 51
12.7528255844507008
  0
ARC
  5
39B75
  8
0
 10
2756.0319930118907905
 20
149.6363811845378109
 30
0.0
 40
0.0199945505962036
 50
12.7528255844507008
 51
66.1083003659118589
  0
ARC
  5
39B76
  8
0
 10
2756.0288522523569554
 20
149.6327004346883029
 30
0.0
 40
0.0246706201330127
 50
62.8995830274909267
 51
144.5581245242331079
  0
ARC
  5
39B77
  8
0
 10
2756.0261263976290138
 20
149.6349781896730917
 30
0.0
 40
0.021130827640053
 50
145.3039017017067067
 51
226.3781351273445068
  0
ARC
  5
39B78
  8
0
 10
2756.0283083128470025
 20
149.6373961201410907
 30
0.0
 40
0.0243866436413685
 50
226.5863292962866069
 51
280.7180309925421966
  0
ARC
  5
39B79
  8
0
 10
2756.0354324986360552
 20
149.6411533456549137
 30
0.0
 40
0.0680595270207456
 50
347.397943123225275
 51
66.1477112897493242
  0
ARC
  5
39B7A
  8
0
 10
2756.0302259570798924
 20
149.6293776530901027
 30
0.0
 40
0.0809348914952763
 50
66.1477112897493242
 51
141.3051775397213135
  0
ARC
  5
39B7B
  8
0
 10
2756.0217983176071357
 20
149.6395030640616142
 30
0.0
 40
0.0680780804456562
 50
143.5225757703555871
 51
231.9491350495860047
  0
ARC
  5
39B7C
  8
0
 10
2756.0277841929691931
 20
149.646754322429814
 30
0.0
 40
0.0774780284916132
 50
231.7684951790587888
 51
320.8876752239607981
  0
ARC
  5
39B7D
  8
0
 10
2756.0315403721051553
 20
149.643177476661009
 30
0.0
 40
0.0723082801211352
 50
321.2091896383313951
 51
346.5055343042250229
  0
ARC
  5
39B7E
  8
0
 10
2756.0298562059219876
 20
149.6693114528214892
 30
0.0
 40
0.082422262180375
 50
332.0854326158539038
 51
14.7512545475713104
  0
ARC
  5
39B7F
  8
0
 10
2756.0467498453690496
 20
149.673759572453605
 30
0.0
 40
0.0649528368302693
 50
14.7512545475728896
 51
54.7726282234491819
  0
ARC
  5
39B80
  8
0
 10
2756.0258229632868279
 20
149.644123893301014
 30
0.0
 40
0.1012324161073921
 50
54.7726282234491819
 51
95.4061680716717433
  0
ARC
  5
39B81
  8
0
 10
2756.0237383989801856
 20
149.666150970237311
 30
0.0
 40
0.0791069211590559
 50
95.4061680716717433
 51
159.8582827268814981
  0
ARC
  5
39B82
  8
0
 10
2756.0225149434331797
 20
149.6665997017547056
 30
0.0
 40
0.0778037698062246
 50
159.8582827268830044
 51
200.7617408972541
  0
ARC
  5
39B83
  8
0
 10
2756.1248580869751095
 20
149.7053980343384865
 30
0.0
 40
0.1872543506235908
 50
200.7617408972541
 51
204.8407102085338067
  0
LINE
  5
39B84
  8
0
 10
2756.1034240852009134
 20
149.6381130537797048
 30
0.0
 11
2756.1066500835681836
 21
149.6988759510942089
 31
0.0
  0
LINE
  5
39B85
  8
0
 10
2755.9537454889327819
 20
149.6413571262403082
 30
0.0
 11
2755.9540207852551248
 21
149.7035322397686912
 31
0.0
  0
ARC
  5
39B86
  8
0
 10
2755.5844662572058041
 20
149.4135735073193985
 30
0.0
 40
0.0226250013429237
 50
278.6844014280812871
 51
12.7528255844507008
  0
ARC
  5
39B87
  8
0
 10
2755.5870318185088763
 20
149.4141541675755036
 30
0.0
 40
0.0199945505962036
 50
12.7528255844507008
 51
66.1083003659118589
  0
ARC
  5
39B88
  8
0
 10
2755.5838910589759507
 20
149.4104734177259957
 30
0.0
 40
0.0246706201330127
 50
62.8995830274909267
 51
144.5581245242331079
  0
ARC
  5
39B89
  8
0
 10
2755.5811652042480091
 20
149.4127511727108129
 30
0.0
 40
0.021130827640053
 50
145.3039017017067067
 51
226.3781351273445068
  0
ARC
  5
39B8A
  8
0
 10
2755.5833471194659978
 20
149.4151691031788118
 30
0.0
 40
0.0243866436413685
 50
226.5863292962866069
 51
280.7180309925421966
  0
ARC
  5
39B8B
  8
0
 10
2755.590471305254141
 20
149.4189263286926064
 30
0.0
 40
0.0680595270207456
 50
347.397943123225275
 51
66.1477112897493242
  0
ARC
  5
39B8C
  8
0
 10
2755.5852647636988877
 20
149.4071506361277955
 30
0.0
 40
0.0809348914952763
 50
66.1477112897493242
 51
141.3051775397213135
  0
ARC
  5
39B8D
  8
0
 10
2755.5768371242252215
 20
149.4172760470993069
 30
0.0
 40
0.0680780804456562
 50
143.5225757703555871
 51
231.9491350495860047
  0
ARC
  5
39B8E
  8
0
 10
2755.5828229995881884
 20
149.4245273054675067
 30
0.0
 40
0.0774780284916132
 50
231.7684951790587888
 51
320.8876752239607981
  0
ARC
  5
39B8F
  8
0
 10
2755.5865791787241506
 20
149.4209504596987017
 30
0.0
 40
0.0723082801211352
 50
321.2091896383313951
 51
346.5055343042250229
  0
ARC
  5
39B90
  8
0
 10
2755.5848950125400734
 20
149.4470844358592103
 30
0.0
 40
0.082422262180375
 50
332.0854326158539038
 51
14.7512545475713104
  0
ARC
  5
39B91
  8
0
 10
2755.6017886519880449
 20
149.4515325554912977
 30
0.0
 40
0.0649528368302693
 50
14.7512545475728896
 51
54.7726282234491819
  0
ARC
  5
39B92
  8
0
 10
2755.5808617699049137
 20
149.4218968763387068
 30
0.0
 40
0.1012324161073921
 50
54.7726282234491819
 51
95.4061680716717433
  0
ARC
  5
39B93
  8
0
 10
2755.5787772055978166
 20
149.4439239532750037
 30
0.0
 40
0.0791069211590559
 50
95.4061680716717433
 51
159.8582827268814981
  0
ARC
  5
39B94
  8
0
 10
2755.577553750052175
 20
149.4443726847923983
 30
0.0
 40
0.0778037698062246
 50
159.8582827268830044
 51
200.7617408972541
  0
ARC
  5
39B95
  8
0
 10
2755.6798968935931953
 20
149.4831710173762076
 30
0.0
 40
0.1872543506235908
 50
200.7617408972541
 51
204.8407102085338067
  0
LINE
  5
39B96
  8
0
 10
2755.6584628918189992
 20
149.4158860368173976
 30
0.0
 11
2755.6616888901871789
 21
149.4766489341319016
 31
0.0
  0
LINE
  5
39B97
  8
0
 10
2755.5087842955508677
 20
149.4191301092780009
 30
0.0
 11
2755.5090595918732106
 21
149.4813052228064123
 31
0.0
  0
LINE
  5
39B98
  8
0
 10
2755.511135509244923
 20
152.6002838607084868
 30
0.0
 11
2755.2009969676428227
 21
152.4258924819226877
 31
0.0
  0
LINE
  5
39B99
  8
0
 10
2755.5837717792492185
 20
152.5475142131479913
 30
0.0
 11
2755.5837752506217839
 21
152.2231038011557018
 31
0.0
  0
LINE
  5
39B9A
  8
0
 10
2755.5210226949138814
 20
152.1858023287134927
 30
0.0
 11
2755.1970354219420187
 21
152.3600413385617003
 31
0.0
  0
LINE
  5
39B9B
  8
0
 10
2755.9528473176528678
 20
152.4466988934418055
 30
0.0
 11
2755.6565429637198577
 21
152.6027631513341021
 31
0.0
  0
LINE
  5
39B9C
  8
0
 10
2755.9553368088140815
 20
152.3651057325772058
 30
0.0
 11
2755.6456226553141278
 21
152.1875179564173948
 31
0.0
  0
LINE
  5
39B9D
  8
0
 10
2755.1965409846729926
 20
151.8777027899847951
 30
0.0
 11
2755.5198738310409681
 21
151.7076690691754095
 31
0.0
  0
LINE
  5
39B9E
  8
0
 10
2755.6419712448391692
 20
152.1221253540514056
 30
0.0
 11
2755.9651629798449903
 21
151.9559162369681076
 31
0.0
  0
LINE
  5
39B9F
  8
0
 10
2755.6413735625310437
 20
151.6451153090474975
 30
0.0
 11
2755.9642671209639957
 21
151.4828092693657027
 31
0.0
  0
LINE
  5
39BA0
  8
0
 10
2756.0283428865809583
 20
151.5221820511868032
 30
0.0
 11
2756.0283407727552003
 21
151.8521834196583882
 31
0.0
  0
LINE
  5
39BA1
  8
0
 10
2756.0283396430831999
 20
151.9946417696309027
 30
0.0
 11
2756.0283389021228686
 21
152.3130603824324112
 31
0.0
  0
LINE
  5
39BA2
  8
0
 10
2756.4096532683079204
 20
151.73629833879329
 30
0.0
 11
2756.0873243385090063
 21
151.8944740342485034
 31
0.0
  0
LINE
  5
39BA3
  8
0
 10
2756.4086367555501056
 20
151.2683485900770108
 30
0.0
 11
2756.0870195707771018
 21
151.42247741147699
 31
0.0
  0
LINE
  5
39BA4
  8
0
 10
2755.9636804397869128
 20
151.0199463469053001
 30
0.0
 11
2755.6796542527531528
 21
151.159447755733197
 31
0.0
  0
LINE
  5
39BA5
  8
0
 10
2756.4082727323361723
 20
150.8105249144468871
 30
0.0
 11
2756.0869266284589685
 21
150.960793027558509
 31
0.0
  0
LINE
  5
39BA6
  8
0
 10
2756.8399922764501753
 20
150.617862054351491
 30
0.0
 11
2756.5328381788472143
 21
150.7537804543167965
 31
0.0
  0
LINE
  5
39BA7
  8
0
 10
2756.8472715172119933
 20
150.9949610727690867
 30
0.0
 11
2756.5349859516250035
 21
150.8158939152278037
 31
0.0
  0
LINE
  5
39BA8
  8
0
 10
2756.4730386477290267
 20
151.1661328865172038
 30
0.0
 11
2756.4729133399318926
 21
150.8519815490813869
 31
0.0
  0
LINE
  5
39BA9
  8
0
 10
2756.4160851889928381
 20
151.2056842912770094
 30
0.0
 11
2756.0907208354060458
 21
151.0231848133551011
 31
0.0
  0
LINE
  5
39BAA
  8
0
 10
2756.0283444255728682
 20
151.3797231707368951
 30
0.0
 11
2756.028341955382075
 21
151.0605622107370891
 31
0.0
  0
LINE
  5
39BAB
  8
0
 10
2755.9713194675218801
 20
151.4192988941358067
 30
0.0
 11
2755.6825976348500262
 21
151.2607947698053863
 31
0.0
  0
LINE
  5
39BAC
  8
0
 10
2755.5837735851359867
 20
151.3135654207025027
 30
0.0
 11
2755.5837741695850127
 21
151.6035535004160124
 31
0.0
  0
LINE
  5
39BAD
  8
0
 10
2755.5263858697990145
 20
151.6432263787474142
 30
0.0
 11
2755.2379753792770316
 21
151.4882447203760876
 31
0.0
  0
LINE
  5
39BAE
  8
0
 10
2755.5267417158402168
 20
152.1207245620128106
 30
0.0
 11
2755.2020525689299575
 21
151.9423714765358113
 31
0.0
  0
LINE
  5
39BAF
  8
0
 10
2755.9719138931950511
 20
151.8917689760999963
 30
0.0
 11
2755.6458009969960585
 21
151.7088492731363942
 31
0.0
  0
LINE
  5
39BB0
  8
0
 10
2755.5837756279211135
 20
152.0806438374802951
 30
0.0
 11
2755.5837764789148423
 21
151.7460084762510917
 31
0.0
  0
LINE
  5
39BB1
  8
0
 10
2756.4013201486000071
 20
152.1417455942892047
 30
0.0
 11
2756.09013717709513
 21
151.9595995070133085
 31
0.0
  0
LINE
  5
39BB2
  8
0
 10
2756.4729040481702214
 20
152.0902473987648023
 30
0.0
 11
2756.4729037476390658
 21
151.7752750260216885
 31
0.0
  0
LINE
  5
39BB3
  8
0
 10
2756.8988434805451107
 20
151.9553373502820932
 30
0.0
 11
2756.5341846037399591
 21
151.7412197746498919
 31
0.0
  0
LINE
  5
39BB4
  8
0
 10
2756.846711067580145
 20
152.0341276072520884
 30
0.0
 11
2756.5481714565230504
 21
152.1526744325059042
 31
0.0
  0
LINE
  5
39BB5
  8
0
 10
2756.3974820687508327
 20
152.2215351739131961
 30
0.0
 11
2756.1010815456729688
 21
152.3704200038843055
 31
0.0
  0
LINE
  5
39BB6
  8
0
 10
2756.9494644072301526
 20
151.8679838610885895
 30
0.0
 11
2756.924861590106957
 21
151.5827496667614014
 31
0.0
  0
LINE
  5
39BB7
  8
0
 10
2756.8402878513311407
 20
151.5338101227661127
 30
0.0
 11
2756.5331313436840901
 21
151.6771756006604903
 31
0.0
  0
LINE
  5
39BB8
  8
0
 10
2756.8468189687418999
 20
151.4564165538079124
 30
0.0
 11
2756.5343758177800737
 21
151.2735301286321885
 31
0.0
  0
LINE
  5
39BB9
  8
0
 10
2756.9174026752871214
 20
151.4070913506016041
 30
0.0
 11
2756.9174595563172261
 21
151.1176131251665993
 31
0.0
  0
LINE
  5
39BBA
  8
0
 10
2756.8403162761587737
 20
151.0703281883156137
 30
0.0
 11
2756.5326739668889786
 21
151.2103466556116018
 31
0.0
  0
LINE
  5
39BBB
  8
0
 10
2756.4729290035970735
 20
151.6328168777230019
 30
0.0
 11
2756.4728982460678708
 21
151.3085929958403995
 31
0.0
  0
LINE
  5
39BBC
  8
0
 10
2756.4162285210800292
 20
151.6727991245552971
 30
0.0
 11
2756.0901480942820854
 21
151.4860082858974977
 31
0.0
  0
LINE
  5
39BBD
  8
0
 10
2756.9175270354180611
 20
150.9415720430031058
 30
0.0
 11
2756.9172988649561375
 21
150.6640134324310907
 31
0.0
  0
LINE
  5
39BBE
  8
0
 10
2756.9205193578341095
 20
150.4881239253923866
 30
0.0
 11
2756.929965670078218
 21
150.2038426148754979
 31
0.0
  0
LINE
  5
39BBF
  8
0
 10
2756.9917783972859979
 20
150.6238341138910926
 30
0.0
 11
2757.1287896763337812
 21
150.7014402216285873
 31
0.0
  0
LINE
  5
39BC0
  8
0
 10
2756.8437788688088403
 20
150.5422048132597013
 30
0.0
 11
2756.5346744974572175
 21
150.3682154762439893
 31
0.0
  0
LINE
  5
39BC1
  8
0
 10
2756.4729092840661906
 20
150.7095215196121956
 30
0.0
 11
2756.4729079946678212
 21
150.403845988474103
 31
0.0
  0
LINE
  5
39BC2
  8
0
 10
2756.4161757849428795
 20
150.749135019326701
 30
0.0
 11
2756.0906702157608379
 21
150.5703342065415029
 31
0.0
  0
LINE
  5
39BC3
  8
0
 10
2756.0283417965019908
 20
150.9181038031381092
 30
0.0
 11
2756.0283433048161896
 21
150.6073195039587063
 31
0.0
  0
LINE
  5
39BC4
  8
0
 10
2755.9637155553969023
 20
150.5670935862196131
 30
0.0
 11
2755.680622907264933
 21
150.7028487766615115
 31
0.0
  0
LINE
  5
39BC5
  8
0
 10
2755.9703144223958589
 20
150.5055843346528093
 30
0.0
 11
2755.6466553262662273
 21
150.3353826185064861
 31
0.0
  0
LINE
  5
39BC6
  8
0
 10
2755.6427803721871896
 20
150.2747264008771992
 30
0.0
 11
2755.9644233414128394
 21
150.1243172809899988
 31
0.0
  0
LINE
  5
39BC7
  8
0
 10
2756.0283440324478761
 20
150.4648626996917073
 30
0.0
 11
2756.0283449357839345
 21
150.163922764366788
 31
0.0
  0
LINE
  5
39BC8
  8
0
 10
2756.4150341609911266
 20
150.3023924124850055
 30
0.0
 11
2756.090383394768196
 21
150.1277906522288959
 31
0.0
  0
LINE
  5
39BC9
  8
0
 10
2756.0892291036298047
 20
150.0674851656802105
 30
0.0
 11
2756.3960391999339663
 21
149.9317261136054924
 31
0.0
  0
LINE
  5
39BCA
  8
0
 10
2756.4729077656361369
 20
150.2613860802661918
 30
0.0
 11
2756.4728474185872074
 21
149.9781385367732014
 31
0.0
  0
LINE
  5
39BCB
  8
0
 10
2756.5333194193399322
 20
150.3068498715597912
 30
0.0
 11
2756.8949043745728886
 21
150.1472387841758973
 31
0.0
  0
LINE
  5
39BCC
  8
0
 10
2756.8570301439308423
 20
150.0909085175887867
 30
0.0
 11
2756.5491152624390452
 21
149.9357006655015994
 31
0.0
  0
LINE
  5
39BCD
  8
0
 10
2756.3993379093258227
 20
149.8590284435186959
 30
0.0
 11
2756.1044394497721441
 21
149.7036055195177937
 31
0.0
  0
LINE
  5
39BCE
  8
0
 10
2756.0283443731691477
 20
150.0214627001805923
 30
0.0
 11
2756.0283430532108468
 21
149.7453249368614081
 31
0.0
  0
LINE
  5
39BCF
  8
0
 10
2755.9515183974399406
 20
149.6984337265155887
 30
0.0
 11
2755.6429166719808563
 21
149.8388873720880952
 31
0.0
  0
LINE
  5
39BD0
  8
0
 10
2755.9694371843761473
 20
150.0641316420066005
 30
0.0
 11
2755.6498394681061654
 21
149.8997757844367129
 31
0.0
  0
LINE
  5
39BD1
  8
0
 10
2755.5837708046678927
 20
150.2313466916193931
 30
0.0
 11
2755.5837710333948962
 21
149.9377591980752982
 31
0.0
  0
LINE
  5
39BD2
  8
0
 10
2755.1982029378159496
 20
150.050582022939011
 30
0.0
 11
2755.5178941857680002
 21
149.8973757851555035
 31
0.0
  0
LINE
  5
39BD3
  8
0
 10
2755.5252786691330584
 20
150.2729094127232941
 30
0.0
 11
2755.2029603963578666
 21
150.1108938786624094
 31
0.0
  0
LINE
  5
39BD4
  8
0
 10
2755.5251657226990574
 20
149.8370420913192049
 30
0.0
 11
2755.202586751257968
 21
149.6787453909614101
 31
0.0
  0
LINE
  5
39BD5
  8
0
 10
2755.2056835203779883
 20
149.6339255499966896
 30
0.0
 11
2755.5019690861818162
 21
149.4248110381332992
 31
0.0
  0
LINE
  5
39BD6
  8
0
 10
2755.9549532531918885
 20
149.6266049091341017
 30
0.0
 11
2755.6618328648578427
 21
149.4793607514191933
 31
0.0
  0
LINE
  5
39BD7
  8
0
 10
2755.5837788391181675
 20
149.7953008594261064
 30
0.0
 11
2755.5837768068990954
 21
149.5228727275662948
 31
0.0
  0
LINE
  5
39BD8
  8
0
 10
2755.5118319531520683
 20
149.3970534663812941
 30
0.0
 11
2755.2539472076541642
 21
149.2469995883951128
 31
0.0
  0
LINE
  5
39BD9
  8
0
 10
2755.795275768206011
 20
149.3411140777554067
 30
0.0
 11
2755.657005753888825
 21
149.4045992088433934
 31
0.0
  0
LINE
  5
39BDA
  8
0
 10
2756.0283358411570589
 20
149.5692782578470883
 30
0.0
 11
2756.0283465423281086
 21
149.427028556896687
 31
0.0
  0
LINE
  5
39BDB
  8
0
 10
2756.1027003298931959
 20
149.6307477016339931
 30
0.0
 11
2756.2712035516979086
 21
149.5517718127854891
 31
0.0
  0
LINE
  5
39BDC
  8
0
 10
2756.4728457482151498
 20
149.8020986684971092
 30
0.0
 11
2756.4728704286330867
 21
149.6900215406228938
 31
0.0
  0
LINE
  5
39BDD
  8
0
 10
2757.1617390905998946
 20
150.9238648041130944
 30
0.0
 11
2756.9914559035141792
 21
151.0026347948594889
 31
0.0
  0
LINE
  5
39BDE
  8
0
 10
2757.1617380697462067
 20
151.1756634301470967
 30
0.0
 11
2756.9923269401610924
 21
151.0779051781439932
 31
0.0
  0
LINE
  5
39BDF
  8
0
 10
2757.1284907942299469
 20
151.3988218502302914
 30
0.0
 11
2756.9911259542500375
 21
151.4620196044760974
 31
0.0
  0
LINE
  5
39BE0
  8
0
 10
2756.4728914606698709
 20
152.4183013429401967
 30
0.0
 11
2756.4729043598131284
 21
152.2663053192272002
 31
0.0
  0
LINE
  5
39BE1
  8
0
 10
2756.2791797828499512
 20
152.5512286108483977
 30
0.0
 11
2756.1025668742859125
 21
152.4492707799329025
 31
0.0
  0
LINE
  5
39BE2
  8
0
 10
2756.0281835833848163
 20
152.6806627240299861
 30
0.0
 11
2756.0277416635822192
 21
152.4890896744080919
 31
0.0
  0
LINE
  5
39BE3
  8
0
 10
2755.802693226458814
 20
152.7633858851812931
 30
0.0
 11
2755.6594052282789562
 21
152.6821735558418993
 31
0.0
  0
LINE
  5
39BE4
  8
0
 10
2755.5097290723920196
 20
152.6828062305822016
 30
0.0
 11
2755.2010013193298619
 21
152.8599971214217135
 31
0.0
  0
LINE
  5
39BE5
  8
0
 10
2755.584015114829981
 20
150.6382506513616875
 30
0.0
 11
2755.584015114829981
 21
150.3738025116898882
 31
0.0
  0
LINE
  5
39BE6
  8
0
 10
2755.5174457256289315
 20
150.32878311855319
 30
0.0
 11
2755.2278987962540668
 21
150.456726519378492
 31
0.0
  0
ARC
  5
39BE7
  8
0
 10
2755.162482174941033
 20
149.899547645267802
 30
0.0
 40
0.6844117847564734
 50
273.1629233904139937
 51
275.7132093464022091
  0
ARC
  5
39BE8
  8
0
 10
2755.1246275415041964
 20
151.6985039704483995
 30
0.0
 40
2.4822321673017349
 50
272.4471799104017009
 51
276.3337984256248205
  0
ARC
  5
39BE9
  8
0
 10
2755.1401910207951005
 20
151.521124620559192
 30
0.0
 40
2.3042222070606551
 50
276.4357502626032783
 51
287.3688509428873772
  0
ARC
  5
39BEA
  8
0
 10
2755.1741793921228236
 20
151.4025272003144096
 30
0.0
 40
2.180888241949444
 50
287.4467556845839908
 51
301.1961416339138964
  0
ARC
  5
39BEB
  8
0
 10
2755.2617636428531114
 20
151.2545551628489022
 30
0.0
 40
2.0089478665563201
 50
301.2453532751616763
 51
317.9626762414500263
  0
ARC
  5
39BEC
  8
0
 10
2755.4248476237607974
 20
151.1094419813705088
 30
0.0
 40
1.7906546301598449
 50
317.9170299578257755
 51
336.1779167685197081
  0
ARC
  5
39BED
  8
0
 10
2755.5458525283870586
 20
151.0604528244815015
 30
0.0
 40
1.6601771932916309
 50
336.0378624203713116
 51
4.0577413063796719
  0
ARC
  5
39BEE
  8
0
 10
2755.5297044730600646
 20
151.0544477571376945
 30
0.0
 40
1.676716705328775
 50
4.2233823136831639
 51
25.6481442566300508
  0
ARC
  5
39BEF
  8
0
 10
2755.3988644285659575
 20
150.990917515253301
 30
0.0
 40
1.8221637236539361
 50
25.6681835472774011
 51
44.6723120439076027
  0
ARC
  5
39BF0
  8
0
 10
2755.2190690422321495
 20
150.8055971926062
 30
0.0
 40
2.0803199167120279
 50
44.8205757228333184
 51
69.9551780779927128
  0
ARC
  5
39BF1
  8
0
 10
2755.1438949409221095
 20
150.6195551546807962
 30
0.0
 40
2.280869023412857
 50
69.78301568313627
 51
85.9409632242904991
  0
ARC
  5
39BF2
  8
0
 10
2755.1372659899020618
 20
150.5546473717465119
 30
0.0
 40
2.3460840880888831
 50
85.8916830321046945
 51
89.9524943390757841
  0
ARC
  5
39BF3
  8
0
 10
2755.1383210897261051
 20
148.8827386781426014
 30
0.0
 40
0.0571187560164482
 50
270.8926728466038867
 51
324.2744437782286013
  0
ARC
  5
39BF4
  8
0
 10
2755.1153236730970093
 20
148.8992795577308073
 30
0.0
 40
0.0854468669514598
 50
324.2744437782286013
 51
359.8557455957712818
  0
LINE
  5
39BF5
  8
0
 10
2755.2007702692299063
 20
148.8990644271580095
 30
0.0
 11
2755.2003158326228913
 21
149.2038790683917
 31
0.0
  0
LINE
  5
39BF6
  8
0
 10
2755.2003158326228913
 20
149.2038790683917
 30
0.0
 11
2755.1979308757931904
 21
149.6172117393714984
 31
0.0
  0
ARC
  5
39BF7
  8
0
 10
2755.2190915917321945
 20
149.2251309397165926
 30
0.0
 40
0.0203559522495244
 50
92.5813697155245166
 51
158.5143530731201906
  0
ARC
  5
39BF9
  8
0
 10
2740.2678509230217969
 20
135.0072573158579985
 30
0.0
 40
1.2992125984
 50
25.7024975412231917
 51
334.3652190987118047
  0
ARC
  5
39BFA
  8
0
 10
2740.2678509230217969
 20
135.0072573158579985
 30
0.0
 40
0.5118326645
 50
92.499924233140149
 51
270.0
  0
ARC
  5
39BFB
  8
0
 10
2743.2486999751658914
 20
135.1096900730651953
 30
0.0
 40
0.9132243272491088
 50
91.9637948120674338
 51
163.1196649216001049
  0
ARC
  5
39BFC
  8
0
 10
2743.5543634716591441
 20
134.9899381641791933
 30
0.0
 40
1.2407596148712789
 50
161.9265459974519956
 51
179.2327236492365898
  0
ARC
  5
39BFD
  8
0
 10
2745.4919031801769052
 20
135.1767918747135866
 30
0.0
 40
3.182744191306254
 50
183.0660990352490103
 51
186.354505030957398
  0
ARC
  5
39BFE
  8
0
 10
2744.8277293366900267
 20
135.2803980147953098
 30
0.0
 40
2.5402558189673541
 50
190.338247137879705
 51
195.6298547181168033
  0
ARC
  5
39BFF
  8
0
 10
2731.8787323951601138
 20
131.6875415856503082
 30
0.0
 40
10.8979483629900802
 50
13.5348612676680098
 51
15.4787584172338093
  0
ARC
  5
39C00
  8
0
 10
2738.3109402344312002
 20
133.2195067767046908
 30
0.0
 40
4.2858709500418577
 50
5.8235767412967743
 51
13.7481609796008399
  0
ARC
  5
39C01
  8
0
 10
2725.9010374994768426
 20
132.6360949663720135
 30
0.0
 40
16.7047193654517017
 50
1.233205588479072
 51
3.4947832387008311
  0
ARC
  5
39C02
  8
0
 10
2785.0882373401650511
 20
133.853424985091209
 30
0.0
 40
42.4950085410952525
 50
181.1566640365786895
 51
182.6603933768712977
  0
ARC
  5
39C03
  8
0
 10
2743.4019650239351904
 20
131.8897396854009969
 30
0.0
 40
0.7629853738104239
 50
180.6578777008895997
 51
233.5214684014100897
  0
ARC
  5
39C04
  8
0
 10
2743.2372444164288936
 20
131.7264090800221936
 30
0.0
 40
0.5348936489414196
 50
237.3102438696730871
 51
267.8744565647710942
  0
ARC
  5
39C05
  8
0
 10
1858.2567078665178997
 20
20336.996723319771263
 30
0.0
 40
20220.7226014892585226
 50
272.4999242312101728
 51
272.5049074692378213
  0
ARC
  5
39C06
  8
0
 10
2741.9415744114321569
 20
136.9886103362277936
 30
0.0
 40
1.394553604948402
 50
272.5049074692378213
 51
298.8939171916176178
  0
ARC
  5
39C07
  8
0
 10
2741.9312394049229624
 20
133.0013154619788054
 30
0.0
 40
1.4214855425044779
 50
68.4434596192739519
 51
87.9870419364159062
  0
LINE
  5
39C08
  8
0
 10
2741.9811698222279119
 20
134.4219238179225044
 30
0.0
 11
2740.2678509230217969
 21
134.4954246513580074
 31
0.0
  0
ARC
  5
39C09
  8
0
 10
2740.2678509230217969
 20
135.0072573158579985
 30
0.0
 40
0.5708661417000002
 50
66.2136312253419703
 51
293.9365793774650228
  0
ARC
  5
39C0A
  8
0
 10
2740.2666477119018964
 20
135.00467100923251
 30
0.0
 40
0.613080883152752
 50
59.5332048833169409
 51
69.2866776976752732
  0
LINE
  5
39C0B
  8
0
 10
2740.4834897251989787
 20
135.5781234576159875
 30
0.0
 11
2740.0522121208441604
 21
135.5781234576159875
 31
0.0
  0
ARC
  5
39C0C
  8
0
 10
2740.2678509228030634
 20
135.0072573164005121
 30
0.0
 40
0.6102362199152004
 50
110.6935412299698953
 51
129.3064587830430128
  0
LINE
  5
39C0D
  8
0
 10
2739.8812857432208148
 20
135.4794390674580029
 30
0.0
 11
2739.6656469410099817
 21
135.1059417060097871
 31
0.0
  0
ARC
  5
39C0E
  8
0
 10
2740.2678509230217969
 20
135.0072573158579985
 30
0.0
 40
0.6102362205000219
 50
170.6935412311977132
 51
189.3064587688022016
  0
LINE
  5
39C0F
  8
0
 10
2739.6656469410099817
 20
134.9085729257062098
 30
0.0
 11
2739.8812857433681529
 21
134.5350755641036073
 31
0.0
  0
ARC
  5
39C10
  8
0
 10
2740.2678509230217969
 20
135.0072573158579985
 30
0.0
 40
0.6102362205000049
 50
230.6935412531674956
 51
249.3064587688056974
  0
LINE
  5
39C11
  8
0
 10
2740.0522121208441604
 20
134.4363911741000095
 30
0.0
 11
2740.4834897251989787
 21
134.4363911741000095
 31
0.0
  0
ARC
  5
39C12
  8
0
 10
2740.2704914984460629
 20
135.0004455955977107
 30
0.0
 40
0.6029308708391815
 50
290.6875389979978195
 51
300.7159297425214959
  0
ARC
  5
39C13
  8
0
 10
2746.1669603305208511
 20
135.0072573158579985
 30
0.0
 40
1.2992125984
 50
205.6347809012881953
 51
154.2975024587767905
  0
ARC
  5
39C14
  8
0
 10
2746.1669603305208511
 20
135.0072573158579985
 30
0.0
 40
0.5118326645
 50
270.0
 51
87.5000757668598652
  0
ARC
  5
39C15
  8
0
 10
2743.1861112783772114
 20
135.1096900730651953
 30
0.0
 40
0.9132243272491088
 50
16.8803350783999306
 51
88.0362051879325662
  0
ARC
  5
39C16
  8
0
 10
2742.8804477818839587
 20
134.9899381641791933
 30
0.0
 40
1.2407596148712789
 50
0.7672763507633529
 51
18.0734540025479795
  0
ARC
  5
39C17
  8
0
 10
2740.9429080733661976
 20
135.1767918747135866
 30
0.0
 40
3.182744191306254
 50
353.6454949690408966
 51
356.9339009647509897
  0
ARC
  5
39C18
  8
0
 10
2741.6070819168530761
 20
135.2803980147953098
 30
0.0
 40
2.5402558189673541
 50
344.3701452818831967
 51
349.6617528621201814
  0
ARC
  5
39C19
  8
0
 10
2754.5560788583838985
 20
131.6875415856503082
 30
0.0
 40
10.8979483629900802
 50
164.5212415827662085
 51
166.465138732332008
  0
ARC
  5
39C1A
  8
0
 10
2748.1238710191119026
 20
133.2195067767046908
 30
0.0
 40
4.2858709500418577
 50
166.2518390203991032
 51
174.1764232587032097
  0
ARC
  5
39C1B
  8
0
 10
2760.5337737540658054
 20
132.6360949663720135
 30
0.0
 40
16.7047193654517017
 50
176.5052167612990957
 51
178.7667944115208911
  0
ARC
  5
39C1C
  8
0
 10
2701.3465739133780517
 20
133.853424985091209
 30
0.0
 40
42.4950085410952525
 50
357.3396066231287023
 51
358.8433359634212252
  0
ARC
  5
39C1D
  8
0
 10
2743.0328462296079124
 20
131.8897396854009969
 30
0.0
 40
0.7629853738104239
 50
306.4785315985898251
 51
359.342122299110315
  0
ARC
  5
39C1E
  8
0
 10
2743.1975668371142092
 20
131.7264090800221936
 30
0.0
 40
0.5348936489414196
 50
272.1255434352289058
 51
302.6897561303269981
  0
ARC
  5
39C1F
  8
0
 10
3628.1781033870252031
 20
20336.996723319771263
 30
0.0
 40
20220.7226014892585226
 50
267.4950925307622924
 51
267.5000757687898272
  0
ARC
  5
39C20
  8
0
 10
2744.4932368421109459
 20
136.9886103362277936
 30
0.0
 40
1.394553604948402
 50
241.1060828083824106
 51
267.4950925307622924
  0
ARC
  5
39C21
  8
0
 10
2744.5035718486201404
 20
133.0013154619788054
 30
0.0
 40
1.4214855425044779
 50
92.012958063584108
 51
111.5565403807260054
  0
LINE
  5
39C22
  8
0
 10
2744.4536414313151909
 20
134.4219238179225044
 30
0.0
 11
2746.1669603305208511
 21
134.4954246513580074
 31
0.0
  0
ARC
  5
39C23
  8
0
 10
2746.1669603305208511
 20
135.0072573158579985
 30
0.0
 40
0.5708661417000002
 50
246.0634206225348919
 51
113.7863687746580013
  0
ARC
  5
39C24
  8
0
 10
2746.1681635416412064
 20
135.00467100923251
 30
0.0
 40
0.613080883152752
 50
110.7133223023246984
 51
120.4667951166830022
  0
LINE
  5
39C25
  8
0
 10
2745.9513215283441241
 20
135.5781234576159875
 30
0.0
 11
2746.3825991326989424
 21
135.5781234576159875
 31
0.0
  0
ARC
  5
39C26
  8
0
 10
2746.1669603307400394
 20
135.0072573164005121
 30
0.0
 40
0.6102362199152004
 50
50.6935412169569375
 51
69.3064587700300905
  0
LINE
  5
39C27
  8
0
 10
2746.5535255103218333
 20
135.4794390674580029
 30
0.0
 11
2746.7691643125331211
 21
135.1059417060097871
 31
0.0
  0
ARC
  5
39C28
  8
0
 10
2746.1669603305208511
 20
135.0072573158579985
 30
0.0
 40
0.6102362205000219
 50
350.6935412311976847
 51
9.3064587688022655
  0
LINE
  5
39C29
  8
0
 10
2746.7691643125331211
 20
134.9085729257062098
 30
0.0
 11
2746.5535255101740404
 21
134.5350755641036073
 31
0.0
  0
ARC
  5
39C2A
  8
0
 10
2746.1669603305208511
 20
135.0072573158579985
 30
0.0
 40
0.6102362205000049
 50
290.6935412311942741
 51
309.3064587468325044
  0
LINE
  5
39C2B
  8
0
 10
2746.3825991326989424
 20
134.4363911741000095
 30
0.0
 11
2745.9513215283441241
 21
134.4363911741000095
 31
0.0
  0
ARC
  5
39C2C
  8
0
 10
2746.1643197550970399
 20
135.0004455955977107
 30
0.0
 40
0.6029308708391815
 50
239.2840702574785041
 51
249.3124610020022089
  0
ARC
  5
39C2D
  8
0
 10
2754.6698862327029929
 20
144.0083411576713104
 30
0.0
 40
0.038177749546333
 50
192.4517129215817874
 51
261.5209251072217853
  0
LINE
  5
39C2E
  8
0
 10
2754.6642569922219081
 20
143.9705806993580097
 30
0.0
 11
2755.6180533701208333
 21
143.9705806993580097
 31
0.0
  0
ARC
  5
39C2F
  8
0
 10
2755.6183797388262064
 20
143.9980883493201986
 30
0.0
 40
0.0275095861561168
 50
269.3202134388570244
 51
4.213157948049628
  0
LINE
  5
39C30
  8
0
 10
2754.6982835275830439
 20
143.7338653043659065
 30
0.0
 11
2754.6884203861218339
 21
143.9705806993580097
 31
0.0
  0
LINE
  5
39C31
  8
0
 10
2755.593932197120921
 20
143.9705806993580097
 30
0.0
 11
2755.5841275572961422
 21
143.7353879620058876
 31
0.0
  0
LINE
  5
39C32
  8
0
 10
2755.6026291204138943
 20
143.739275479557989
 30
0.0
 11
2755.6703213514219897
 21
143.739275479557989
 31
0.0
  0
LINE
  5
39C33
  8
0
 10
2754.8557432207207967
 20
142.5508304121580068
 30
0.0
 11
2754.8557432207207967
 21
130.7606426467318101
 31
0.0
  0
LINE
  5
39C34
  8
0
 10
2755.4266093625219582
 20
142.5508304121580068
 30
0.0
 11
2755.4266093625219582
 21
130.7606259954914947
 31
0.0
  0
LINE
  5
39C35
  8
0
 10
2742.9321328588212054
 20
131.2885704768802952
 30
0.0
 11
2742.9321328588212054
 21
130.7606259954926884
 31
0.0
  0
LINE
  5
39C36
  8
0
 10
2743.5029990006219123
 20
131.2888211779834933
 30
0.0
 11
2743.5029990006219123
 21
130.7606426467293943
 31
0.0
  0
ARC
  5
39C37
  8
0
 10
2749.1793711106711271
 20
130.7711234840938914
 30
0.0
 40
5.676381785935944
 50
180.1057906445699075
 51
359.8942093554545067
  0
ARC
  5
39C38
  8
0
 10
2749.1793711106711271
 20
130.7711151584749132
 30
0.0
 40
6.2472470575380594
 50
180.0961999815812078
 51
359.9038000184073098
  0
ENDSEC
  0
EOF
