  0
SECTION
  2
HEADER
  9
$ACADVER
  1
AC1009
  9
$INSBASE
 10
4347.419508140371363
 20
175.7724535042715104
 30
0.0
  9
$EXTMIN
 10
4323.6829432463591729
 20
133.7885358184485085
 30
-0.0015258207003583
  9
$EXTMAX
 10
4347.5640921931499179
 20
204.7181421922707045
 30
0.0000000349246037
  9
$LIMMIN
 10
0.0
 20
0.0
  9
$LIMMAX
 10
11.6929133858000007
 20
8.2677165353999982
  9
$ORTHOMODE
 70
     0
  9
$REGENMODE
 70
     1
  9
$FILLMODE
 70
     1
  9
$QTEXTMODE
 70
     0
  9
$MIRRTEXT
 70
     0
  9
$DRAGMODE
 70
     2
  9
$LTSCALE
 40
0.6431102362
  9
$OSMODE
 70
  4095
  9
$ATTMODE
 70
     1
  9
$TEXTSIZE
 40
0.2
  9
$TRACEWID
 40
0.05
  9
$TEXTSTYLE
  7
STANDARD
  9
$CLAYER
  8
0
  9
$CELTYPE
  6
BYLAYER
  9
$CECOLOR
 62
   256
  9
$DIMSCALE
 40
1.0
  9
$DIMASZ
 40
0.1875
  9
$DIMEXO
 40
0.0625
  9
$DIMDLI
 40
0.4443307087
  9
$DIMRND
 40
0.0
  9
$DIMDLE
 40
0.0
  9
$DIMEXE
 40
0.125
  9
$DIMTP
 40
0.01
  9
$DIMTM
 40
0.01
  9
$DIMTXT
 40
2.0
  9
$DIMCEN
 40
0.1052362205
  9
$DIMTSZ
 40
0.0
  9
$DIMTOL
 70
     1
  9
$DIMLIM
 70
     0
  9
$DIMTIH
 70
     1
  9
$DIMTOH
 70
     1
  9
$DIMSE1
 70
     0
  9
$DIMSE2
 70
     0
  9
$DIMTAD
 70
     0
  9
$DIMZIN
 70
     0
  9
$DIMBLK
  1

  9
$DIMASO
 70
     1
  9
$DIMSHO
 70
     1
  9
$DIMPOST
  1
\X
  9
$DIMAPOST
  1

  9
$DIMALT
 70
     1
  9
$DIMALTD
 70
     2
  9
$DIMALTF
 40
25.3999999999999986
  9
$DIMLFAC
 40
1.0
  9
$DIMTOFL
 70
     0
  9
$DIMTVP
 40
0.0
  9
$DIMTIX
 70
     0
  9
$DIMSOXD
 70
     0
  9
$DIMSAH
 70
     0
  9
$DIMBLK1
  1

  9
$DIMBLK2
  1

  9
$DIMSTYLE
  2
STANDARD
  9
$DIMCLRD
 70
     0
  9
$DIMCLRE
 70
     0
  9
$DIMCLRT
 70
     0
  9
$DIMTFAC
 40
1.0
  9
$DIMGAP
 40
0.09
  9
$LUNITS
 70
     2
  9
$LUPREC
 70
     4
  9
$SKETCHINC
 40
0.1
  9
$FILLETRAD
 40
0.0
  9
$AUNITS
 70
     0
  9
$AUPREC
 70
     0
  9
$MENU
  1
.
  9
$ELEVATION
 40
0.0
  9
$PELEVATION
 40
0.0
  9
$THICKNESS
 40
0.0
  9
$LIMCHECK
 70
     0
  9
$BLIPMODE
 70
     0
  9
$CHAMFERA
 40
0.0
  9
$CHAMFERB
 40
0.0
  9
$SKPOLY
 70
     0
  9
$TDCREATE
 40
2458060.468368056230247
  9
$TDUPDATE
 40
2459936.5942013887688518
  9
$TDINDWG
 40
0.4050649306
  9
$TDUSRTIMER
 40
0.4050649306
  9
$USRTIMER
 70
     1
  9
$ANGBASE
 50
0.0
  9
$ANGDIR
 70
     0
  9
$PDMODE
 70
     0
  9
$PDSIZE
 40
0.3125
  9
$PLINEWID
 40
0.0
  9
$COORDS
 70
     1
  9
$SPLFRAME
 70
     0
  9
$SPLINETYPE
 70
     6
  9
$SPLINESEGS
 70
     8
  9
$ATTDIA
 70
     1
  9
$ATTREQ
 70
     1
  9
$HANDLING
 70
     1
  9
$HANDSEED
  5
CA88
  9
$SURFTAB1
 70
     6
  9
$SURFTAB2
 70
     6
  9
$SURFTYPE
 70
     6
  9
$SURFU
 70
     6
  9
$SURFV
 70
     6
  9
$UCSNAME
  2

  9
$UCSORG
 10
0.0
 20
0.0
 30
0.0
  9
$UCSXDIR
 10
1.0
 20
0.0
 30
0.0
  9
$UCSYDIR
 10
0.0
 20
1.0
 30
0.0
  9
$PUCSNAME
  2

  9
$PUCSORG
 10
0.0
 20
0.0
 30
0.0
  9
$PUCSXDIR
 10
1.0
 20
0.0
 30
0.0
  9
$PUCSYDIR
 10
0.0
 20
1.0
 30
0.0
  9
$USERI1
 70
     0
  9
$USERI2
 70
     0
  9
$USERI3
 70
     0
  9
$USERI4
 70
     0
  9
$USERI5
 70
     0
  9
$USERR1
 40
0.0
  9
$USERR2
 40
0.0
  9
$USERR3
 40
0.0
  9
$USERR4
 40
0.0
  9
$USERR5
 40
0.0
  9
$WORLDVIEW
 70
     1
  9
$SHADEDGE
 70
     3
  9
$SHADEDIF
 70
    70
  9
$TILEMODE
 70
     1
  9
$MAXACTVP
 70
    64
  9
$PLIMCHECK
 70
     0
  9
$PEXTMIN
 10
1.0000000000000000E+20
 20
1.0000000000000000E+20
 30
1.0000000000000000E+20
  9
$PEXTMAX
 10
-1.0000000000000000E+20
 20
-1.0000000000000000E+20
 30
-1.0000000000000000E+20
  9
$PLIMMIN
 10
0.0
 20
0.0
  9
$PLIMMAX
 10
12.0
 20
9.0
  9
$UNITMODE
 70
     0
  9
$VISRETAIN
 70
     1
  9
$PLINEGEN
 70
     0
  9
$PSLTSCALE
 70
     1
  0
ENDSEC
  0
SECTION
  2
TABLES
  0
TABLE
  2
VPORT
 70
     1
  0
VPORT
  2
*ACTIVE
 70
     0
 10
0.0
 20
0.0
 11
1.0
 21
1.0
 12
532.0794503369425001
 22
43.2580768086096583
 13
0.0
 23
0.0
 14
1.0
 24
1.0
 15
0.0
 25
0.0
 16
0.0
 26
0.0
 36
17.1152628219792007
 17
3803.5440673828129547
 27
125.9952621967499056
 37
0.0
 40
71.437455584135904
 41
2.2831541218637992
 42
50.0
 43
0.0
 44
0.0
 50
0.0
 51
0.0
 71
     0
 72
   100
 73
     1
 74
     1
 75
     0
 76
     0
 77
     0
 78
     0
  0
ENDTAB
  0
TABLE
  2
LTYPE
 70
     2
  0
LTYPE
  2
CONTINUOUS
 70
     0
  3
Solid line
 72
    65
 73
     0
 40
0.0
  0
LTYPE
  2
PHANTOM2
 70
     0
  3
___ _ _ ___ _ _ ___ _ _ ___ _ _
 72
    65
 73
     6
 40
1.25
 49
0.625
 49
-0.125
 49
0.125
 49
-0.125
 49
0.125
 49
-0.125
  0
ENDTAB
  0
TABLE
  2
LAYER
 70
     2
  0
LAYER
  2
0
 70
     0
 62
   255
  6
CONTINUOUS
  0
LAYER
  2
DEFPOINTS
 70
     0
 62
     7
  6
CONTINUOUS
  0
ENDTAB
  0
TABLE
  2
STYLE
 70
     1
  0
STYLE
  2
STANDARD
 70
     0
 40
0.0
 41
0.8
 50
0.0
 71
     0
 42
0.2
  3
txt
  4

  0
ENDTAB
  0
TABLE
  2
VIEW
 70
     0
  0
ENDTAB
  0
TABLE
  2
UCS
 70
     0
  0
ENDTAB
  0
TABLE
  2
APPID
 70
    10
  0
APPID
  2
ACAD
 70
     0
  0
APPID
  2
ACAD_MLEADERVER
 70
     0
  0
APPID
  2
ACAD_EXEMPT_FROM_CAD_STANDARDS
 70
     0
  0
APPID
  2
ACAD_NAV_VCDISPLAY
 70
     0
  0
APPID
  2
ACAECLAYERSTANDARD
 70
     0
  0
APPID
  2
ACCMTRANSPARENCY
 70
     0
  0
APPID
  2
ACAD_DSTYLE_DIMJAG
 70
     0
  0
APPID
  2
ACAD_DSTYLE_DIMTALN
 70
     0
  0
APPID
  2
ACDBATTR
 70
     0
  0
APPID
  2
ACADANNOTATIVE
 70
     0
  0
ENDTAB
  0
TABLE
  2
DIMSTYLE
 70
     1
  0
DIMSTYLE
  2
STANDARD
 70
     0
  3

  4

  5

  6

  7

 40
1.0
 41
0.1875
 42
0.0625
 43
0.38
 44
0.125
 45
0.0
 46
0.0
 47
0.01
 48
0.01
140
0.15625
141
0.09
142
0.0
143
25.3999999999999986
144
1.0
145
0.0
146
1.0
147
0.09
 71
     1
 72
     0
 73
     1
 74
     1
 75
     0
 76
     0
 77
     0
 78
     4
170
     0
171
     2
172
     0
173
     0
174
     0
175
     0
176
     0
177
     0
178
     0
  0
ENDTAB
  0
ENDSEC
  0
SECTION
  2
BLOCKS
  0
BLOCK
  8
0
  2
$MODEL_SPACE
 70
     0
 10
0.0
 20
0.0
 30
0.0
  3
$MODEL_SPACE
  1

  0
ENDBLK
  5
21
  8
0
  0
BLOCK
 67
     1
  8
0
  2
$PAPER_SPACE
 70
     0
 10
0.0
 20
0.0
 30
0.0
  3
$PAPER_SPACE
  1

  0
ENDBLK
  5
1D
 67
     1
  8
0
  0
ENDSEC
  0
SECTION
  2
ENTITIES
  0
ATTDEF
  5
3930
  8
DEFPOINTS
 10
4347.4207423265070247
 20
175.7765785488167012
 30
0.0
 40
0.001
  1
K-33080T-4
  3

  2
MODELNUMBER
 70
     0
1001
ACDBATTR
1070
     0
1070
     1
  0
ATTDEF
  5
3931
  8
DEFPOINTS
 10
4347.4207423265070247
 20
175.7749118821500929
 30
0.0
 40
0.001
  1
ACCLIV
  3

  2
TRADENAME
 70
     0
1001
ACDBATTR
1070
     0
1070
     1
  0
ATTDEF
  5
3932
  8
DEFPOINTS
 10
4347.4207423265070247
 20
175.7732452154833993
 30
0.0
 40
0.001
  1
SHOWER COLUMN
  3

  2
PRODUCT
 70
     0
1001
ACDBATTR
1070
     0
1070
     1
  0
LINE
  5
C09E
  8
0
 10
4342.9508499821540681
 20
192.53554839142069
 30
0.0
 11
4342.2101529153551382
 21
192.1656925797207975
 31
0.0
  0
LINE
  5
C09F
  8
0
 10
4344.0881171974651807
 20
183.1395794885214059
 30
0.0
 11
4345.042236955278895
 21
183.1395794885214912
 31
0.0
  0
LINE
  5
C0A0
  8
0
 10
4345.0714273060184496
 20
183.741020613626489
 30
0.0
 11
4345.0717620842551696
 21
183.1691070475208107
 31
0.0
  0
ARC
  5
C0A1
  8
0
 10
4345.0397881066946866
 20
183.1715532646489919
 30
0.0
 40
0.0320674167847265
 50
274.3796923811846113
 51
355.6250230734497109
  0
ARC
  5
C0A2
  8
0
 10
4344.0881196275531693
 20
183.1691057867203085
 30
0.0
 40
0.029526298298801
 50
180.7149634599778949
 51
269.9952844117431141
  0
ARC
  5
C0A3
  8
0
 10
4308.9380712066067645
 20
172.7568594844790937
 30
0.0
 40
39.3734642794632208
 50
24.1794601182811597
 51
30.1353296061756204
  0
ARC
  5
C0A4
  8
0
 10
4344.2377529353043428
 20
188.5835880856741937
 30
0.0
 40
0.6884665815198482
 50
357.9591710369031716
 51
25.8780150566952294
  0
ARC
  5
C0A5
  8
0
 10
4342.2233551149092818
 20
192.1392718561870936
 30
0.0
 40
0.0295356175680754
 50
116.5508890187549014
 51
194.2839820168929066
  0
ARC
  5
C0A6
  8
0
 10
4342.2473256306466283
 20
192.0532941200227981
 30
0.0
 40
0.018929489456881
 50
154.672285722653811
 51
189.6845237751747106
  0
ARC
  5
C0A7
  8
0
 10
4340.8375378510590963
 20
191.4348911609575907
 30
0.0
 40
1.5210953845966471
 50
17.0474790187757606
 51
23.8571417282551508
  0
LINE
  5
C0A8
  8
0
 10
4344.1592386198553868
 20
188.0683471341208133
 30
0.0
 11
4344.1596608522550014
 21
188.0065142156207116
 31
0.0
  0
ARC
  5
C0A9
  8
0
 10
4344.1454254460113589
 20
188.0060593612523121
 30
0.0
 40
0.0142426712171791
 50
279.4433333566977922
 51
1.8301108872234479
  0
ARC
  5
C0AA
  8
0
 10
4343.8310095729766545
 20
178.1918528813197042
 30
0.0
 40
9.8052743956928765
 50
88.1487768702262855
 51
89.9407312568819179
  0
ARC
  5
C0AB
  8
0
 10
4343.8415417240503302
 20
188.018807022638498
 30
0.0
 40
0.0216884847558882
 50
179.8300562992193932
 51
268.9716746994059235
  0
LINE
  5
C0AC
  8
0
 10
4343.8198533346976546
 20
188.0188713522626074
 30
0.0
 11
4343.8178746614903503
 21
188.7566487672679045
 31
0.0
  0
ARC
  5
C0AD
  8
0
 10
4343.4686006129522866
 20
188.0811208172762008
 30
0.0
 40
0.6907561245180968
 50
358.9404077257094059
 51
23.7646476282727903
  0
ARC
  5
C0AE
  8
0
 10
4344.1190077058590759
 20
188.3665673971389936
 30
0.0
 40
0.0195502748858029
 50
126.7170580182126969
 51
201.2482609210057944
  0
ARC
  5
C0AF
  8
0
 10
757.1164307863050453
 20
187.5064042956938977
 30
0.0
 40
3587.8095064654548878
 50
359.9456226210623981
 51
0.0168106306165944
  0
ARC
  5
C0B0
  8
0
 10
4345.3723230237128519
 20
184.085873238632189
 30
0.0
 40
0.4482685896939009
 50
178.0223430649037084
 51
225.9661991042254101
  0
LINE
  5
C0B1
  8
0
 10
4344.0559991091140546
 20
187.4497297679847065
 30
0.0
 11
4344.0585956280256141
 21
183.1687373533605978
 31
0.0
  0
ARC
  5
C0B2
  8
0
 10
4343.5792065674413607
 20
188.0780453590265893
 30
0.0
 40
0.6094561047013732
 50
1.026457990254626
 51
29.9419879119779218
  0
ARC
  5
C0B3
  8
0
 10
4344.0860151645756559
 20
187.4496412774186069
 30
0.0
 40
0.0300161859006003
 50
133.9069176950198994
 51
179.8310863569872993
  0
ARC
  5
C0B4
  8
0
 10
4343.7388870995719117
 20
187.7816177067265926
 30
0.0
 40
0.4503301252340076
 50
316.4361304526082108
 51
1.932570201380823
  0
LINE
  5
C0B5
  8
0
 10
4344.1889610802545576
 20
187.7968043326206953
 30
0.0
 11
4344.1885648723546183
 21
188.0889632247206862
 31
0.0
  0
ARC
  5
C0B6
  8
0
 10
4345.0417748626578032
 20
183.740803421295908
 30
0.0
 40
0.0296532387729632
 50
0.4196612467852521
 51
50.2424093175826414
  0
ARC
  5
C0B7
  8
0
 10
4342.9638341825811949
 20
192.5075553010771046
 30
0.0
 40
0.0308577796944902
 50
32.3682887927236322
 51
114.8835633477422959
  0
ARC
  5
C0B8
  8
0
 10
4687.4654007979579546
 20
365.877311585696475
 30
0.0
 40
386.5220213287223032
 50
206.7122194054531121
 51
207.3361912672066865
  0
ARC
  5
C0B9
  8
0
 10
4343.4933414230754352
 20
190.391678756630597
 30
0.0
 40
0.4760028772711133
 50
202.8174304106047998
 51
207.2785554224020927
  0
ARC
  5
C0BA
  8
0
 10
4343.1964317254760317
 20
190.2667631125245009
 30
0.0
 40
0.1538859937173968
 50
192.724154367808012
 51
202.8174304106063062
  0
ARC
  5
C0BB
  8
0
 10
4343.0617116474249997
 20
190.236342947234391
 30
0.0
 40
0.0157741336685405
 50
165.1730301041044129
 51
192.724154367806392
  0
ARC
  5
C0BC
  8
0
 10
4343.0607501802342085
 20
190.236597462052714
 30
0.0
 40
0.0147795498609997
 50
121.3603418571717043
 51
165.1730301040981033
  0
LINE
  5
C0BD
  8
0
 10
4343.0530586259783377
 20
190.2492178854687097
 30
0.0
 11
4343.1032521367687878
 21
190.2761951864403045
 31
0.0
  0
ARC
  5
C0BE
  8
0
 10
4342.9056897324862803
 20
190.0910761807569997
 30
0.0
 40
0.2655356843020727
 50
26.8942715706397415
 51
37.1441290410298492
  0
ARC
  5
C0BF
  8
0
 10
4342.8359786444971178
 20
190.1077155265006127
 30
0.0
 40
0.3159438486253768
 50
27.0532288993986896
 51
32.2258663198656095
  0
ARC
  5
C0C0
  8
0
 10
4342.9546766510056841
 20
190.1152944365296946
 30
0.0
 40
0.1399908709702603
 50
26.7943874702593696
 51
34.2985899267862706
  0
ARC
  5
C0C1
  8
0
 10
4343.0518233074708405
 20
190.1815595905856071
 30
0.0
 40
0.0223960432619965
 50
34.2992209983131175
 51
44.4208353857406308
  0
ARC
  5
C0C2
  8
0
 10
4343.0638285630584505
 20
190.1933245607168885
 30
0.0
 40
0.0055870967181137
 50
44.4208353857429614
 51
57.1120041809292474
  0
ARC
  5
C0C3
  8
0
 10
4343.0664727418798066
 20
190.1974137171644941
 30
0.0
 40
0.0007175092511611
 50
57.112004180742268
 51
111.4145415186495001
  0
ARC
  5
C0C4
  8
0
 10
4343.0665759478069958
 20
190.1976137617851066
 30
0.0
 40
0.0005935600035988
 50
127.9688808631003951
 51
172.1845316094228053
  0
ARC
  5
C0C5
  8
0
 10
4343.0753455646381553
 20
190.1974150733931879
 30
0.0
 40
0.0093618336440673
 50
178.2897623024888105
 51
199.0765573487049096
  0
ARC
  5
C0C6
  8
0
 10
4343.183246302382031
 20
190.2336936883669125
 30
0.0
 40
0.1231978308978852
 50
198.6212289034947958
 51
208.0618676327503067
  0
ARC
  5
C0C7
  8
0
 10
4343.4913010187292457
 20
190.3955909803231066
 30
0.0
 40
0.4760028772711133
 50
207.8096643212271886
 51
212.2707893330340028
  0
ARC
  5
C0C8
  8
0
 10
4343.2189401939986055
 20
190.2236059000871933
 30
0.0
 40
0.1538859937173968
 50
212.2707893330340028
 51
222.3640653757875043
  0
ARC
  5
C0C9
  8
0
 10
4343.1168923648929194
 20
190.1305407268978911
 30
0.0
 40
0.0157741336685405
 50
222.3640653757875043
 51
249.9151896395163135
  0
ARC
  5
C0CA
  8
0
 10
4343.1165508141502869
 20
190.129606628380003
 30
0.0
 40
0.0147795498609997
 50
249.9151896395163135
 51
293.7278778863977209
  0
LINE
  5
C0CB
  8
0
 10
4343.1224980053229956
 20
190.1160764394948899
 30
0.0
 11
4343.1733467887943334
 21
190.1417973359154985
 31
0.0
  0
ARC
  5
C0CC
  8
0
 10
4342.9084750425536186
 20
190.0857356922138024
 30
0.0
 40
0.2655356843020727
 50
17.9440907025928382
 51
28.1939481729777199
  0
ARC
  5
C0CD
  8
0
 10
4342.8822232098746099
 20
190.0190472757053044
 30
0.0
 40
0.3159438486253768
 50
22.8623534237498411
 51
28.0349908442208289
  0
ARC
  5
C0CE
  8
0
 10
4343.1254850780360357
 20
190.1207548562759939
 30
0.0
 40
0.0522831646512264
 50
6.7672037043321041
 51
23.732770208149649
  0
ARC
  5
C0CF
  8
0
 10
4343.1701376583705496
 20
190.1261961244495922
 30
0.0
 40
0.0073018735138627
 50
337.3990057139516807
 51
5.655275529231055
  0
ARC
  5
C0D0
  8
0
 10
4343.1751699246542557
 20
190.1243906974519007
 30
0.0
 40
0.0019803277503879
 50
275.3840623160502901
 51
329.6451698796425944
  0
ARC
  5
C0D1
  8
0
 10
4343.1949509337391646
 20
190.1603163226943138
 30
0.0
 40
0.0426634566966164
 50
216.0409254972308872
 51
242.6582547743828115
  0
ARC
  5
C0D2
  8
0
 10
4342.9563707641545989
 20
190.1120461831600039
 30
0.0
 40
0.1399908711282217
 50
20.7896298189551985
 51
28.2938322883154108
  0
ARC
  5
C0D3
  8
0
 10
4343.066308897376075
 20
190.1537852584418999
 30
0.0
 40
0.0223960432619965
 50
10.6673843578620993
 51
20.7889987452631004
  0
ARC
  5
C0D4
  8
0
 10
4343.0828273572196849
 20
190.1568967160206114
 30
0.0
 40
0.0055870967181137
 50
357.976215562722075
 51
10.6673843578253003
  0
ARC
  5
C0D5
  8
0
 10
4343.0876939073014
 20
190.1567247496676885
 30
0.0
 40
0.0007175092511611
 50
303.6736782249438988
 51
357.9762155628832261
  0
ARC
  5
C0D6
  8
0
 10
4343.0879170169810095
 20
190.1566948936250867
 30
0.0
 40
0.0005935600035988
 50
242.9036881341783101
 51
287.1193388804617257
  0
ARC
  5
C0D7
  8
0
 10
4343.0927730644671101
 20
190.1639999917933892
 30
0.0
 40
0.0093618336440673
 50
216.011662394855108
 51
236.7984574411349001
  0
ARC
  5
C0D8
  8
0
 10
4343.1842759257897342
 20
190.2317195124639966
 30
0.0
 40
0.1231978308978852
 50
207.0263521108448117
 51
216.4669908401463942
  0
ARC
  5
C0D9
  8
0
 10
4342.5508119806809191
 20
189.8985754694336094
 30
0.0
 40
0.5596021019569619
 50
28.0252228263388616
 51
31.7678821773359701
  0
ARC
  5
C0DA
  8
0
 10
4342.7814334931172198
 20
190.0759072502278002
 30
0.0
 40
0.2717582853553022
 50
25.5682698032182714
 51
29.6599070398359217
  0
ARC
  5
C0DB
  8
0
 10
4341.0965846434928608
 20
189.2302804320815994
 30
0.0
 40
2.1593320493211352
 50
24.0505340180709304
 51
25.5474394847929496
  0
ARC
  5
C0DC
  8
0
 10
4343.0260221912876659
 20
190.087889019077096
 30
0.0
 40
0.0479891457032359
 50
6.5122351368535512
 51
27.8389998523101205
  0
ARC
  5
C0DD
  8
0
 10
4343.3622321025495694
 20
190.3036044805882909
 30
0.0
 40
0.3591323464650185
 50
213.2088652144772993
 51
215.8189468223214931
  0
LINE
  5
C0DE
  8
0
 10
4343.0684572322188615
 20
190.1102994052072006
 30
0.0
 11
4343.0266110138536533
 21
190.0894043773207898
 31
0.0
  0
LINE
  5
C0DF
  8
0
 10
4343.01758546468227
 20
190.210387033038387
 30
0.0
 11
4342.9762212747573358
 21
190.1881538137218115
 31
0.0
  0
ARC
  5
C0E0
  8
0
 10
4342.9836585295379336
 20
190.1755827404417971
 30
0.0
 40
0.0146063219902665
 50
120.6092606995496936
 51
142.6369463142916061
  0
ARC
  5
C0E1
  8
0
 10
4342.9831348082007025
 20
190.1770274928337017
 30
0.0
 40
0.0133391744862587
 50
146.2063769733703111
 51
186.2828526067449957
  0
ARC
  5
C0E2
  8
0
 10
4343.0741647329896296
 20
190.2068697666246067
 30
0.0
 40
0.1088853120153429
 50
196.7069941921234886
 51
206.0396990665524868
  0
ARC
  5
C0E3
  8
0
 10
4343.7084021381360799
 20
190.5009410399833882
 30
0.0
 40
0.8079617027680566
 50
205.0322317140229984
 51
207.1662372258701055
  0
ARC
  5
C0E4
  8
0
 10
4343.7529531623431467
 20
190.5216946057315113
 30
0.0
 40
0.8570756940478911
 50
207.0407804984469067
 51
208.9384346958757988
  0
ARC
  5
C0E5
  8
0
 10
4343.1806767782709358
 20
190.2055681482798093
 30
0.0
 40
0.2032898508357634
 50
209.0095049652130967
 51
213.1678235615354993
  0
ARC
  5
C0E6
  8
0
 10
4343.0223575875588722
 20
190.1019890835233923
 30
0.0
 40
0.014098207834788
 50
212.8112177405483862
 51
246.601703443458689
  0
ARC
  5
C0E7
  8
0
 10
4343.0212825927792437
 20
190.1004204881309079
 30
0.0
 40
0.0122371062162519
 50
248.3047181652169115
 51
295.8127517860955891
  0
ARC
  5
C0E8
  8
0
 10
4343.7366190142820415
 20
189.9440454863488981
 30
0.0
 40
0.4760028772711133
 50
207.8096645919989953
 51
212.270789603796203
  0
ARC
  5
C0E9
  8
0
 10
4343.4642581903663086
 20
189.7720604048259077
 30
0.0
 40
0.1538859937173968
 50
212.2707896037865964
 51
222.364065646605809
  0
ARC
  5
C0EA
  8
0
 10
4343.3622103616989989
 20
189.6789952311542038
 30
0.0
 40
0.0157741336685405
 50
222.364065646605809
 51
249.9151899102809011
  0
ARC
  5
C0EB
  8
0
 10
4343.3618688109636423
 20
189.6780611326346104
 30
0.0
 40
0.0147795498609997
 50
249.9151899102809011
 51
293.7278781572326238
  0
LINE
  5
C0EC
  8
0
 10
4343.3678160021981967
 20
189.6645309437776064
 30
0.0
 11
4343.4186647855476622
 21
189.6902518404384921
 31
0.0
  0
ARC
  5
C0ED
  8
0
 10
4343.1537930395734293
 20
189.6341901954851039
 30
0.0
 40
0.2655356843020727
 50
17.944090973387901
 51
28.1939484437588597
  0
ARC
  5
C0EE
  8
0
 10
4343.1275412072081963
 20
189.5675017788524883
 30
0.0
 40
0.3159438486253768
 50
22.8623536945454688
 51
28.0349911149843898
  0
ARC
  5
C0EF
  8
0
 10
4343.3708030748912279
 20
189.6692093605728928
 30
0.0
 40
0.0522831646512264
 50
6.7672039751134943
 51
23.7327704789796883
  0
ARC
  5
C0F0
  8
0
 10
4343.4154556551993664
 20
189.6746506289574938
 30
0.0
 40
0.0073018735138627
 50
337.3990059847383804
 51
5.6552758000219248
  0
ARC
  5
C0F1
  8
0
 10
4343.4204879214903485
 20
189.6728452019835913
 30
0.0
 40
0.0019803277503879
 50
275.3840625868108987
 51
329.6451701504370817
  0
ARC
  5
C0F2
  8
0
 10
4343.4402689304042724
 20
189.7087708273195119
 30
0.0
 40
0.0426634566966164
 50
216.0409257680641986
 51
242.6582550451763041
  0
ARC
  5
C0F3
  8
0
 10
4343.201688761195328
 20
189.6605006867185068
 30
0.0
 40
0.1399908709702603
 50
20.7896300876276996
 51
28.2938325441637417
  0
ARC
  5
C0F4
  8
0
 10
4343.3116268940721056
 20
189.7022397624591008
 30
0.0
 40
0.0223960432619965
 50
10.6673846286484402
 51
20.7889990160825704
  0
ARC
  5
C0F5
  8
0
 10
4343.3281453539029826
 20
189.7053512201158867
 30
0.0
 40
0.0055870967181137
 50
357.9762158335146864
 51
10.6673846286260403
  0
ARC
  5
C0F6
  8
0
 10
4343.3330119039828787
 20
189.7051792537860138
 30
0.0
 40
0.0007175092511611
 50
303.6736784957608961
 51
357.9762158336757807
  0
ARC
  5
C0F7
  8
0
 10
4343.3332350136652167
 20
189.705149397744492
 30
0.0
 40
0.0005935600035988
 50
242.9036884049606897
 51
287.119339151238421
  0
ARC
  5
C0F8
  8
0
 10
4343.3380910611167565
 20
189.7124544959357024
 30
0.0
 40
0.0093618336440673
 50
216.01166266569561
 51
236.7984577119146934
  0
ARC
  5
C0F9
  8
0
 10
4343.4295939221192384
 20
189.780174017038803
 30
0.0
 40
0.1231978308978852
 50
207.0263523816213933
 51
216.466991110891712
  0
ARC
  5
C0FA
  8
0
 10
4343.7386594186482398
 20
189.9401332626661087
 30
0.0
 40
0.4760028772711133
 50
202.8174306813945122
 51
207.2785556932159921
  0
ARC
  5
C0FB
  8
0
 10
4343.4417497216400079
 20
189.8152176171566907
 30
0.0
 40
0.1538859937173968
 50
192.7241546385758113
 51
202.8174306813945122
  0
ARC
  5
C0FC
  8
0
 10
4343.307029643732676
 20
189.7847974512299061
 30
0.0
 40
0.0157741336685405
 50
165.1730303748607867
 51
192.724154638574305
  0
ARC
  5
C0FD
  8
0
 10
4343.3060681765409754
 20
189.7850519660437101
 30
0.0
 40
0.0147795498609997
 50
121.3603421280020029
 51
165.1730303748607867
  0
LINE
  5
C0FE
  8
0
 10
4343.2983766222241684
 20
189.7976723894232123
 30
0.0
 11
4343.3485701328863797
 21
189.8246496906322136
 31
0.0
  0
ARC
  5
C0FF
  8
0
 10
4343.1510077294797156
 20
189.6395306840151136
 30
0.0
 40
0.2655356843020727
 50
26.8942718414558897
 51
37.1441293118418869
  0
ARC
  5
C100
  8
0
 10
4343.0812966414123366
 20
189.6561700294292052
 30
0.0
 40
0.3159438486253768
 50
27.0532291702289704
 51
32.2258665906490123
  0
ARC
  5
C101
  8
0
 10
4343.3039226290848092
 20
189.797444365596192
 30
0.0
 40
0.0522831646512264
 50
31.3554498061844491
 51
48.3210163100932704
  0
ARC
  5
C102
  8
0
 10
4343.3339399737005806
 20
189.8309468931439028
 30
0.0
 40
0.0073018735138627
 50
49.4329444851657129
 51
77.6892143004026394
  0
ARC
  5
C103
  8
0
 10
4343.3353395006533901
 20
189.8361067957497994
 30
0.0
 40
0.0019803277503879
 50
85.4430501347469118
 51
139.7041576983716027
  0
ARC
  5
C104
  8
0
 10
4343.3761207009401915
 20
189.8317671445356041
 30
0.0
 40
0.0426634566966164
 50
172.4299652400046057
 51
199.0472945171520109
  0
ARC
  5
C105
  8
0
 10
4343.1999946477508274
 20
189.6637489399346066
 30
0.0
 40
0.1399908711282217
 50
26.7943877261013697
 51
34.2985901954350183
  0
ARC
  5
C106
  8
0
 10
4343.2971413040359039
 20
189.7300140945343969
 30
0.0
 40
0.0223960432619965
 50
34.2992212691491218
 51
44.4208356565201186
  0
ARC
  5
C107
  8
0
 10
4343.3091465595680347
 20
189.7417790647224933
 30
0.0
 40
0.0055870967181137
 50
44.4208356565914926
 51
57.112004451677862
  0
ARC
  5
C108
  8
0
 10
4343.3117907383712009
 20
189.7458682211824907
 30
0.0
 40
0.0007175092511611
 50
57.1120044514917709
 51
111.4145417893984984
  0
ARC
  5
C109
  8
0
 10
4343.3118939442983901
 20
189.7460682658035012
 30
0.0
 40
0.0005935600035988
 50
127.9688811339141949
 51
172.184531880206805
  0
ARC
  5
C10A
  8
0
 10
4343.3206635611286401
 20
189.7458695774531066
 30
0.0
 40
0.0093618336440673
 50
178.2897625732827009
 51
199.0765576195371125
  0
ARC
  5
C10B
  8
0
 10
4343.4285642987006213
 20
189.7821481929368019
 30
0.0
 40
0.1231978308978852
 50
198.6212291742623108
 51
208.0618679035715104
  0
ARC
  5
C10C
  8
0
 10
4342.6925594494132383
 20
189.6799114347851116
 30
0.0
 40
0.5110278861040093
 50
22.5481420979388716
 51
28.2010871822867202
  0
ARC
  5
C10D
  8
0
 10
4343.0254271338799299
 20
189.8580104665755925
 30
0.0
 40
0.1399908709702603
 50
20.7896300876276996
 51
28.2938325441637417
  0
ARC
  5
C10E
  8
0
 10
4343.1353652667557981
 20
189.8997495423163002
 30
0.0
 40
0.0223960432619965
 50
10.6673846286484402
 51
20.7889990160825704
  0
ARC
  5
C10F
  8
0
 10
4343.1518837265875845
 20
189.9028609999730008
 30
0.0
 40
0.0055870967181137
 50
357.9762158335146864
 51
10.6673846286260403
  0
ARC
  5
C110
  8
0
 10
4343.1567502766665712
 20
189.9026890336430995
 30
0.0
 40
0.0007175092511611
 50
303.6736784957608961
 51
357.9762158336757807
  0
ARC
  5
C111
  8
0
 10
4343.1569733863498186
 20
189.9026591776016062
 30
0.0
 40
0.0005935600035988
 50
242.9036884049606897
 51
287.119339151238421
  0
ARC
  5
C112
  8
0
 10
4343.1618294338013584
 20
189.9099642757927882
 30
0.0
 40
0.0093618336440673
 50
216.01166266569561
 51
236.7984577119146934
  0
ARC
  5
C113
  8
0
 10
4343.2533322948029308
 20
189.9776837968958887
 30
0.0
 40
0.1231978308978852
 50
207.0263523816213933
 51
216.466991110891712
  0
ARC
  5
C114
  8
0
 10
4343.0237330204363388
 20
189.8612587197916923
 30
0.0
 40
0.1399908711282217
 50
26.7943877261013697
 51
34.2985901954350183
  0
ARC
  5
C115
  8
0
 10
4343.1208796767195963
 20
189.9275238743915111
 30
0.0
 40
0.0223960432619965
 50
34.2992212691491218
 51
44.4208356565201186
  0
ARC
  5
C116
  8
0
 10
4343.1328849322517272
 20
189.9392888445796075
 30
0.0
 40
0.0055870967181137
 50
44.4208356565914926
 51
57.112004451677862
  0
ARC
  5
C117
  8
0
 10
4343.1355291110548933
 20
189.9433780010396049
 30
0.0
 40
0.0007175092511611
 50
57.1120044514917709
 51
111.4145417893984984
  0
ARC
  5
C118
  8
0
 10
4343.1356323169820826
 20
189.9435780456607006
 30
0.0
 40
0.0005935600035988
 50
127.9688811339141949
 51
172.184531880206805
  0
ARC
  5
C119
  8
0
 10
4343.1444019338141516
 20
189.9433793573101923
 30
0.0
 40
0.0093618336440673
 50
178.2897625732827009
 51
199.0765576195371125
  0
ARC
  5
C11A
  8
0
 10
4343.2523026713861327
 20
189.9796579727938877
 30
0.0
 40
0.1231978308978852
 50
198.6212291742623108
 51
208.0618679035715104
  0
ARC
  5
C11B
  8
0
 10
4342.960976076172301
 20
189.2181994273053931
 30
0.0
 40
0.5754752159633983
 50
26.1304595962933313
 51
30.1210437872313612
  0
ARC
  5
C11C
  8
0
 10
4343.3073906366798838
 20
189.367460161892609
 30
0.0
 40
0.1995944934806548
 50
22.2002889289063496
 51
31.466412614875459
  0
ARC
  5
C11D
  8
0
 10
4343.4812668450867932
 20
189.4371815746530956
 30
0.0
 40
0.0123174160695262
 50
355.6471741927480821
 51
27.5362419475091897
  0
ARC
  5
C11E
  8
0
 10
4343.4921545293464078
 20
189.4363528298327992
 30
0.0
 40
0.0013982363158355
 50
271.4637643447886717
 51
355.6471741930492954
  0
ARC
  5
C11F
  8
0
 10
4343.4971946542318619
 20
189.445563209093109
 30
0.0
 40
0.011729328046824
 50
225.3205775391404018
 51
244.7443687558562999
  0
ARC
  5
C120
  8
0
 10
4343.6793574050516327
 20
189.6253565604019116
 30
0.0
 40
0.2676755994166819
 50
220.2418211867642981
 51
224.6554231186576942
  0
ARC
  5
C121
  8
0
 10
4342.9332395171040844
 20
189.1939011446461905
 30
0.0
 40
0.6117011841006881
 50
30.785922816776381
 51
36.0454915633766078
  0
ARC
  5
C122
  8
0
 10
4343.3688905420403898
 20
189.5133629828181085
 30
0.0
 40
0.0715020705897464
 50
34.481222198499637
 51
49.8182445234919484
  0
ARC
  5
C123
  8
0
 10
4343.4099470820092392
 20
189.562300876746292
 30
0.0
 40
0.0076260146396362
 50
48.2539751586792391
 51
74.6367782325601752
  0
ARC
  5
C124
  8
0
 10
4343.4106899401122064
 20
189.565004583667104
 30
0.0
 40
0.0048221121313219
 50
74.6367782325601752
 51
93.4880884989367757
  0
ARC
  5
C125
  8
0
 10
4343.4109543439553818
 20
189.567578928627114
 30
0.0
 40
0.0023072718272709
 50
103.9899304771089987
 51
129.1311690286811995
  0
ARC
  5
C126
  8
0
 10
4343.4104699242889183
 20
189.568799494650392
 30
0.0
 40
0.0011261306639196
 50
149.6393972963037982
 51
182.0798351809625899
  0
ARC
  5
C127
  8
0
 10
4343.546759586490225
 20
189.6048371823754053
 30
0.0
 40
0.1420723707693409
 50
194.7110758860254975
 51
203.741929533166001
  0
LINE
  5
C128
  8
0
 10
4343.4278774201038686
 20
189.5537784926007134
 30
0.0
 11
4343.3820120623840921
 21
189.528549795546212
 31
0.0
  0
LINE
  5
C129
  8
0
 10
4343.4854257389679333
 20
189.4576902244045868
 30
0.0
 11
4343.4365709774438074
 21
189.4329795510618055
 31
0.0
  0
ARC
  5
C12A
  8
0
 10
4343.4305187157369801
 20
189.4462729618466028
 30
0.0
 40
0.0146063219902665
 50
272.4512737001174969
 51
294.4789593148793188
  0
ARC
  5
C12B
  8
0
 10
4343.4314037288377222
 20
189.445016639705301
 30
0.0
 40
0.0133391744862587
 50
228.8053674076261075
 51
268.8818430410532869
  0
ARC
  5
C12C
  8
0
 10
4343.4801881234434404
 20
189.4913128666161128
 30
0.0
 40
0.080546660450082
 50
211.893934441330714
 51
224.3781984024240899
  0
ARC
  5
C12D
  8
0
 10
4343.8188035260282049
 20
189.7181326033586117
 30
0.0
 40
0.4880718031401406
 50
210.0063388425510027
 51
213.4988119620882969
  0
ARC
  5
C12E
  8
0
 10
4343.8104681691193036
 20
189.7163885508398096
 30
0.0
 40
0.4799888006447148
 50
206.8627841882932046
 51
210.3236447029588021
  0
ARC
  5
C12F
  8
0
 10
4343.468655786356976
 20
189.544720827140992
 30
0.0
 40
0.0975007498520388
 50
199.1264439622914892
 51
207.6305576778464967
  0
ARC
  5
C130
  8
0
 10
4343.3899072574458842
 20
189.5174710930656943
 30
0.0
 40
0.0141709434811737
 50
163.2961415005410117
 51
199.3560216891378047
  0
ARC
  5
C131
  8
0
 10
4343.388226379543994
 20
189.5177097173466905
 30
0.0
 40
0.012495000326272
 50
119.8244551330833048
 51
162.1287250163892963
  0
ARC
  5
C132
  8
0
 10
4343.1447577737417305
 20
189.327009895422492
 30
0.0
 40
0.2960478481578903
 50
28.087217192214311
 51
30.280579089271729
  0
ARC
  5
C133
  8
0
 10
4343.2613170544827881
 20
189.3892133406027938
 30
0.0
 40
0.1639292101115726
 50
25.7815349400329907
 51
28.087217192214311
  0
ARC
  5
C134
  8
0
 10
4343.3655701165516803
 20
189.4395697964226883
 30
0.0
 40
0.0481515197156614
 50
20.8077040975451411
 51
25.7815349400329907
  0
ARC
  5
C135
  8
0
 10
4343.4039431252449504
 20
189.4541522395597895
 30
0.0
 40
0.0071011184508354
 50
8.7357867734595427
 51
20.8077040974672585
  0
ARC
  5
C136
  8
0
 10
4343.410640168595819
 20
189.4551813125083868
 30
0.0
 40
0.0003254722975166
 50
312.6520975265295874
 51
8.7357867739374466
  0
ARC
  5
C137
  8
0
 10
4343.4107794913243197
 20
189.4551116644641127
 30
0.0
 40
0.0001881538474914
 50
265.3603377238998746
 51
295.5665104960418716
  0
ARC
  5
C138
  8
0
 10
4343.4109032197220586
 20
189.455550115335086
 30
0.0
 40
0.0006412236066324
 50
226.7082926762483908
 51
257.4851939207492251
  0
ARC
  5
C139
  8
0
 10
4343.4214969275426483
 20
189.4668959214266124
 30
0.0
 40
0.0161639093224561
 50
215.3064271655719892
 51
226.9532425671071962
  0
ARC
  5
C13A
  8
0
 10
4343.5725942769977337
 20
189.5743886488507997
 30
0.0
 40
0.2015960611527888
 50
209.4821056297672044
 51
215.4187755602476955
  0
ARC
  5
C13B
  8
0
 10
4343.5991780405620375
 20
189.5935862491074886
 30
0.0
 40
0.2342137179315194
 50
206.235988041282809
 51
210.3697694892942991
  0
ARC
  5
C13C
  8
0
 10
4343.4305804584510042
 20
189.5103292673188946
 30
0.0
 40
0.0461797888915376
 50
199.8697385565380102
 51
206.0522403801595033
  0
ARC
  5
C13D
  8
0
 10
4343.3883746813753532
 20
189.49528140764059
 30
0.0
 40
0.0013856122598902
 50
160.043855684687486
 51
207.8761687637745013
  0
ARC
  5
C13E
  8
0
 10
4343.3871767256132443
 20
189.4955452655999011
 30
0.0
 40
0.0002336965613697
 50
53.97251123012839
 51
116.549683718549403
  0
ARC
  5
C13F
  8
0
 10
4343.3770638727291953
 20
189.4840463845723946
 30
0.0
 40
0.0155459101473967
 50
33.9863533702125622
 51
48.749136391229861
  0
ARC
  5
C140
  8
0
 10
4343.2134425992062461
 20
189.3689331958526907
 30
0.0
 40
0.2156004583445092
 50
29.8632765468251797
 51
35.045411653371211
  0
ARC
  5
C141
  8
0
 10
4343.0575745898040623
 20
188.9804640390898101
 30
0.0
 40
0.5754752159633983
 50
26.1304595962933313
 51
30.1210437872313612
  0
ARC
  5
C142
  8
0
 10
4343.4039891503125546
 20
189.1297247736769975
 30
0.0
 40
0.1995944934806548
 50
22.2002889289063496
 51
31.466412614875459
  0
ARC
  5
C143
  8
0
 10
4343.5778653587203735
 20
189.1994461864375126
 30
0.0
 40
0.0123174160695262
 50
355.6471741927480821
 51
27.5362419475091897
  0
ARC
  5
C144
  8
0
 10
4343.5887530429781691
 20
189.1986174416171878
 30
0.0
 40
0.0013982363158355
 50
271.4637643447886717
 51
355.6471741930492954
  0
ARC
  5
C145
  8
0
 10
4343.5937931678636232
 20
189.2078278208776112
 30
0.0
 40
0.011729328046824
 50
225.3205775391404018
 51
244.7443687558562999
  0
ARC
  5
C146
  8
0
 10
4343.775955918683394
 20
189.3876211721863001
 30
0.0
 40
0.2676755994166819
 50
220.2418211866884121
 51
224.6554231186576942
  0
ARC
  5
C147
  8
0
 10
4343.0298380307367552
 20
188.9561657564306074
 30
0.0
 40
0.6117011841006881
 50
30.785922816776381
 51
36.0454915633766078
  0
ARC
  5
C148
  8
0
 10
4343.4654890556739701
 20
189.2756275946024971
 30
0.0
 40
0.0715020705897464
 50
34.481222198499637
 51
49.8182445234919484
  0
ARC
  5
C149
  8
0
 10
4343.5065455956410005
 20
189.324565488530709
 30
0.0
 40
0.0076260146396362
 50
48.2539751586792391
 51
74.6367782325601752
  0
ARC
  5
C14A
  8
0
 10
4343.5072884537457867
 20
189.3272691954514073
 30
0.0
 40
0.0048221121313219
 50
74.6367782325601752
 51
93.4880884989367757
  0
ARC
  5
C14B
  8
0
 10
4343.5075528575871431
 20
189.3298435404115025
 30
0.0
 40
0.0023072718272709
 50
103.9899304771089987
 51
129.1311690286811995
  0
ARC
  5
C14C
  8
0
 10
4343.5070684379197701
 20
189.331064106434809
 30
0.0
 40
0.0011261306639196
 50
149.6393972963037982
 51
182.0798351809625899
  0
ARC
  5
C14D
  8
0
 10
4343.6433581001228958
 20
189.3671017941597938
 30
0.0
 40
0.1420723707693409
 50
194.7110758860254975
 51
203.7417997018511926
  0
LINE
  5
C14E
  8
0
 10
4343.52447593373563
 20
189.316043104385102
 30
0.0
 11
4343.4786105760158534
 21
189.2908144073307142
 31
0.0
  0
LINE
  5
C14F
  8
0
 10
4343.5820242525996946
 20
189.2199548361890038
 30
0.0
 11
4343.5331694910782971
 21
189.1952441628461941
 31
0.0
  0
ARC
  5
C150
  8
0
 10
4343.5271172293696509
 20
189.208537573631105
 30
0.0
 40
0.0146063219902665
 50
272.4512737001174969
 51
294.4789593148793188
  0
ARC
  5
C151
  8
0
 10
4343.5280022424722119
 20
189.2072812514896896
 30
0.0
 40
0.0133391744862587
 50
228.8053674076261075
 51
268.8818430410532869
  0
ARC
  5
C152
  8
0
 10
4343.5767866370770207
 20
189.2535774784005014
 30
0.0
 40
0.080546660450082
 50
211.893934441330714
 51
224.3781984024240899
  0
ARC
  5
C153
  8
0
 10
4343.9154020396599662
 20
189.4803972151430003
 30
0.0
 40
0.4880718031401406
 50
210.0063388425510027
 51
213.4988119620882969
  0
ARC
  5
C154
  8
0
 10
4343.9070666827537934
 20
189.4786531626241981
 30
0.0
 40
0.4799888006447148
 50
206.8627841882932046
 51
210.3236447029588021
  0
ARC
  5
C155
  8
0
 10
4343.5652542999896468
 20
189.306985438925409
 30
0.0
 40
0.0975007498520388
 50
199.1264439622914892
 51
207.6305576778464967
  0
ARC
  5
C156
  8
0
 10
4343.486505771078555
 20
189.2797357048501112
 30
0.0
 40
0.0141709434811737
 50
163.2961415005410117
 51
199.3560216891378047
  0
ARC
  5
C157
  8
0
 10
4343.4848248931766648
 20
189.2799743291311074
 30
0.0
 40
0.012495000326272
 50
119.8244551330833048
 51
162.1287250163892963
  0
ARC
  5
C158
  8
0
 10
4343.2413562873753108
 20
189.0892745072069943
 30
0.0
 40
0.2960478481578903
 50
28.087217192214311
 51
30.280579089271729
  0
ARC
  5
C159
  8
0
 10
4343.3579155681163684
 20
189.1514779523872107
 30
0.0
 40
0.1639292101115726
 50
25.7815349400329907
 51
28.087217192214311
  0
ARC
  5
C15A
  8
0
 10
4343.4621686301852606
 20
189.2018344082071053
 30
0.0
 40
0.0481515197156614
 50
20.8077040975451411
 51
25.7815349400329907
  0
ARC
  5
C15B
  8
0
 10
4343.5005416388767117
 20
189.2164168513442064
 30
0.0
 40
0.0071011184508354
 50
8.7357867734595427
 51
20.8077040974672585
  0
ARC
  5
C15C
  8
0
 10
4343.5072386822312183
 20
189.2174459242928037
 30
0.0
 40
0.0003254722975166
 50
312.6520975265295874
 51
8.7357867739374466
  0
ARC
  5
C15D
  8
0
 10
4343.507378004956081
 20
189.2173762762485012
 30
0.0
 40
0.0001881538474914
 50
265.3603377238998746
 51
295.5665104960418716
  0
ARC
  5
C15E
  8
0
 10
4343.5075017333556389
 20
189.217814727119503
 30
0.0
 40
0.0006412236066324
 50
226.7082926762483908
 51
257.4851939207492251
  0
ARC
  5
C15F
  8
0
 10
4343.5180954411771381
 20
189.2291605332110009
 30
0.0
 40
0.0161639093224561
 50
215.3064271655719892
 51
226.9532425671071962
  0
ARC
  5
C160
  8
0
 10
4343.6691927906322235
 20
189.3366532606351029
 30
0.0
 40
0.2015960611527888
 50
209.4821056297672044
 51
215.4187755602476955
  0
ARC
  5
C161
  8
0
 10
4343.6957765541947083
 20
189.3558508608919055
 30
0.0
 40
0.2342137179315194
 50
206.235988041282809
 51
210.3697694892942991
  0
ARC
  5
C162
  8
0
 10
4343.527178972083675
 20
189.2725938791033116
 30
0.0
 40
0.0461797888915376
 50
199.8697385565380102
 51
206.0522403801595033
  0
ARC
  5
C163
  8
0
 10
4343.4849731950089335
 20
189.2575460194250923
 30
0.0
 40
0.0013856122598902
 50
160.043855684687486
 51
207.8761687637745013
  0
ARC
  5
C164
  8
0
 10
4343.4837752392450057
 20
189.2578098773844033
 30
0.0
 40
0.0002336965613697
 50
53.97251123012839
 51
116.549683718549403
  0
ARC
  5
C165
  8
0
 10
4343.4736623863609566
 20
189.2463109963568115
 30
0.0
 40
0.0155459101473967
 50
33.9863533702125622
 51
48.749136391229861
  0
ARC
  5
C166
  8
0
 10
4343.3100411128398264
 20
189.131197807636994
 30
0.0
 40
0.2156004583445092
 50
29.8632765468251797
 51
35.045411653371211
  0
ARC
  5
C167
  8
0
 10
4342.9908543989913596
 20
188.6220021666279933
 30
0.0
 40
0.8653517575981272
 50
28.2317933338084508
 51
30.6989711792649409
  0
ARC
  5
C168
  8
0
 10
4343.4255185813426579
 20
188.8477422786671127
 30
0.0
 40
0.3756709437902321
 50
24.4824518932027502
 51
29.2578390849688788
  0
ARC
  5
C169
  8
0
 10
4343.7169685241869956
 20
188.9765384847844132
 30
0.0
 40
0.057162048013625
 50
10.7061074666825302
 51
28.0582916828692888
  0
ARC
  5
C16A
  8
0
 10
4344.0940329307541106
 20
189.2343661264951038
 30
0.0
 40
0.4067313969324628
 50
215.1010403732543068
 51
217.7187588004331928
  0
ARC
  5
C16B
  8
0
 10
4343.0436264947529708
 20
188.6599592547547957
 30
0.0
 40
0.8006171949558361
 50
30.2913197111745802
 51
34.0327284050869991
  0
ARC
  5
C16C
  8
0
 10
4343.6592560251483519
 20
189.113229323185891
 30
0.0
 40
0.0371996609358259
 50
34.9850161870369121
 51
58.8851685462151195
  0
ARC
  5
C16D
  8
0
 10
4343.6761800105869042
 20
189.1417537871286925
 30
0.0
 40
0.0040411632486422
 50
55.3246142168861681
 51
114.3584713240042987
  0
ARC
  5
C16E
  8
0
 10
4343.7462692724066073
 20
189.1614986869273878
 30
0.0
 40
0.0744213081321145
 50
194.435005746019101
 51
205.7970518702169898
  0
LINE
  5
C16F
  8
0
 10
4343.6897337823556882
 20
189.1345582024208056
 30
0.0
 11
4343.6418522698550078
 21
189.1091688871208021
 31
0.0
  0
LINE
  5
C170
  8
0
 10
4343.7674122883536256
 20
189.0034257752708129
 30
0.0
 11
4343.7212195333913769
 21
188.9813278399849139
 31
0.0
  0
ARC
  5
C171
  8
0
 10
4343.7141567108283198
 20
188.9924356855210021
 30
0.0
 40
0.0131631187420527
 50
249.0293424331534879
 51
302.4498696944827998
  0
ARC
  5
C172
  8
0
 10
4343.717563824773606
 20
188.9989542947803898
 30
0.0
 40
0.0204869100251319
 50
209.8442293872521134
 51
246.6556730444434038
  0
ARC
  5
C173
  8
0
 10
4343.786949594552425
 20
189.075697321827505
 30
0.0
 40
0.1231031059419114
 50
214.970761521867189
 51
224.9284093248870136
  0
ARC
  5
C174
  8
0
 10
4346.5485644841483008
 20
190.8986554999900989
 30
0.0
 40
3.4320922220400192
 50
212.9822829930425883
 51
213.4843283311128914
  0
ARC
  5
C175
  8
0
 10
4344.2729396521126546
 20
189.4140379123751075
 30
0.0
 40
0.7150438682522664
 50
210.0937384906264072
 51
212.4573392131339915
  0
ARC
  5
C176
  8
0
 10
4344.305688018876026
 20
189.4246087837749997
 30
0.0
 40
0.7487137060789412
 50
207.7786986520490871
 51
209.5370381896794925
  0
ARC
  5
C177
  8
0
 10
4343.731348446118318
 20
189.119694545879895
 30
0.0
 40
0.0984790221718947
 50
192.5928490782764015
 51
206.557520247255809
  0
ARC
  5
C178
  8
0
 10
4343.6482413185876794
 20
189.0978373157381043
 30
0.0
 40
0.0130086299701945
 50
119.4154885312486982
 51
178.2965855311881
  0
ARC
  5
C179
  8
0
 10
4343.4189371902139101
 20
188.8858832474039104
 30
0.0
 40
0.2960478481578903
 50
28.087217192214311
 51
30.280579089271729
  0
ARC
  5
C17A
  8
0
 10
4343.5354964709549677
 20
188.9480866925842122
 30
0.0
 40
0.1639292101115726
 50
25.7815349400329907
 51
28.087217192214311
  0
ARC
  5
C17B
  8
0
 10
4343.6397495330238598
 20
188.9984431484041068
 30
0.0
 40
0.0481515197156614
 50
20.8077040975451411
 51
25.7815349400329907
  0
ARC
  5
C17C
  8
0
 10
4343.6781225417162204
 20
189.0130255915410942
 30
0.0
 40
0.0071011184508354
 50
8.7357867734595427
 51
20.8077040974672585
  0
ARC
  5
C17D
  8
0
 10
4343.6848195850689081
 20
189.0140546644896915
 30
0.0
 40
0.0003254722975166
 50
312.6520975265295874
 51
8.7357867739374466
  0
ARC
  5
C17E
  8
0
 10
4343.6849589077955898
 20
189.013985016445389
 30
0.0
 40
0.0001881538474914
 50
265.3603377238998746
 51
295.5665104960418716
  0
ARC
  5
C17F
  8
0
 10
4343.6850826361951476
 20
189.0144234673163908
 30
0.0
 40
0.0006412236066324
 50
226.7082926762483908
 51
257.4851939207492251
  0
ARC
  5
C180
  8
0
 10
4343.6956763440148279
 20
189.0257692734080024
 30
0.0
 40
0.0161639093224561
 50
215.3064271655719892
 51
226.9532425671071962
  0
ARC
  5
C181
  8
0
 10
4343.8467736934708228
 20
189.1332620008321044
 30
0.0
 40
0.2015960611527888
 50
209.4821056297672044
 51
215.4187755602476955
  0
ARC
  5
C182
  8
0
 10
4344.1522069754782933
 20
189.3048641679255013
 30
0.0
 40
0.5519337154265748
 50
206.6919574528087082
 51
209.384711314308305
  0
ARC
  5
C183
  8
0
 10
4343.7005780243907793
 20
189.0772208019029961
 30
0.0
 40
0.0461797888915376
 50
199.8697385565380102
 51
206.0522403801595033
  0
ARC
  5
C184
  8
0
 10
4343.6584864237147485
 20
189.0619948014143006
 30
0.0
 40
0.0013856122598902
 50
160.043855684687486
 51
207.8761687637745013
  0
ARC
  5
C185
  8
0
 10
4343.6572884679517301
 20
189.0622586593736116
 30
0.0
 40
0.0002336965613697
 50
53.97251123012839
 51
116.549683718549403
  0
ARC
  5
C186
  8
0
 10
4343.6471756150676811
 20
189.0507597783461051
 30
0.0
 40
0.0155459101473967
 50
33.9863533702125622
 51
48.749136391229861
  0
ARC
  5
C187
  8
0
 10
4343.2717355984532333
 20
188.8106817091641005
 30
0.0
 40
0.461178887418722
 50
29.1272459476454308
 51
32.6703112295775497
  0
ARC
  5
C188
  8
0
 10
4343.3436028376327158
 20
188.5423947644844986
 30
0.0
 40
0.5754752159633983
 50
26.1304595962933313
 51
30.1210437872313612
  0
ARC
  5
C189
  8
0
 10
4343.6900173981412081
 20
188.6916554990716861
 30
0.0
 40
0.1995944934806548
 50
22.2002889289063496
 51
31.466412614875459
  0
ARC
  5
C18A
  8
0
 10
4343.863893606547208
 20
188.7613769118322011
 30
0.0
 40
0.0123174160695262
 50
355.6471741927480821
 51
27.5362419475091897
  0
ARC
  5
C18B
  8
0
 10
4343.8747812908059132
 20
188.7605481670119048
 30
0.0
 40
0.0013982363158355
 50
271.4637643447886717
 51
355.6471741930492954
  0
ARC
  5
C18C
  8
0
 10
4343.8798214156931863
 20
188.7697585462721861
 30
0.0
 40
0.011729328046824
 50
225.3205775391404018
 51
244.7443687558562999
  0
ARC
  5
C18D
  8
0
 10
4344.061984166511138
 20
188.9495518975809887
 30
0.0
 40
0.2676755994166819
 50
220.2418211867631044
 51
224.6554231186576942
  0
ARC
  5
C18E
  8
0
 10
4342.7017075166204449
 20
188.1797390398336915
 30
0.0
 40
1.3127116629978619
 50
29.7528341134012315
 51
33.3430020593584118
  0
ARC
  5
C18F
  8
0
 10
4343.7394003685258212
 20
188.8607910483052876
 30
0.0
 40
0.0715020705897464
 50
34.481222198499637
 51
49.8182445234919484
  0
ARC
  5
C190
  8
0
 10
4343.7804569084928517
 20
188.9097289422333859
 30
0.0
 40
0.0076260146396362
 50
48.2539751586792391
 51
74.6367782325601752
  0
ARC
  5
C191
  8
0
 10
4343.7811997665967283
 20
188.9124326491541979
 30
0.0
 40
0.0048221121313219
 50
74.6367782325601752
 51
93.4880884989367757
  0
ARC
  5
C192
  8
0
 10
4343.7814641704389942
 20
188.9150069941142931
 30
0.0
 40
0.0023072718272709
 50
103.9899304771089987
 51
129.1311690286811995
  0
ARC
  5
C193
  8
0
 10
4343.7809797507716212
 20
188.9162275601374859
 30
0.0
 40
0.0011261306639196
 50
149.6393972963037982
 51
182.0798351809625899
  0
ARC
  5
C194
  8
0
 10
4343.917269412974747
 20
188.9522652478624991
 30
0.0
 40
0.1420723707693409
 50
194.7110758860254975
 51
203.741929533194309
  0
LINE
  5
C195
  8
0
 10
4343.7983872465893
 20
188.9012065580878073
 30
0.0
 11
4343.7525218888677045
 21
188.875977861033391
 31
0.0
  0
LINE
  5
C196
  8
0
 10
4343.8680525004292576
 20
188.7818855615836924
 30
0.0
 11
4343.8191977389060412
 21
188.7571748882409111
 31
0.0
  0
ARC
  5
C197
  8
0
 10
4343.8131454771983044
 20
188.7704682990257083
 30
0.0
 40
0.0146063219902665
 50
272.4512737001174969
 51
294.4789593148793188
  0
ARC
  5
C198
  8
0
 10
4343.8140304902990465
 20
188.7692119768844066
 30
0.0
 40
0.0133391744862587
 50
228.8053674076261075
 51
268.8818430410532869
  0
ARC
  5
C199
  8
0
 10
4343.8628148849038553
 20
188.81550820379519
 30
0.0
 40
0.080546660450082
 50
211.893934441330714
 51
224.3781984024240899
  0
ARC
  5
C19A
  8
0
 10
4344.2014302874886198
 20
189.0423279405376888
 30
0.0
 40
0.4880718031401406
 50
210.0063388425510027
 51
213.4988119620882969
  0
ARC
  5
C19B
  8
0
 10
4345.3000645168585834
 20
189.6416529067344925
 30
0.0
 40
1.7394421837757781
 50
207.1861641771745042
 51
209.0041173718632876
  0
ARC
  5
C19C
  8
0
 10
4343.8391656128424074
 20
188.8921488926280858
 30
0.0
 40
0.0975007498520388
 50
199.1264439622914892
 51
207.6305576778464967
  0
ARC
  5
C19D
  8
0
 10
4343.7604170839313156
 20
188.8648991585527881
 30
0.0
 40
0.0141709434811737
 50
163.2961415005410117
 51
199.3560216891378047
  0
ARC
  5
C19E
  8
0
 10
4343.7587362060294254
 20
188.865137782833898
 30
0.0
 40
0.012495000326272
 50
119.8244551330833048
 51
162.1287250163892963
  0
ARC
  5
C19F
  8
0
 10
4343.5273845352021453
 20
188.6512052326017113
 30
0.0
 40
0.2960478481578903
 50
28.087217192214311
 51
30.280579089271729
  0
ARC
  5
C1A0
  8
0
 10
4343.6439438159450219
 20
188.7134086777818993
 30
0.0
 40
0.1639292101115726
 50
25.7815349400329907
 51
28.087217192214311
  0
ARC
  5
C1A1
  8
0
 10
4343.7481968780120951
 20
188.7637651336017939
 30
0.0
 40
0.0481515197156614
 50
20.8077040975451411
 51
25.7815349400329907
  0
ARC
  5
C1A2
  8
0
 10
4343.7865698867062747
 20
188.778347576738895
 30
0.0
 40
0.0071011184508354
 50
8.7357867734595427
 51
20.8077040974672585
  0
ARC
  5
C1A3
  8
0
 10
4343.7932669300571433
 20
188.7793766496874923
 30
0.0
 40
0.0003254722975166
 50
312.6520975265295874
 51
8.7357867739374466
  0
ARC
  5
C1A4
  8
0
 10
4343.7934062527847345
 20
188.7793070016431898
 30
0.0
 40
0.0001881538474914
 50
265.3603377238998746
 51
295.5665104960418716
  0
ARC
  5
C1A5
  8
0
 10
4343.7935299811833829
 20
188.7797454525141916
 30
0.0
 40
0.0006412236066324
 50
226.7082926762483908
 51
257.4851939207492251
  0
ARC
  5
C1A6
  8
0
 10
4343.8041236890057917
 20
188.7910912586056895
 30
0.0
 40
0.0161639093224561
 50
215.3064271655719892
 51
226.9532425671071962
  0
ARC
  5
C1A7
  8
0
 10
4343.955221038460877
 20
188.8985839860297915
 30
0.0
 40
0.2015960611527888
 50
209.4821056297672044
 51
215.4187755602476955
  0
ARC
  5
C1A8
  8
0
 10
4345.1168043983407188
 20
189.5299363149457861
 30
0.0
 40
1.5236464283916309
 50
207.0312229677026892
 51
208.6518819767588866
  0
ARC
  5
C1A9
  8
0
 10
4343.8010902849364356
 20
188.8577573328059884
 30
0.0
 40
0.0461797888915376
 50
199.8697385565380102
 51
206.0522403801595033
  0
ARC
  5
C1AA
  8
0
 10
4343.7588845078598752
 20
188.8427094731277975
 30
0.0
 40
0.0013856122598902
 50
160.043855684687486
 51
207.8761687637745013
  0
ARC
  5
C1AB
  8
0
 10
4343.7576865520968568
 20
188.8429733310871086
 30
0.0
 40
0.0002336965613697
 50
53.97251123012839
 51
116.549683718549403
  0
ARC
  5
C1AC
  8
0
 10
4343.7475736992128077
 20
188.8314744500596021
 30
0.0
 40
0.0155459101473967
 50
33.9863533702125622
 51
48.749136391229861
  0
ARC
  5
C1AD
  8
0
 10
4342.7444701200865893
 20
188.2358315846549885
 30
0.0
 40
1.182142847318191
 50
28.532075307200639
 51
30.7450086515153806
  0
LINE
  5
C1AE
  8
0
 10
4343.9169926014656085
 20
188.6744098836171872
 30
0.0
 11
4343.8733362045459216
 21
188.6510445538156944
 31
0.0
  0
LINE
  5
C1AF
  8
0
 10
4344.0008200673282772
 20
188.547742034094199
 30
0.0
 11
4343.9547747445385539
 21
188.5244523711239992
 31
0.0
  0
ARC
  5
C1B0
  8
0
 10
4343.9487224828308172
 20
188.5377457819087965
 30
0.0
 40
0.0146063219902665
 50
272.4512737001174969
 51
294.4789593148793188
  0
ARC
  5
C1B1
  8
0
 10
4343.9499365395149653
 20
188.5361538907555996
 30
0.0
 40
0.0130144163426928
 50
225.1914075649291931
 51
267.4045164053142116
  0
ARC
  5
C1B2
  8
0
 10
4343.9983345797436414
 20
188.5832542608414997
 30
0.0
 40
0.080546660450082
 50
211.893934441330714
 51
224.3781984024240899
  0
ARC
  5
C1B3
  8
0
 10
4346.5705834829996093
 20
190.3887454650700874
 30
0.0
 40
3.2230785837769571
 50
214.4735230215412969
 51
214.9862420467862023
  0
ARC
  5
C1B4
  8
0
 10
4345.3607787464334251
 20
189.5572520827329015
 30
0.0
 40
1.755084079765616
 50
212.1669907864848028
 51
214.4509028980735081
  0
ARC
  5
C1B5
  8
0
 10
4343.9772637952173682
 20
188.6890847047770023
 30
0.0
 40
0.1217475255754643
 50
206.1977743514028987
 51
212.9501077343520876
  0
ARC
  5
C1B6
  8
0
 10
4343.8796339637456185
 20
188.6401815176870116
 30
0.0
 40
0.0125814620304107
 50
162.1458319652203102
 51
202.64843642908059
  0
ARC
  5
C1B7
  8
0
 10
4343.8795505217076425
 20
188.6402044756162013
 30
0.0
 40
0.012495000326272
 50
119.8244551330833048
 51
162.1287250163892963
  0
ARC
  5
C1B8
  8
0
 10
4343.6507419189001666
 20
188.434743656834911
 30
0.0
 40
0.2960478481578903
 50
28.087217192214311
 51
30.280579089271729
  0
ARC
  5
C1B9
  8
0
 10
4343.7673011996412242
 20
188.4969471020150991
 30
0.0
 40
0.1639292101115726
 50
25.7815349400329907
 51
28.087217192214311
  0
ARC
  5
C1BA
  8
0
 10
4343.8715542617101164
 20
188.5473035578351073
 30
0.0
 40
0.0481515197156614
 50
20.8077040975451411
 51
25.7815349400329907
  0
ARC
  5
C1BB
  8
0
 10
4343.9099272704015675
 20
188.5618860009720947
 30
0.0
 40
0.0071011184508354
 50
8.7357867734595427
 51
20.8077040974672585
  0
ARC
  5
C1BC
  8
0
 10
4343.9166243137551646
 20
188.5629150739208058
 30
0.0
 40
0.0003254722975166
 50
312.6520975265295874
 51
8.7357867739374466
  0
ARC
  5
C1BD
  8
0
 10
4343.9167636364818463
 20
188.5628454258763895
 30
0.0
 40
0.0001881538474914
 50
265.3603377238998746
 51
295.5665104960418716
  0
ARC
  5
C1BE
  8
0
 10
4343.9168873648823137
 20
188.5632838767473913
 30
0.0
 40
0.0006412236066324
 50
226.7082926762483908
 51
257.4851939207492251
  0
ARC
  5
C1BF
  8
0
 10
4343.927481072701994
 20
188.574629682839003
 30
0.0
 40
0.0161639093224561
 50
215.3064271655719892
 51
226.9532425671071962
  0
ARC
  5
C1C0
  8
0
 10
4344.0785784221570793
 20
188.6821224102631049
 30
0.0
 40
0.2015960611527888
 50
209.4821056297672044
 51
215.4187755602476955
  0
ARC
  5
C1C1
  8
0
 10
4344.1051621857195641
 20
188.7013200105199076
 30
0.0
 40
0.2342137179315194
 50
206.235988041282809
 51
210.3697694892942991
  0
ARC
  5
C1C2
  8
0
 10
4343.9365646036094404
 20
188.6180630287313136
 30
0.0
 40
0.0461797888915376
 50
199.8697385565380102
 51
206.0522403801595033
  0
ARC
  5
C1C3
  8
0
 10
4343.8943588265337894
 20
188.603015169053009
 30
0.0
 40
0.0013856122598902
 50
160.043855684687486
 51
207.8761687637745013
  0
ARC
  5
C1C4
  8
0
 10
4343.893160870768952
 20
188.6032790270122916
 30
0.0
 40
0.0002336965613697
 50
53.97251123012839
 51
116.549683718549403
  0
ARC
  5
C1C5
  8
0
 10
4343.8830480178849029
 20
188.5917801459848135
 30
0.0
 40
0.0155459101473967
 50
33.9863533702125622
 51
48.749136391229861
  0
ARC
  5
C1C6
  8
0
 10
4343.7194267443646822
 20
188.476666957264996
 30
0.0
 40
0.2156004583445092
 50
29.8632765468251797
 51
35.045411653371211
  0
ARC
  5
C1C7
  8
0
 10
4342.7947551235411083
 20
189.4258762371636067
 30
0.0
 40
0.5754752159633983
 50
26.1304595962933313
 51
30.1210437872313612
  0
ARC
  5
C1C8
  8
0
 10
4343.1411696840496006
 20
189.5751369717509078
 30
0.0
 40
0.1995944934806548
 50
22.2002889289063496
 51
31.466412614875459
  0
ARC
  5
C1C9
  8
0
 10
4343.3150458924546911
 20
189.6448583845113944
 30
0.0
 40
0.0123174160695262
 50
355.6471741927480821
 51
27.5362419475091897
  0
ARC
  5
C1CA
  8
0
 10
4343.3259335767143057
 20
189.6440296396910128
 30
0.0
 40
0.0013982363158355
 50
271.4637643447886717
 51
355.6471741930492954
  0
ARC
  5
C1CB
  8
0
 10
4343.3309737016006693
 20
189.6532400189514078
 30
0.0
 40
0.011729328046824
 50
225.3205775391404018
 51
244.7443687558562999
  0
ARC
  5
C1CC
  8
0
 10
4343.51313645242044
 20
189.8330333702602104
 30
0.0
 40
0.2676755994166819
 50
220.2419155420325012
 51
224.6554231186576942
  0
ARC
  5
C1CD
  8
0
 10
4342.7670185644747107
 20
189.4015779545044893
 30
0.0
 40
0.6117011841006881
 50
30.785922816776381
 51
36.0454915633766078
  0
ARC
  5
C1CE
  8
0
 10
4343.2026695894091972
 20
189.7210397926764074
 30
0.0
 40
0.0715020705897464
 50
34.481222198499637
 51
49.8182445234919484
  0
ARC
  5
C1CF
  8
0
 10
4343.2437261293780466
 20
189.7699776866045909
 30
0.0
 40
0.0076260146396362
 50
48.2539751586792391
 51
74.6367782325601752
  0
ARC
  5
C1D0
  8
0
 10
4343.2444689874819233
 20
189.7726813935252039
 30
0.0
 40
0.0048221121313219
 50
74.6367782325601752
 51
93.4880884989367757
  0
ARC
  5
C1D1
  8
0
 10
4343.2447333913241891
 20
189.7752557384854128
 30
0.0
 40
0.0023072718272709
 50
103.9899304771089987
 51
129.1311690286811995
  0
ARC
  5
C1D2
  8
0
 10
4343.2442489716568161
 20
189.7764763045086056
 30
0.0
 40
0.0011261306639196
 50
149.6393972963037982
 51
182.0798351809625899
  0
ARC
  5
C1D3
  8
0
 10
4343.3805386338590324
 20
189.8125139922337041
 30
0.0
 40
0.1420723707693409
 50
194.7110758860254975
 51
203.7417997018511926
  0
LINE
  5
C1D4
  8
0
 10
4343.2616564674735855
 20
189.7614553024588986
 30
0.0
 11
4343.21579110975199
 21
189.7362266054045108
 31
0.0
  0
LINE
  5
C1D5
  8
0
 10
4343.3192044968473056
 20
189.6653668878392978
 30
0.0
 11
4343.2703500248153432
 21
189.6406563609199907
 31
0.0
  0
ARC
  5
C1D6
  8
0
 10
4343.2642977631057875
 20
189.6539497717049017
 30
0.0
 40
0.0146063219902665
 50
272.4512737001174969
 51
294.4789593148793188
  0
ARC
  5
C1D7
  8
0
 10
4343.265182776207439
 20
189.6526934495634862
 30
0.0
 40
0.0133391744862587
 50
228.8053674076261075
 51
268.8818430410532869
  0
ARC
  5
C1D8
  8
0
 10
4343.3139671708122478
 20
189.698989676474298
 30
0.0
 40
0.080546660450082
 50
211.893934441330714
 51
224.3781984024240899
  0
ARC
  5
C1D9
  8
0
 10
4343.6525825733970123
 20
189.9258094132169106
 30
0.0
 40
0.4880718031401406
 50
210.0063388425510027
 51
213.4988119620882969
  0
ARC
  5
C1DA
  8
0
 10
4343.6442472164890205
 20
189.9240653606979947
 30
0.0
 40
0.4799888006447148
 50
206.8627841882932046
 51
210.3236447029588021
  0
ARC
  5
C1DB
  8
0
 10
4343.3024348337248739
 20
189.7523976369992056
 30
0.0
 40
0.0975007498520388
 50
199.1264439622914892
 51
207.6305576778464967
  0
ARC
  5
C1DC
  8
0
 10
4343.223686304815601
 20
189.7251479029239931
 30
0.0
 40
0.0141709434811737
 50
163.2961415005410117
 51
199.3560216891393111
  0
ARC
  5
C1DD
  8
0
 10
4343.2220054269137108
 20
189.7253865272049893
 30
0.0
 40
0.012495000326272
 50
119.8244551330833048
 51
162.1287250163892963
  0
ARC
  5
C1DE
  8
0
 10
4342.9785368211096284
 20
189.5346867052807909
 30
0.0
 40
0.2960478481578903
 50
28.087217192214311
 51
30.280579089271729
  0
ARC
  5
C1DF
  8
0
 10
4343.0950961018534144
 20
189.5968901504610074
 30
0.0
 40
0.1639292101115726
 50
25.7815349400329907
 51
28.087217192214311
  0
ARC
  5
C1E0
  8
0
 10
4343.1993491639195781
 20
189.6472466062809872
 30
0.0
 40
0.0481515197156614
 50
20.8077040975451411
 51
25.7815349400329907
  0
ARC
  5
C1E1
  8
0
 10
4343.2377221726146672
 20
189.661829049418003
 30
0.0
 40
0.0071011184508354
 50
8.7357867734595427
 51
20.8077040974672585
  0
ARC
  5
C1E2
  8
0
 10
4343.2444192159664453
 20
189.662858122366714
 30
0.0
 40
0.0003254722975166
 50
312.6520975265295874
 51
8.7357867739374466
  0
ARC
  5
C1E3
  8
0
 10
4343.2445585386940365
 20
189.6627884743222978
 30
0.0
 40
0.0001881538474914
 50
265.3603377238998746
 51
295.5665104960418716
  0
ARC
  5
C1E4
  8
0
 10
4343.2446822670917754
 20
189.6632269251934133
 30
0.0
 40
0.0006412236066324
 50
226.7082926762483908
 51
257.4851939207492251
  0
ARC
  5
C1E5
  8
0
 10
4343.2552759749141842
 20
189.6745727312847976
 30
0.0
 40
0.0161639093224561
 50
215.3064271655719892
 51
226.9532425671071962
  0
ARC
  5
C1E6
  8
0
 10
4343.4063733243692695
 20
189.7820654587090132
 30
0.0
 40
0.2015960611527888
 50
209.4821056297672044
 51
215.4187755602476955
  0
ARC
  5
C1E7
  8
0
 10
4343.4329570879326639
 20
189.8012630589657874
 30
0.0
 40
0.2342137179315194
 50
206.235988041282809
 51
210.3697694892942991
  0
ARC
  5
C1E8
  8
0
 10
4343.2643595058198116
 20
189.7180060771771082
 30
0.0
 40
0.0461797888915376
 50
199.8697385565380102
 51
206.0522403801595033
  0
ARC
  5
C1E9
  8
0
 10
4343.2221537287441606
 20
189.7029582174988889
 30
0.0
 40
0.0013856122598902
 50
160.043855684687486
 51
207.8761687637745013
  0
ARC
  5
C1EA
  8
0
 10
4343.2209557729820517
 20
189.7032220754581999
 30
0.0
 40
0.0002336965613697
 50
53.97251123012839
 51
116.549683718549403
  0
ARC
  5
C1EB
  8
0
 10
4343.2108429200980027
 20
189.6917231944306081
 30
0.0
 40
0.0155459101473967
 50
33.9863533702125622
 51
48.749136391229861
  0
ARC
  5
C1EC
  8
0
 10
4343.0472216465750535
 20
189.5766100057109043
 30
0.0
 40
0.2156004583445092
 50
29.8632765468251797
 51
35.045411653371211
  0
ARC
  5
C1ED
  8
0
 10
4342.1515571212403302
 20
188.7709977138528927
 30
0.0
 40
1.426066390531094
 50
28.0220222790071993
 51
29.5259710642251108
  0
ARC
  5
C1EE
  8
0
 10
4386.4187440721070743
 20
216.4815718578520034
 30
0.0
 40
50.8004388144722085
 50
212.0534314143085908
 51
212.1166465698387071
  0
LINE
  5
C1EF
  8
0
 10
4343.8051014922320974
 20
188.7593216501011
 30
0.0
 11
4343.7868180435780232
 21
188.7500727680252908
 31
0.0
  0
ARC
  5
C1F0
  8
0
 10
4343.7814868400637351
 20
188.7606116401761085
 30
0.0
 40
0.0118105697207404
 50
212.6294066190577041
 51
296.8330654736355996
  0
LINE
  5
C1F1
  8
0
 10
4343.7715402644598726
 20
188.7542433444141921
 30
0.0
 11
4343.7248007599491757
 21
188.8272452954273888
 31
0.0
  0
ARC
  5
C1F2
  8
0
 10
4343.734742356769857
 20
188.8336104035234939
 30
0.0
 40
0.0118046579116614
 50
118.8241228294818939
 51
212.6294066190604042
  0
LINE
  5
C1F3
  8
0
 10
4343.7290510646807888
 20
188.8439525088602124
 30
0.0
 11
4343.7490373613109114
 21
188.85495622536979
 31
0.0
  0
LINE
  5
C1F4
  8
0
 10
4343.6980474741358194
 20
188.9905457647178935
 30
0.0
 11
4343.6526503935110668
 21
188.9676170053697888
 31
0.0
  0
ARC
  5
C1F5
  8
0
 10
4343.6471798287129786
 20
188.9786023838863969
 30
0.0
 40
0.0122721481555543
 50
213.5944930927678911
 51
296.4726622492805745
  0
ARC
  5
C1F6
  8
0
 10
4344.3977007507028247
 20
189.5040312455336107
 30
0.0
 40
0.9284328936067113
 50
209.4851234520301944
 51
214.9767958966806987
  0
ARC
  5
C1F7
  8
0
 10
4343.6002724832533204
 20
189.052032906976109
 30
0.0
 40
0.0118486716704183
 50
116.3099062223720068
 51
204.6116758052752118
  0
LINE
  5
C1F8
  8
0
 10
4343.5950208417307294
 20
189.0626541725164884
 30
0.0
 11
4343.6388105823807564
 21
189.0860068391727964
 31
0.0
  0
LINE
  5
C1F9
  8
0
 10
4343.5277419380618085
 20
189.1939446170719918
 30
0.0
 11
4343.5045934018744447
 21
189.1818318753238941
 31
0.0
  0
ARC
  5
C1FA
  8
0
 10
4343.4994203516216658
 20
189.1946794547019977
 30
0.0
 40
0.0138499366354074
 50
227.4525184888028093
 51
291.9320751329348127
  0
LINE
  5
C1FB
  8
0
 10
4343.490055011120603
 20
189.1844759679391075
 30
0.0
 11
4343.4458098341892764
 21
189.2600935277025087
 31
0.0
  0
ARC
  5
C1FC
  8
0
 10
4343.4560046220503864
 20
189.2660582800943132
 30
0.0
 40
0.0118113220729689
 50
118.3351971488158938
 51
210.330951652754095
  0
LINE
  5
C1FD
  8
0
 10
4343.4503986260406236
 20
189.2764544398586111
 30
0.0
 11
4343.5133451544261334
 21
189.3099205083084939
 31
0.0
  0
LINE
  5
C1FE
  8
0
 10
4343.3051610904985864
 20
189.6020539422173101
 30
0.0
 11
4343.2643473459829693
 21
189.5811731396426012
 31
0.0
  0
ARC
  5
C1FF
  8
0
 10
4343.2592319807727108
 20
189.5927313190626933
 30
0.0
 40
0.0126395598315314
 50
204.2920834175500886
 51
293.8729998926144162
  0
LINE
  5
C200
  8
0
 10
4343.2477115259644052
 20
189.5875315504420939
 30
0.0
 11
4343.0994976533111185
 21
189.8549394134109889
 31
0.0
  0
ARC
  5
C201
  8
0
 10
4343.1122143942484399
 20
189.862517895692605
 30
0.0
 40
0.0148178885612017
 50
168.8041917800179021
 51
211.2793729964047884
  0
LINE
  5
C202
  8
0
 10
4343.2227880597793046
 20
189.7621658478705058
 30
0.0
 11
4343.1779248483080664
 21
189.7384797053425132
 31
0.0
  0
ARC
  5
C203
  8
0
 10
4343.1717719773778299
 20
189.750133673450307
 30
0.0
 40
0.0131784973846382
 50
228.7087085294058966
 51
297.8324229100576872
  0
LINE
  5
C204
  8
0
 10
4343.2186318629010202
 20
189.7021626353117938
 30
0.0
 11
4343.2017927634651642
 21
189.6932722037929011
 31
0.0
  0
ARC
  5
C205
  8
0
 10
4343.1965030057472177
 20
189.7032913750761054
 30
0.0
 40
0.0113298424477255
 50
209.7346277465541959
 51
297.8324229101166907
  0
LINE
  5
C206
  8
0
 10
4343.2612698356815599
 20
189.6401115245909068
 30
0.0
 11
4343.2376468764341553
 21
189.6277910662549004
 31
0.0
  0
ARC
  5
C207
  8
0
 10
4343.2323896544730815
 20
189.640318302094613
 30
0.0
 40
0.0135856549543153
 50
235.2082247213986932
 51
292.7660082338779262
  0
LINE
  5
C208
  8
0
 10
4343.2327686747548796
 20
189.745565284212887
 30
0.0
 11
4343.1833394809600577
 21
189.8277799052598027
 31
0.0
  0
ARC
  5
C209
  8
0
 10
4342.6286909552236466
 20
189.5807073684503905
 30
0.0
 40
0.6117492322380553
 50
22.8294655807067102
 51
28.8481241216681283
  0
ARC
  5
C20A
  8
0
 10
4342.8951521389071786
 20
189.6982370849646884
 30
0.0
 40
0.3205993519425521
 50
20.8378046356491318
 51
21.9468122341408893
  0
ARC
  5
C20B
  8
0
 10
4343.1901185016549789
 20
189.810507057946495
 30
0.0
 40
0.0049893045948908
 50
355.8475707186967725
 51
20.8378046356810884
  0
ARC
  5
C20C
  8
0
 10
4343.1944917845530654
 20
189.8101895544716058
 30
0.0
 40
0.0006045113547757
 50
246.1828045528667985
 51
355.8475707189778063
  0
LINE
  5
C20D
  8
0
 10
4343.1874248207886922
 20
189.8298129497069908
 30
0.0
 11
4343.1435880787212227
 21
189.8079047884274928
 31
0.0
  0
ARC
  5
C20E
  8
0
 10
4343.1386072621071435
 20
189.8197894902563121
 30
0.0
 40
0.0128862202249832
 50
205.8923629622649116
 51
292.7383038165310722
  0
LINE
  5
C20F
  8
0
 10
4343.1270146123051745
 20
189.8141623113677952
 30
0.0
 11
4343.0976784995445996
 21
189.8653949752201981
 31
0.0
  0
LINE
  5
C210
  8
0
 10
4343.0976784995445996
 20
189.8653949752201981
 30
0.0
 11
4343.0495755505226043
 21
189.9701646707734142
 31
0.0
  0
ARC
  5
C211
  8
0
 10
4343.0601742142098374
 20
189.9795798917122909
 30
0.0
 40
0.0141766729962654
 50
126.0032856565847936
 51
221.6159786855606058
  0
LINE
  5
C212
  8
0
 10
4343.0518407172039588
 20
189.9910485832201061
 30
0.0
 11
4343.0899501254862116
 21
190.0110082529457998
 31
0.0
  0
ARC
  5
C213
  8
0
 10
4348.112885550838655
 20
192.920268142891814
 30
0.0
 40
5.8046251726109928
 50
210.0792012179879862
 51
211.1066768030817968
  0
LINE
  5
C214
  8
0
 10
4343.0899494240311469
 20
190.0110094640307068
 30
0.0
 11
4343.0398017215811706
 21
190.0959908794357887
 31
0.0
  0
ARC
  5
C215
  8
0
 10
4343.0763121666623192
 20
190.0970672357184128
 30
0.0
 40
0.0064191045379461
 50
214.5050552541995046
 51
236.2183795775866031
  0
ARC
  5
C216
  8
0
 10
4343.0719154206499297
 20
190.0933150237175084
 30
0.0
 40
0.0017863521069307
 50
297.597385340575272
 51
0.535731332798587
  0
ARC
  5
C217
  8
0
 10
4343.2173316051048459
 20
190.2836991269793998
 30
0.0
 40
0.2203606033291146
 50
195.6703604165766137
 51
200.4351987954752019
  0
ARC
  5
C218
  8
0
 10
4342.9792371373241622
 20
190.1909484204001899
 30
0.0
 40
0.042993649211068
 50
26.8802665357050898
 51
51.1243504601346288
  0
LINE
  5
C219
  8
0
 10
4343.0051614525000332
 20
190.2241791988591899
 30
0.0
 11
4343.0062213381552283
 21
190.2244194045208019
 31
0.0
  0
ARC
  5
C21A
  8
0
 10
4342.7512503008292697
 20
190.0111246218187091
 30
0.0
 40
0.2701595570533845
 50
22.0183942004230317
 51
32.0501736098624406
  0
ARC
  5
C21B
  8
0
 10
4343.2370205870938662
 20
190.2590031882610049
 30
0.0
 40
0.2772421792949818
 50
202.1468494459979013
 51
211.921718364307111
  0
ARC
  5
C21C
  8
0
 10
4342.4276013503322247
 20
189.549059384067391
 30
0.0
 40
0.7467226196467838
 50
25.5165117837994302
 51
29.7465798420331815
  0
ARC
  5
C21D
  8
0
 10
4343.7621401219748805
 20
190.2477172743834046
 30
0.0
 40
0.7606460961649609
 50
205.558046582846913
 51
209.7106524610659051
  0
ARC
  5
C21E
  8
0
 10
4343.0812109573598718
 20
189.9353990585645136
 30
0.0
 40
0.0117862327311461
 50
111.8600310027359939
 51
181.8657831652695052
  0
ARC
  5
C21F
  8
0
 10
4343.1178596282597937
 20
189.8647152816973005
 30
0.0
 40
0.0111494041898182
 50
230.0057465734533935
 51
304.8259039249721809
  0
LINE
  5
C220
  8
0
 10
4343.1327247265053302
 20
189.8083243061506948
 30
0.0
 11
4343.0652872532828042
 21
189.9359441011800129
 31
0.0
  0
LINE
  5
C221
  8
0
 10
4343.0768224662551802
 20
189.9463378166207974
 30
0.0
 11
4343.1162366101652879
 21
189.9660892792861091
 31
0.0
  0
LINE
  5
C222
  8
0
 10
4343.1242268830546891
 20
189.8555628350208053
 30
0.0
 11
4343.1647945321547013
 21
189.876006723720792
 31
0.0
  0
ARC
  5
C223
  8
0
 10
4343.1366578112392745
 20
189.9676003999294949
 30
0.0
 40
0.0128485466922876
 50
118.8856333962087035
 51
191.852040450585605
  0
ARC
  5
C224
  8
0
 10
4343.3126299760624534
 20
190.0214323391330993
 30
0.0
 40
0.1968218740049552
 50
196.6732573904286028
 51
211.8769711932694975
  0
ARC
  5
C225
  8
0
 10
4343.290274812896314
 20
189.9865595909195122
 30
0.0
 40
0.1604135203869556
 50
205.5033658436327073
 51
220.2593125557797009
  0
ARC
  5
C226
  8
0
 10
4343.1766617949760985
 20
189.8922756206239058
 30
0.0
 40
0.0129127344975493
 50
226.8480033541814009
 51
295.1420987408467909
  0
LINE
  5
C227
  8
0
 10
4343.1304511556545549
 20
189.9788504034208074
 30
0.0
 11
4343.1764515880931867
 21
190.002832482686614
 31
0.0
  0
ARC
  5
C228
  8
0
 10
4343.0455156982043263
 20
189.921597408673108
 30
0.0
 40
0.1540887552656932
 50
24.8274745172843794
 51
31.8162380156831794
  0
ARC
  5
C229
  8
0
 10
4343.0269654906132928
 20
189.8580056288880087
 30
0.0
 40
0.2038345590318783
 50
17.8504123855136108
 51
39.005227327444068
  0
ARC
  5
C22A
  8
0
 10
4343.1814980365988959
 20
189.8888877947667027
 30
0.0
 40
0.0505763056102088
 50
355.4674527023167911
 51
38.6669695684982102
  0
ARC
  5
C22B
  8
0
 10
4343.3602224125952489
 20
190.0089184527022894
 30
0.0
 40
0.1784525293577245
 50
217.9321594789421965
 51
224.028540014649991
  0
LINE
  5
C22C
  8
0
 10
4343.1821496335551274
 20
189.8805878736208115
 30
0.0
 11
4343.2296647523580759
 21
189.904312780418195
 31
0.0
  0
ARC
  5
C22D
  8
0
 10
4343.6766333146024408
 20
189.1439018400508871
 30
0.0
 40
0.0026164660729783
 50
144.1228644331017108
 51
201.4077388327474125
  0
ARC
  5
C22E
  8
0
 10
4343.7715316265430374
 20
188.9869563457511106
 30
0.0
 40
0.00161649737536
 50
298.3972409990038273
 51
7.1503212945748391
  0
ARC
  5
C22F
  8
0
 10
4343.545516330996179
 20
189.0210365548668108
 30
0.0
 40
0.1835370200796997
 50
28.2544020802315607
 51
38.208268463370139
  0
ARC
  5
C230
  8
0
 10
4343.3303985199436283
 20
189.4909269989024949
 30
0.0
 40
0.0120027400633277
 50
118.0769276439853996
 51
196.1386878357182866
  0
ARC
  5
C231
  8
0
 10
4343.3727709164131738
 20
189.4149786724208013
 30
0.0
 40
0.011950408753322
 50
215.8491865876029863
 51
296.3423852558904059
  0
ARC
  5
C232
  8
0
 10
4344.2039120965400798
 20
189.9268288033717056
 30
0.0
 40
0.9880444271718364
 50
206.3947441549962889
 51
211.6660523076263019
  0
ARC
  5
C233
  8
0
 10
4342.8698214544856455
 20
189.1844214034811102
 30
0.0
 40
0.5401690555621325
 50
26.693330935949259
 51
31.70605179285171
  0
ARC
  5
C234
  8
0
 10
4343.8139152243611534
 20
189.7120509031551023
 30
0.0
 40
0.5423917478344461
 50
206.7036083825566948
 51
211.6957743462342023
  0
LINE
  5
C235
  8
0
 10
4343.3247603428299044
 20
189.5015204129940116
 30
0.0
 11
4343.3626518623796073
 21
189.5212768414675111
 31
0.0
  0
LINE
  5
C236
  8
0
 10
4343.3780743524548598
 20
189.4042655497208045
 30
0.0
 11
4343.4201798428948678
 21
189.4252900396747066
 31
0.0
  0
ARC
  5
C237
  8
0
 10
4343.1180946777185454
 20
189.2499799426896914
 30
0.0
 40
0.349209749252418
 50
30.1286371636971708
 51
33.1578310275860773
  0
ARC
  5
C238
  8
0
 10
4342.9759423190989764
 20
189.3301673034970918
 30
0.0
 40
0.427663631196876
 50
26.28761051801024
 51
28.6825641632695714
  0
ARC
  5
C239
  8
0
 10
4343.3268293429464393
 20
189.5038717605318084
 30
0.0
 40
0.0398269976401908
 50
25.913717779117551
 51
52.4023237765415004
  0
ARC
  5
C23A
  8
0
 10
4343.2114186052112927
 20
189.2757936566162016
 30
0.0
 40
0.253129510114974
 50
31.3448081316374285
 51
35.7384761891061729
  0
ARC
  5
C23B
  8
0
 10
4343.3782934722512437
 20
189.3973825547944898
 30
0.0
 40
0.050331856294756
 50
11.5595583841946503
 51
34.6008389768888307
  0
ARC
  5
C23C
  8
0
 10
4343.8621138244798203
 20
188.6195476103046929
 30
0.0
 40
0.0775986417186696
 50
22.8901888407858287
 51
53.7745428724087589
  0
ARC
  5
C23D
  8
0
 10
4343.4906173776198557
 20
188.3125097369270122
 30
0.0
 40
0.5567343947018824
 50
27.574811509113399
 51
37.280004840962313
  0
ARC
  5
C23E
  8
0
 10
4344.4078545318770921
 20
188.8677139487789134
 30
0.0
 40
0.5177442240325347
 50
215.0718790919399908
 51
218.1710728822208125
  0
ARC
  5
C23F
  8
0
 10
4343.8874929585990685
 20
188.4692341137048004
 30
0.0
 40
0.137864161899594
 50
26.4122095424479291
 51
34.7124747233880413
  0
ARC
  5
C240
  8
0
 10
4344.303525042218098
 20
188.7786642709340015
 30
0.0
 40
0.3835969809202817
 50
217.2592274369413872
 51
220.2996509734279016
  0
ARC
  5
C241
  8
0
 10
4344.1274961119515865
 20
188.8313298043142083
 30
0.0
 40
0.2654142092122977
 50
214.2117684160733972
 51
216.6103278029302999
  0
ARC
  5
C242
  8
0
 10
4344.1081105366738484
 20
188.4030750971051873
 30
0.0
 40
0.0167238883685825
 50
217.5179635217457133
 51
259.4455992223334988
  0
ARC
  5
C243
  8
0
 10
4349.6725820273977661
 20
192.2915406134779914
 30
0.0
 40
6.8050738987033812
 50
213.4189900743400869
 51
214.9523560788132102
  0
ARC
  5
C244
  8
0
 10
4345.572846980747272
 20
189.8912141939659932
 30
0.0
 40
2.067388697225427
 50
212.9514558866476079
 51
216.2598138427293861
  0
ARC
  5
C245
  8
0
 10
4294.3161083160866838
 20
157.903581492835599
 30
0.0
 40
58.3447350689744013
 50
32.067134536998573
 51
32.1919887479136477
  0
ARC
  5
C246
  8
0
 10
4343.5643072840048262
 20
189.1899622504909075
 30
0.0
 40
0.0099149049172422
 50
181.2355830089121014
 51
213.0912993950437055
  0
LINE
  5
C247
  8
0
 10
4343.5543946844545644
 20
189.1897484522208117
 30
0.0
 11
4343.5461209051536571
 21
189.201794970844503
 31
0.0
  0
LINE
  5
C248
  8
0
 10
4343.5560005604547769
 20
189.1845489628207986
 30
0.0
 11
4343.6255441470966616
 21
189.0789319710343079
 31
0.0
  0
ARC
  5
C249
  8
0
 10
4343.4850586072789156
 20
189.3161226014196927
 30
0.0
 40
0.0099020065670322
 50
210.988081727894695
 51
242.450247427247092
  0
LINE
  5
C24A
  8
0
 10
4343.4804787443554233
 20
189.3073433879208096
 30
0.0
 11
4343.4869519615549507
 21
189.2958883381176918
 31
0.0
  0
LINE
  5
C24B
  8
0
 10
4343.4765698703722592
 20
189.3110244566776998
 30
0.0
 11
4343.4111822867962474
 21
189.4207972995156126
 31
0.0
  0
LINE
  5
C24C
  8
0
 10
4343.2794894500711962
 20
189.6452790700483888
 30
0.0
 11
4343.2835854993036264
 21
189.6371808889207955
 31
0.0
  0
LINE
  5
C24D
  8
0
 10
4343.2835854993036264
 20
189.6371808889207955
 30
0.0
 11
4343.3051751930506725
 21
189.602024402401895
 31
0.0
  0
LINE
  5
C24E
  8
0
 10
4343.3051751930506725
 20
189.602024402401895
 30
0.0
 11
4343.3137019587957184
 21
189.5841638703869876
 31
0.0
  0
LINE
  5
C24F
  8
0
 10
4343.3137019587957184
 20
189.5841638703869876
 30
0.0
 11
4343.3538730780837795
 21
189.5166996319470059
 31
0.0
  0
LINE
  5
C250
  8
0
 10
4343.0694309732471083
 20
189.9350153188067907
 30
0.0
 11
4343.1106937860540711
 21
189.8561736238208084
 31
0.0
  0
ARC
  5
C251
  8
0
 10
4343.2745350244758811
 20
190.8507404867611967
 30
0.0
 40
0.4760028772711133
 50
201.7392246204802007
 51
206.200349632298412
  0
ARC
  5
C252
  8
0
 10
4342.9753273431142588
 20
190.7314339484495065
 30
0.0
 40
0.1538859937173968
 50
191.6459485776950942
 51
201.7392246204998116
  0
ARC
  5
C253
  8
0
 10
4342.8400586980960725
 20
190.7035542145652869
 30
0.0
 40
0.0157741336685405
 50
164.0948243139667966
 51
191.6459485776935026
  0
ARC
  5
C254
  8
0
 10
4342.8391021903807996
 20
190.7038267763734893
 30
0.0
 40
0.0147795498609997
 50
120.2821360670870945
 51
164.0948243139667966
  0
LINE
  5
C255
  8
0
 10
4342.8316494781256552
 20
190.716589698223288
 30
0.0
 11
4342.8823417371504547
 21
190.742617724813897
 31
0.0
  0
ARC
  5
C256
  8
0
 10
4342.6813309043791378
 20
190.5612490534313963
 30
0.0
 40
0.2655356843020727
 50
25.8160657805104208
 51
36.0659232508813901
  0
ARC
  5
C257
  8
0
 10
4342.6119452640250529
 20
190.5791972156806082
 30
0.0
 40
0.3159438486253768
 50
25.9750231093075712
 51
31.1476605296880003
  0
ARC
  5
C258
  8
0
 10
4342.8371902122689789
 20
190.716257354809386
 30
0.0
 40
0.0522831646512264
 50
30.2772437452891197
 51
47.2428102491416766
  0
ARC
  5
C259
  8
0
 10
4342.8678326636618294
 20
190.749189110038003
 30
0.0
 40
0.0073018735138627
 50
48.3547384242929823
 51
76.6110082395560283
  0
ARC
  5
C25A
  8
0
 10
4342.8693290374012577
 20
190.7543217639544935
 30
0.0
 40
0.0019803277503879
 50
84.3648440738674168
 51
138.6259516374705925
  0
ARC
  5
C25B
  8
0
 10
4342.9100213572492066
 20
190.7492154957537878
 30
0.0
 40
0.0426634566966164
 50
171.351759179098508
 51
198.042809709421789
  0
ARC
  5
C25C
  8
0
 10
4342.7307648674559459
 20
190.5845412279373079
 30
0.0
 40
0.1399908709702603
 50
25.7161816801379715
 51
33.2203841366597032
  0
ARC
  5
C25D
  8
0
 10
4342.829141243383674
 20
190.6489666279233859
 30
0.0
 40
0.0223960432619965
 50
33.2210152082047472
 51
43.3426295956123369
  0
ARC
  5
C25E
  8
0
 10
4342.8413657563251036
 20
190.6605036105144109
 30
0.0
 40
0.0055870967181137
 50
43.3426295956836398
 51
56.033798390796079
  0
ARC
  5
C25F
  8
0
 10
4342.8440864131644048
 20
190.6645422870869879
 30
0.0
 40
0.0007175092511611
 50
56.0337983906082115
 51
110.3363357285071942
  0
ARC
  5
C260
  8
0
 10
4342.8441933650829014
 20
190.6647403542486927
 30
0.0
 40
0.0005935600035988
 50
126.8906750730380963
 51
171.1063258192972114
  0
ARC
  5
C261
  8
0
 10
4342.8529576904402347
 20
190.6643766820128008
 30
0.0
 40
0.0093618336440673
 50
177.2115565123712884
 51
197.9983515586104943
  0
ARC
  5
C262
  8
0
 10
4342.9615219829365742
 20
190.6986184913197064
 30
0.0
 40
0.1231978308978852
 50
197.5430231134139945
 51
206.9836618426392079
  0
ARC
  5
C263
  8
0
 10
4343.2725685982240975
 20
190.8546904123180923
 30
0.0
 40
0.4760028772711133
 50
206.7314585310749919
 51
211.1925835428729954
  0
ARC
  5
C264
  8
0
 10
4342.997019731443288
 20
190.6878608325494895
 30
0.0
 40
0.1538859937173968
 50
211.192583542871489
 51
221.2858595856637862
  0
ARC
  5
C265
  8
0
 10
4342.8932387512077185
 20
190.5967323845887904
 30
0.0
 40
0.0157741336685405
 50
221.2858595857348973
 51
248.8369838494072042
  0
ARC
  5
C266
  8
0
 10
4342.8928796838863491
 20
190.5958048784650884
 30
0.0
 40
0.0147795498609997
 50
248.8369838494072042
 51
292.6496720962799145
  0
LINE
  5
C267
  8
0
 10
4342.8985712227331533
 20
190.5821651761351063
 30
0.0
 11
4342.9498949964872736
 21
190.6069246902789871
 31
0.0
  0
ARC
  5
C268
  8
0
 10
4342.6840152286149532
 20
190.5558570989207965
 30
0.0
 40
0.2655356843020727
 50
16.8658849124572683
 51
27.1157423828488895
  0
ARC
  5
C269
  8
0
 10
4342.6565131594006743
 20
190.4896744742800934
 30
0.0
 40
0.3159438486253768
 50
21.7841476336150315
 51
26.9567850540682201
  0
ARC
  5
C26A
  8
0
 10
4342.9016458009409689
 20
190.5867865564287058
 30
0.0
 40
0.0522831646512264
 50
5.6889979142326181
 51
22.6545644180952408
  0
ARC
  5
C26B
  8
0
 10
4342.9463928642362589
 20
190.5913866277560089
 30
0.0
 40
0.0073018735138627
 50
336.3207999238466073
 51
4.5770697391227619
  0
ARC
  5
C26C
  8
0
 10
4342.9513902665621572
 20
190.5894868276128022
 30
0.0
 40
0.0019803277503879
 50
274.3058565259195234
 51
328.5669640895513908
  0
ARC
  5
C26D
  8
0
 10
4342.971843790436651
 20
190.6250338701129863
 30
0.0
 40
0.0426634566966164
 50
214.8889984541040121
 51
241.5800489842661989
  0
ARC
  5
C26E
  8
0
 10
4342.7323975578410682
 20
190.5812616713483862
 30
0.0
 40
0.1399908711282217
 50
19.7114240288690503
 51
27.2156264982045109
  0
ARC
  5
C26F
  8
0
 10
4342.8431016352733423
 20
190.6209246362099918
 30
0.0
 40
0.0223960432619965
 50
9.5891785677789034
 51
19.7107929551528187
  0
ARC
  5
C270
  8
0
 10
4342.8596757190971402
 20
190.6237247128674994
 30
0.0
 40
0.0055870967181137
 50
356.8980097726047802
 51
9.5891785677156296
  0
ARC
  5
C271
  8
0
 10
4342.8645381716023621
 20
190.623461202455502
 30
0.0
 40
0.0007175092511611
 50
302.5954724348899845
 51
356.8980097727734915
  0
ARC
  5
C272
  8
0
 10
4342.8647606799768255
 20
190.6234271534150935
 30
0.0
 40
0.0005935600035988
 50
241.8254823440736914
 51
286.0411330903789917
  0
ARC
  5
C273
  8
0
 10
4342.869753328644947
 20
190.6306395812794108
 30
0.0
 40
0.0093618336440673
 50
214.9334566047510862
 51
235.7202516510126031
  0
ARC
  5
C274
  8
0
 10
4342.9625142757176945
 20
190.6966252904022951
 30
0.0
 40
0.1231978308978852
 50
205.9481463207546028
 51
215.3887850500296963
  0
ARC
  5
C275
  8
0
 10
4342.4472837813791557
 20
190.1611880572947086
 30
0.0
 40
0.5110278861040093
 50
25.8089270419819314
 51
31.4618721263180916
  0
ARC
  5
C276
  8
0
 10
4342.7869948644693068
 20
190.3258590641937076
 30
0.0
 40
0.1399908709702603
 50
25.7161816801379715
 51
33.2203841366597032
  0
ARC
  5
C277
  8
0
 10
4342.8853712403979443
 20
190.3902844641798993
 30
0.0
 40
0.0223960432619965
 50
33.2210152082047472
 51
43.3426295956123369
  0
ARC
  5
C278
  8
0
 10
4342.8975957533366454
 20
190.4018214467708958
 30
0.0
 40
0.0055870967181137
 50
43.3426295956836398
 51
56.033798390796079
  0
ARC
  5
C279
  8
0
 10
4342.9003164101777656
 20
190.4058601233431034
 30
0.0
 40
0.0007175092511611
 50
56.0337983906082115
 51
110.3363357285071942
  0
ARC
  5
C27A
  8
0
 10
4342.9004233620962623
 20
190.4060581905050924
 30
0.0
 40
0.0005935600035988
 50
126.8906750730380963
 51
171.1063258192972114
  0
ARC
  5
C27B
  8
0
 10
4342.9091876874508671
 20
190.4056945182688025
 30
0.0
 40
0.0093618336440673
 50
177.2115565123712884
 51
197.9983515586104943
  0
ARC
  5
C27C
  8
0
 10
4343.0177519799490256
 20
190.4399363275761061
 30
0.0
 40
0.1231978308978852
 50
197.5430231134139945
 51
206.9836618426392079
  0
ARC
  5
C27D
  8
0
 10
4342.7886275548553385
 20
190.3225795076047859
 30
0.0
 40
0.1399908711282217
 50
19.7114240288690503
 51
27.2156264982045109
  0
ARC
  5
C27E
  8
0
 10
4342.8993316322848841
 20
190.3622424724661073
 30
0.0
 40
0.0223960432619965
 50
9.5891785677789034
 51
19.7107929551528187
  0
ARC
  5
C27F
  8
0
 10
4342.9159057161095916
 20
190.3650425491240128
 30
0.0
 40
0.0055870967181137
 50
356.8980097726047802
 51
9.5891785677156296
  0
ARC
  5
C280
  8
0
 10
4342.9207681686148135
 20
190.3647790387115037
 30
0.0
 40
0.0007175092511611
 50
302.5954724348899845
 51
356.8980097727734915
  0
ARC
  5
C281
  8
0
 10
4342.9209906769883673
 20
190.3647449896712089
 30
0.0
 40
0.0005935600035988
 50
241.8254823440736914
 51
286.0411330903789917
  0
ARC
  5
C282
  8
0
 10
4342.9259833256592174
 20
190.3719574175354978
 30
0.0
 40
0.0093618336440673
 50
214.9334566047510862
 51
235.7202516510126031
  0
ARC
  5
C283
  8
0
 10
4343.0187442727292364
 20
190.4379431266584106
 30
0.0
 40
0.1231978308978852
 50
205.9481463207546028
 51
215.3887850500296963
  0
ARC
  5
C284
  8
0
 10
4342.2314368709985501
 20
190.6496914602012112
 30
0.0
 40
0.5754752159633983
 50
23.8889704370576794
 51
27.8795546279860993
  0
ARC
  5
C285
  8
0
 10
4342.5557750575399041
 20
190.8422701593684963
 30
0.0
 40
0.1995944934806548
 50
22.5436016094112794
 51
31.8097252954311607
  0
ARC
  5
C286
  8
0
 10
4342.7143653104249097
 20
190.9419854688133
 30
0.0
 40
0.0123174160695262
 50
26.4737722767831194
 51
58.3628400315491476
  0
ARC
  5
C287
  8
0
 10
4342.7200928372622002
 20
190.9512819155970931
 30
0.0
 40
0.0013982363158355
 50
58.3628400312427473
 51
142.5462498794759085
  0
ARC
  5
C288
  8
0
 10
4342.7305069350650228
 20
190.9499475573539939
 30
0.0
 40
0.011729328046824
 50
169.2656454684326093
 51
188.6894366851595066
  0
ARC
  5
C289
  8
0
 10
4342.9830280992118787
 20
190.9916845747351886
 30
0.0
 40
0.2676755994166819
 50
189.3545911056050954
 51
193.7681930375674995
  0
ARC
  5
C28A
  8
0
 10
4342.1954774332953093
 20
190.6415279995954961
 30
0.0
 40
0.6117011841006881
 50
17.9645226609019204
 51
23.2240914074865792
  0
ARC
  5
C28B
  8
0
 10
4342.7099679472348726
 20
190.8062920510161007
 30
0.0
 40
0.0715020705897464
 50
4.191769700804735
 51
19.5287920257791185
  0
ARC
  5
C28C
  8
0
 10
4342.7736911849660828
 20
190.8107536549422889
 30
0.0
 40
0.0076260146396362
 50
339.3732359917369763
 51
5.7560390655985758
  0
ARC
  5
C28D
  8
0
 10
4342.7763153435307686
 20
190.8097658993569894
 30
0.0
 40
0.0048221121313219
 50
320.5219257253432943
 51
339.3732359917369763
  0
ARC
  5
C28E
  8
0
 10
4342.7785536720839445
 20
190.8084670357544894
 30
0.0
 40
0.0023072718272709
 50
284.8788451956448853
 51
310.0200837471804789
  0
ARC
  5
C28F
  8
0
 10
4342.7792565898826069
 20
190.8073578241443045
 30
0.0
 40
0.0011261306639196
 50
231.930179043322596
 51
264.3706169279760729
  0
ARC
  5
C290
  8
0
 10
4342.8885051743063741
 20
190.8964551516095014
 30
0.0
 40
0.1420723707693409
 50
210.2680846911038941
 51
219.2989383382740129
  0
LINE
  5
C291
  8
0
 10
4342.7773322087014094
 20
190.8302695715721882
 30
0.0
 11
4342.7299666774670186
 21
190.8079844948422021
 31
0.0
  0
LINE
  5
C292
  8
0
 10
4342.7334032116632443
 20
190.9332987301067988
 30
0.0
 11
4342.6847001188907598
 21
190.9082904543772088
 31
0.0
  0
ARC
  5
C293
  8
0
 10
4342.6918995053219987
 20
190.895581659111798
 30
0.0
 40
0.0146063219902665
 50
119.5310549094684944
 51
141.5587405241599015
  0
ARC
  5
C294
  8
0
 10
4342.6914030628086039
 20
190.8970360106318083
 30
0.0
 40
0.0133391744862587
 50
145.1281711832639871
 51
185.2046468166246882
  0
ARC
  5
C295
  8
0
 10
4342.7575301018623577
 20
190.9093027334623969
 30
0.0
 40
0.080546660450082
 50
189.6318158218846008
 51
202.1160797830048921
  0
ARC
  5
C296
  8
0
 10
4343.1400396790577361
 20
191.0499939101499081
 30
0.0
 40
0.4880718031401406
 50
200.5112022622141126
 51
204.0036753817572901
  0
ARC
  5
C297
  8
0
 10
4343.1337303106183754
 20
191.0442744902607046
 30
0.0
 40
0.4799888006447148
 50
203.6863695213569088
 51
207.1472300359808969
  0
ARC
  5
C298
  8
0
 10
4342.793966628826638
 20
190.868586833020089
 30
0.0
 40
0.0975007498520388
 50
206.3794565464222899
 51
214.8835702619595054
  0
ARC
  5
C299
  8
0
 10
4342.7256422436266803
 20
190.8208829841221075
 30
0.0
 40
0.0141709434811737
 50
214.6539925351580962
 51
250.7138727237521039
  0
ARC
  5
C29A
  8
0
 10
4342.7248475616888754
 20
190.8193827265824041
 30
0.0
 40
0.012495000326272
 50
251.8812892079288872
 51
294.1855590911966942
  0
ARC
  5
C29B
  8
0
 10
4342.4274757489556578
 20
190.7344510535380095
 30
0.0
 40
0.2960478481578903
 50
23.7294351349950396
 51
25.922797032082169
  0
ARC
  5
C29C
  8
0
 10
4342.5463011264437228
 20
190.7922079941137099
 30
0.0
 40
0.1639292101115726
 50
25.922797032082169
 51
28.2284792842114491
  0
ARC
  5
C29D
  8
0
 10
4342.6483091976379001
 20
190.8469695408819859
 30
0.0
 40
0.0481515197156614
 50
28.2284792842085785
 51
33.2023101267560818
  0
ARC
  5
C29E
  8
0
 10
4342.6826578021573368
 20
190.8694486158549921
 30
0.0
 40
0.0071011184508354
 50
33.2023101267656102
 51
45.2742274508513916
  0
ARC
  5
C29F
  8
0
 10
4342.6874259216556311
 20
190.8742625972874123
 30
0.0
 40
0.0003254722975166
 50
45.2742274503389908
 51
101.3579166977199009
  0
ARC
  5
C2A0
  8
0
 10
4342.6874514401943088
 20
190.8744162542969036
 30
0.0
 40
0.0001881538474914
 50
118.4435037282586052
 51
148.6496765004058034
  0
ARC
  5
C2A1
  8
0
 10
4342.6878789076690737
 20
190.8742587124293948
 30
0.0
 40
0.0006412236066324
 50
156.5248203035548045
 51
187.3017215480016091
  0
ARC
  5
C2A2
  8
0
 10
4342.7032843502383912
 20
190.8761629972046876
 30
0.0
 40
0.0161639093224561
 50
187.0567716571432868
 51
198.7035870587000943
  0
ARC
  5
C2A3
  8
0
 10
4342.8790502623096472
 20
190.9352514022872072
 30
0.0
 40
0.2015960611527888
 50
198.5912386640628995
 51
204.5279085945134057
  0
ARC
  5
C2A4
  8
0
 10
4342.910205204137128
 20
190.9454794979278915
 30
0.0
 40
0.2342137179315194
 50
203.640244735006803
 51
207.7740261830170141
  0
ARC
  5
C2A5
  8
0
 10
4342.7437650077272338
 20
190.8579893228834976
 30
0.0
 40
0.0461797888915376
 50
207.9577738440889902
 51
214.1402756677944126
  0
ARC
  5
C2A6
  8
0
 10
4342.7067875227712648
 20
190.8326825786114966
 30
0.0
 40
0.0013856122598902
 50
206.133845460512191
 51
253.966158539583688
  0
ARC
  5
C2A7
  8
0
 10
4342.7062970441202197
 20
190.8315582344798997
 30
0.0
 40
0.0002336965613697
 50
297.4603305057239027
 51
0.0375029941598958
  0
ARC
  5
C2A8
  8
0
 10
4342.6910503170447555
 20
190.8301329724581024
 30
0.0
 40
0.0155459101473967
 50
5.260877833059058
 51
20.0236608540742616
  0
ARC
  5
C2A9
  8
0
 10
4342.5017589326371308
 20
190.7653893306496968
 30
0.0
 40
0.2156004583445092
 50
18.9646025709295714
 51
24.1467376774271685
  0
ARC
  5
C2AA
  8
0
 10
4342.0958460029632988
 20
190.8675549590975038
 30
0.0
 40
0.5754752159633983
 50
23.8889704370576794
 51
27.8795546279860993
  0
ARC
  5
C2AB
  8
0
 10
4342.4201841895046527
 20
191.0601336582647889
 30
0.0
 40
0.1995944934806548
 50
22.5436016094112794
 51
31.8097252954311607
  0
ARC
  5
C2AC
  8
0
 10
4342.5787744423878394
 20
191.1598489677095927
 30
0.0
 40
0.0123174160695262
 50
26.4737722767831194
 51
58.3628400315491476
  0
ARC
  5
C2AD
  8
0
 10
4342.5845019692278584
 20
191.1691454144934994
 30
0.0
 40
0.0013982363158355
 50
58.3628400312427473
 51
142.5462498794759085
  0
ARC
  5
C2AE
  8
0
 10
4342.594916067030681
 20
191.1678110562502866
 30
0.0
 40
0.011729328046824
 50
169.2656454684326093
 51
188.6894366851595066
  0
ARC
  5
C2AF
  8
0
 10
4342.8474372311757179
 20
191.2095480736319075
 30
0.0
 40
0.2676755994166819
 50
189.3545911056050954
 51
193.768193037597598
  0
ARC
  5
C2B0
  8
0
 10
4342.0598865652591485
 20
190.8593914984917888
 30
0.0
 40
0.6117011841006881
 50
17.9645226609019204
 51
23.2240914074865792
  0
ARC
  5
C2B1
  8
0
 10
4342.5743770792014402
 20
191.0241555499123933
 30
0.0
 40
0.0715020705897464
 50
4.191769700804735
 51
19.5287920257791185
  0
ARC
  5
C2B2
  8
0
 10
4342.6381003169290125
 20
191.02861715383861
 30
0.0
 40
0.0076260146396362
 50
339.3732359917369763
 51
5.7560390655985758
  0
ARC
  5
C2B3
  8
0
 10
4342.6407244754946078
 20
191.0276293982533957
 30
0.0
 40
0.0048221121313219
 50
320.5219257253432943
 51
339.3732359917369763
  0
ARC
  5
C2B4
  8
0
 10
4342.6429628040477837
 20
191.0263305346508957
 30
0.0
 40
0.0023072718272709
 50
284.8788451956448853
 51
310.0200837471804789
  0
ARC
  5
C2B5
  8
0
 10
4342.6436657218473556
 20
191.0252213230405118
 30
0.0
 40
0.0011261306639196
 50
231.930179043322596
 51
264.3706169279760729
  0
ARC
  5
C2B6
  8
0
 10
4342.7529143062693038
 20
191.114318650505794
 30
0.0
 40
0.1420723707693409
 50
210.2680846910785988
 51
219.2989383382740129
  0
LINE
  5
C2B7
  8
0
 10
4342.6417413406652486
 20
191.0481330704689071
 30
0.0
 11
4342.5943758094308578
 21
191.0258479937384948
 31
0.0
  0
LINE
  5
C2B8
  8
0
 10
4342.5978120550371386
 20
191.1511620808159932
 30
0.0
 11
4342.5491092508564179
 21
191.1261539532738993
 31
0.0
  0
ARC
  5
C2B9
  8
0
 10
4342.5563086372867474
 20
191.1134451580084033
 30
0.0
 40
0.0146063219902665
 50
119.5310549094684944
 51
141.5587405241599015
  0
ARC
  5
C2BA
  8
0
 10
4342.555812194772443
 20
191.1148995095281009
 30
0.0
 40
0.0133391744862587
 50
145.1281711832639871
 51
185.2046468166246882
  0
ARC
  5
C2BB
  8
0
 10
4342.6219392338280159
 20
191.1271662323586895
 30
0.0
 40
0.080546660450082
 50
189.6318158218846008
 51
202.1160797830048921
  0
ARC
  5
C2BC
  8
0
 10
4343.0044488110206657
 20
191.2678574090462007
 30
0.0
 40
0.4880718031401406
 50
200.5112022622141126
 51
204.0036753817572901
  0
ARC
  5
C2BD
  8
0
 10
4342.998139442583124
 20
191.2621379891573952
 30
0.0
 40
0.4799888006447148
 50
203.6863695213569088
 51
207.1472300359808969
  0
ARC
  5
C2BE
  8
0
 10
4342.6583757607941152
 20
191.086450331916808
 30
0.0
 40
0.0975007498520388
 50
206.3794565464222899
 51
214.8835702619595054
  0
ARC
  5
C2BF
  8
0
 10
4342.590051375591429
 20
191.0387464830184001
 30
0.0
 40
0.0141709434811737
 50
214.6539925351580962
 51
250.7138727237521039
  0
ARC
  5
C2C0
  8
0
 10
4342.5892566936554431
 20
191.0372462254790946
 30
0.0
 40
0.012495000326272
 50
251.8812892079288872
 51
294.1855590911966942
  0
ARC
  5
C2C1
  8
0
 10
4342.2918848809222254
 20
190.9523145524347001
 30
0.0
 40
0.2960478481578903
 50
23.7294351349950396
 51
25.922797032082169
  0
ARC
  5
C2C2
  8
0
 10
4342.4107102584066524
 20
191.0100714930100025
 30
0.0
 40
0.1639292101115726
 50
25.922797032082169
 51
28.2284792842114491
  0
ARC
  5
C2C3
  8
0
 10
4342.5127183296026487
 20
191.0648330397783923
 30
0.0
 40
0.0481515197156614
 50
28.2284792842085785
 51
33.2023101267560818
  0
ARC
  5
C2C4
  8
0
 10
4342.547066934121176
 20
191.0873121147513132
 30
0.0
 40
0.0071011184508354
 50
33.2023101267656102
 51
45.2742274508513916
  0
ARC
  5
C2C5
  8
0
 10
4342.5518350536203798
 20
191.0921260961837049
 30
0.0
 40
0.0003254722975166
 50
45.2742274503389908
 51
101.3579166977199009
  0
ARC
  5
C2C6
  8
0
 10
4342.551860572156329
 20
191.092279753193111
 30
0.0
 40
0.0001881538474914
 50
118.4435037282586052
 51
148.6496765004058034
  0
ARC
  5
C2C7
  8
0
 10
4342.5522880396329128
 20
191.0921222113256874
 30
0.0
 40
0.0006412236066324
 50
156.5248203035548045
 51
187.3017215480016091
  0
ARC
  5
C2C8
  8
0
 10
4342.5676934822022304
 20
191.0940264961014066
 30
0.0
 40
0.0161639093224561
 50
187.0567716571432868
 51
198.7035870587000943
  0
ARC
  5
C2C9
  8
0
 10
4342.7434593942743959
 20
191.1531149011838977
 30
0.0
 40
0.2015960611527888
 50
198.5912386640628995
 51
204.5279085945134057
  0
ARC
  5
C2CA
  8
0
 10
4342.7746143361036957
 20
191.1633429968246105
 30
0.0
 40
0.2342137179315194
 50
203.640244735006803
 51
207.7740261830170141
  0
ARC
  5
C2CB
  8
0
 10
4342.6081741396919824
 20
191.0758528217801882
 30
0.0
 40
0.0461797888915376
 50
207.9577738440889902
 51
214.1402756677944126
  0
ARC
  5
C2CC
  8
0
 10
4342.5711966547351039
 20
191.0505460775077893
 30
0.0
 40
0.0013856122598902
 50
206.133845460512191
 51
253.966158539583688
  0
ARC
  5
C2CD
  8
0
 10
4342.5707061760849683
 20
191.0494217333763061
 30
0.0
 40
0.0002336965613697
 50
297.4603305057239027
 51
0.0375029941598958
  0
ARC
  5
C2CE
  8
0
 10
4342.5554594490085947
 20
191.0479964713545087
 30
0.0
 40
0.0155459101473967
 50
5.260877833059058
 51
20.0236608540742616
  0
ARC
  5
C2CF
  8
0
 10
4342.366168064599151
 20
190.9832528295463021
 30
0.0
 40
0.2156004583445092
 50
18.9646025709295714
 51
24.1467376774271685
  0
ARC
  5
C2D0
  8
0
 10
4341.7665997252915986
 20
191.0242182493412884
 30
0.0
 40
0.8653517575981272
 50
23.3110430450056505
 51
25.7782208904569003
  0
ARC
  5
C2D1
  8
0
 10
4342.2046782308516413
 20
191.2432588222303025
 30
0.0
 40
0.3756709437902321
 50
24.7521751393350584
 51
29.5275623311217217
  0
ARC
  5
C2D2
  8
0
 10
4342.4801585448121841
 20
191.4033904197142988
 30
0.0
 40
0.057162048013625
 50
25.9517225414472108
 51
43.3039067576487895
  0
ARC
  5
C2D3
  8
0
 10
4342.910351549699044
 20
191.5569698391583984
 30
0.0
 40
0.4067313969324628
 50
196.2912554238787095
 51
198.9089738510382119
  0
ARC
  5
C2D4
  8
0
 10
4341.8283227507736228
 20
191.0446119433566139
 30
0.0
 40
0.8006171949558361
 50
19.9772858192324385
 51
23.71869451314301
  0
ARC
  5
C2D5
  8
0
 10
4342.5568434024480666
 20
191.2763685693986986
 30
0.0
 40
0.0371996609358259
 50
355.1248456780717788
 51
19.0249980372490306
  0
ARC
  5
C2D6
  8
0
 10
4342.589868384438887
 20
191.2732998740945902
 30
0.0
 40
0.0040411632486422
 50
299.6515429002910764
 51
358.6854000073838051
  0
ARC
  5
C2D7
  8
0
 10
4342.6470318952769958
 20
191.3184075089158966
 30
0.0
 40
0.0744213081321145
 50
208.2129623540874945
 51
219.575008478249714
  0
LINE
  5
C2D8
  8
0
 10
4342.5920110855058738
 20
191.2884949391014118
 30
0.0
 11
4342.5433308139408837
 21
191.2646729381123976
 31
0.0
  0
LINE
  5
C2D9
  8
0
 10
4342.5315565490491281
 20
191.4284053131505914
 30
0.0
 11
4342.4865317859139395
 21
191.4040155599820139
 31
0.0
  0
ARC
  5
C2DA
  8
0
 10
4342.4913689385502948
 20
191.3917734339653975
 30
0.0
 40
0.0131631187420527
 50
111.5601445297993024
 51
164.9806717911276053
  0
ARC
  5
C2DB
  8
0
 10
4342.4986454433510517
 20
191.3906995764394878
 30
0.0
 40
0.0204869100251319
 50
167.3543411798654859
 51
204.1657848370336978
  0
ARC
  5
C2DC
  8
0
 10
4342.6015138599450438
 20
191.4017434034761038
 30
0.0
 40
0.1231031059419114
 50
189.0816048994088021
 51
199.0392527023780076
  0
ARC
  5
C2DD
  8
0
 10
4345.6993512478693447
 20
192.5649703098650889
 30
0.0
 40
3.4320922220400192
 50
200.5256858932274042
 51
201.0277312312607876
  0
ARC
  5
C2DE
  8
0
 10
4343.1608609671939121
 20
191.5961437760840909
 30
0.0
 40
0.7150438682522664
 50
201.5526750111631031
 51
203.9162757336200116
  0
ARC
  5
C2DF
  8
0
 10
4343.1886584437343117
 20
191.6164292178067114
 30
0.0
 40
0.7487137060789412
 50
204.4729760346102978
 51
206.2313155722040108
  0
ARC
  5
C2E0
  8
0
 10
4342.6044392088597306
 20
191.3309007202593079
 30
0.0
 40
0.0984790221718947
 50
207.4524939769920877
 51
221.4171651460391104
  0
ARC
  5
C2E1
  8
0
 10
4342.5379167012697508
 20
191.2765013715541045
 30
0.0
 40
0.0130086299701945
 50
235.7134286930929079
 51
294.5945256930281175
  0
ARC
  5
C2E2
  8
0
 10
4342.2316713266636725
 20
191.2155203834892916
 30
0.0
 40
0.2960478481578903
 50
23.7294351349950396
 51
25.922797032082169
  0
ARC
  5
C2E3
  8
0
 10
4342.3504967041499185
 20
191.2732773240649919
 30
0.0
 40
0.1639292101115726
 50
25.922797032082169
 51
28.2284792842114491
  0
ARC
  5
C2E4
  8
0
 10
4342.4525047753440958
 20
191.3280388708334101
 30
0.0
 40
0.0481515197156614
 50
28.2284792842085785
 51
33.2023101267560818
  0
ARC
  5
C2E5
  8
0
 10
4342.4868533798626231
 20
191.3505179458059047
 30
0.0
 40
0.0071011184508354
 50
33.2023101267656102
 51
45.2742274508513916
  0
ARC
  5
C2E6
  8
0
 10
4342.4916214993636459
 20
191.3553319272382964
 30
0.0
 40
0.0003254722975166
 50
45.2742274503389908
 51
101.3579166977199009
  0
ARC
  5
C2E7
  8
0
 10
4342.4916470179014141
 20
191.3554855842481004
 30
0.0
 40
0.0001881538474914
 50
118.4435037282586052
 51
148.6496765004058034
  0
ARC
  5
C2E8
  8
0
 10
4342.4920744853761789
 20
191.3553280423807053
 30
0.0
 40
0.0006412236066324
 50
156.5248203035548045
 51
187.3017215480016091
  0
ARC
  5
C2E9
  8
0
 10
4342.507479927946406
 20
191.3572323271559981
 30
0.0
 40
0.0161639093224561
 50
187.0567716571432868
 51
198.7035870587000943
  0
ARC
  5
C2EA
  8
0
 10
4342.683245840015843
 20
191.4163207322384892
 30
0.0
 40
0.2015960611527888
 50
198.5912386640628995
 51
204.5279085945134057
  0
ARC
  5
C2EB
  8
0
 10
4343.0015785241148478
 20
191.5626118657498864
 30
0.0
 40
0.5519337154265748
 50
204.6253029099590037
 51
207.3180567714323104
  0
ARC
  5
C2EC
  8
0
 10
4342.5519908163487344
 20
191.3309631994877122
 30
0.0
 40
0.0461797888915376
 50
207.9577738440889902
 51
214.1402756677944126
  0
ARC
  5
C2ED
  8
0
 10
4342.5149362892079807
 20
191.3058535209410138
 30
0.0
 40
0.0013856122598902
 50
206.133845460512191
 51
253.966158539583688
  0
ARC
  5
C2EE
  8
0
 10
4342.5144458105578451
 20
191.3047291768099001
 30
0.0
 40
0.0002336965613697
 50
297.4603305057239027
 51
0.0375029941598958
  0
ARC
  5
C2EF
  8
0
 10
4342.4991990834832905
 20
191.3033039147877048
 30
0.0
 40
0.0155459101473967
 50
5.260877833059058
 51
20.0236608540742616
  0
ARC
  5
C2F0
  8
0
 10
4342.0843221704308235
 20
191.1406083942785017
 30
0.0
 40
0.461178887418722
 50
21.3397029947335604
 51
24.8827682766788385
  0
ARC
  5
C2F1
  8
0
 10
4341.9094782545653288
 20
191.3564147654483065
 30
0.0
 40
0.5754752159633983
 50
23.8889704370576794
 51
27.8795546279860993
  0
ARC
  5
C2F2
  8
0
 10
4342.2338164411048638
 20
191.5489934646155916
 30
0.0
 40
0.1995944934806548
 50
22.5436016094112794
 51
31.8097252954311607
  0
ARC
  5
C2F3
  8
0
 10
4342.3924066939880504
 20
191.6487087740599975
 30
0.0
 40
0.0123174160695262
 50
26.4737722767831194
 51
58.3628400315491476
  0
ARC
  5
C2F4
  8
0
 10
4342.3981342208280694
 20
191.6580052208439042
 30
0.0
 40
0.0013982363158355
 50
58.3628400312427473
 51
142.5462498794759085
  0
ARC
  5
C2F5
  8
0
 10
4342.4085483186318015
 20
191.6566708626010893
 30
0.0
 40
0.011729328046824
 50
169.2656454684326093
 51
188.6894366851595066
  0
ARC
  5
C2F6
  8
0
 10
4342.6610694827750194
 20
191.6984078799823124
 30
0.0
 40
0.2676755994166819
 50
189.3545911056050954
 51
193.7680986822618081
  0
ARC
  5
C2F7
  8
0
 10
4341.2388405248575509
 20
191.050157009214189
 30
0.0
 40
1.3127116629978619
 50
20.6670121649163114
 51
24.2571801108566483
  0
ARC
  5
C2F8
  8
0
 10
4342.3996869470993261
 20
191.4895587355468933
 30
0.0
 40
0.0715020705897464
 50
4.191769700804735
 51
19.5287920257791185
  0
ARC
  5
C2F9
  8
0
 10
4342.4634101848287173
 20
191.4940203394731952
 30
0.0
 40
0.0076260146396362
 50
339.3732359917369763
 51
5.7560390655985758
  0
ARC
  5
C2FA
  8
0
 10
4342.4660343433952221
 20
191.4930325838878957
 30
0.0
 40
0.0048221121313219
 50
320.5219257253432943
 51
339.3732359917369763
  0
ARC
  5
C2FB
  8
0
 10
4342.4682726719465791
 20
191.4917337202853105
 30
0.0
 40
0.0023072718272709
 50
284.8788451956448853
 51
310.0200837471804789
  0
ARC
  5
C2FC
  8
0
 10
4342.4689755897461509
 20
191.4906245086750118
 30
0.0
 40
0.0011261306639196
 50
231.930179043322596
 51
264.3706169279760729
  0
ARC
  5
C2FD
  8
0
 10
4342.5782241741690086
 20
191.5797218361404077
 30
0.0
 40
0.1420723707693409
 50
210.2682145223882912
 51
219.2989383382740129
  0
LINE
  5
C2FE
  8
0
 10
4342.4670512085640439
 20
191.5135362561034071
 30
0.0
 11
4342.4196856773296531
 21
191.4912511793729948
 31
0.0
  0
LINE
  5
C2FF
  8
0
 10
4342.4114445952272945
 20
191.6400220353538089
 30
0.0
 11
4342.362741502456629
 21
191.6150137596243894
 31
0.0
  0
ARC
  5
C300
  8
0
 10
4342.3699408888851394
 20
191.6023049643588081
 30
0.0
 40
0.0146063219902665
 50
119.5310549094684944
 51
141.5587405241599015
  0
ARC
  5
C301
  8
0
 10
4342.3694444463717446
 20
191.6037593158785057
 30
0.0
 40
0.0133391744862587
 50
145.1281711832639871
 51
185.2046468166246882
  0
ARC
  5
C302
  8
0
 10
4342.4355714854282269
 20
191.6160260387090943
 30
0.0
 40
0.080546660450082
 50
189.6318158218846008
 51
202.1160797830048921
  0
ARC
  5
C303
  8
0
 10
4342.8180810626208768
 20
191.7567172153970034
 30
0.0
 40
0.4880718031401406
 50
200.5112022622141126
 51
204.0036753817572901
  0
ARC
  5
C304
  8
0
 10
4343.948612348856841
 20
192.2934542048942035
 30
0.0
 40
1.7394421837757781
 50
205.0058968523854901
 51
206.82385004714709
  0
ARC
  5
C305
  8
0
 10
4342.4836856286929105
 20
191.5518535175513932
 30
0.0
 40
0.0975007498520388
 50
206.3794565464222899
 51
214.8835702619595054
  0
ARC
  5
C306
  8
0
 10
4342.4153612434911338
 20
191.5041496686529001
 30
0.0
 40
0.0141709434811737
 50
214.6539925351580962
 51
250.7138727237521039
  0
ARC
  5
C307
  8
0
 10
4342.4145665615533289
 20
191.5026494111135946
 30
0.0
 40
0.012495000326272
 50
251.8812892079288872
 51
294.1855590911966942
  0
ARC
  5
C308
  8
0
 10
4342.1055171325224364
 20
191.4411743587851049
 30
0.0
 40
0.2960478481578903
 50
23.7294351349950396
 51
25.922797032082169
  0
ARC
  5
C309
  8
0
 10
4342.2243425100068634
 20
191.4989312993608905
 30
0.0
 40
0.1639292101115726
 50
25.922797032082169
 51
28.2284792842114491
  0
ARC
  5
C30A
  8
0
 10
4342.3263505812028598
 20
191.553692846129195
 30
0.0
 40
0.0481515197156614
 50
28.2284792842085785
 51
33.2023101267560818
  0
ARC
  5
C30B
  8
0
 10
4342.360699185721387
 20
191.5761719211016896
 30
0.0
 40
0.0071011184508354
 50
33.2023101267656102
 51
45.2742274508513916
  0
ARC
  5
C30C
  8
0
 10
4342.3654673052196813
 20
191.5809859025341098
 30
0.0
 40
0.0003254722975166
 50
45.2742274503389908
 51
101.3579166977199009
  0
ARC
  5
C30D
  8
0
 10
4342.3654928237574495
 20
191.5811395595439137
 30
0.0
 40
0.0001881538474914
 50
118.4435037282586052
 51
148.6496765004058034
  0
ARC
  5
C30E
  8
0
 10
4342.3659202912331239
 20
191.5809820176764902
 30
0.0
 40
0.0006412236066324
 50
156.5248203035548045
 51
187.3017215480016091
  0
ARC
  5
C30F
  8
0
 10
4342.3813257338033509
 20
191.5828863024518114
 30
0.0
 40
0.0161639093224561
 50
187.0567716571432868
 51
198.7035870587000943
  0
ARC
  5
C310
  8
0
 10
4342.5570916458746069
 20
191.6419747075343025
 30
0.0
 40
0.2015960611527888
 50
198.5912386640628995
 51
204.5279085945134057
  0
ARC
  5
C311
  8
0
 10
4343.7505285716579237
 20
192.2108243971327965
 30
0.0
 40
1.5236464283916309
 50
205.3581322475473883
 51
206.9787912566038983
  0
ARC
  5
C312
  8
0
 10
4342.4334840075907778
 20
191.5412560074146882
 30
0.0
 40
0.0461797888915376
 50
207.9577738440889902
 51
214.1402756677944126
  0
ARC
  5
C313
  8
0
 10
4342.3965065226348088
 20
191.5159492631422893
 30
0.0
 40
0.0013856122598902
 50
206.133845460512191
 51
253.966158539583688
  0
ARC
  5
C314
  8
0
 10
4342.3960160439828542
 20
191.5148249190108061
 30
0.0
 40
0.0002336965613697
 50
297.4603305057239027
 51
0.0375029941598958
  0
ARC
  5
C315
  8
0
 10
4342.3807693169101185
 20
191.5133996569890087
 30
0.0
 40
0.0155459101473967
 50
5.260877833059058
 51
20.0236608540742616
  0
ARC
  5
C316
  8
0
 10
4341.309355289393352
 20
191.0517946362116106
 30
0.0
 40
1.182142847318191
 50
23.2650055728219307
 51
25.4779389170746917
  0
LINE
  5
C317
  8
0
 10
4342.3532432542324386
 20
191.7427778563578045
 30
0.0
 11
4342.3086834923942661
 21
191.7211850970709008
 31
0.0
  0
LINE
  5
C318
  8
0
 10
4342.3000144939569509
 20
191.8850398935111912
 30
0.0
 11
4342.2541121180684058
 21
191.861469742058091
 31
0.0
  0
ARC
  5
C319
  8
0
 10
4342.2613115044987353
 20
191.848760946792595
 30
0.0
 40
0.0146063219902665
 50
119.5310549094684944
 51
141.5587405241599015
  0
ARC
  5
C31A
  8
0
 10
4342.2607369069182823
 20
191.8506787290261002
 30
0.0
 40
0.0130144163426928
 50
146.6054978189822862
 51
188.8186066593814019
  0
ARC
  5
C31B
  8
0
 10
4342.3272875552993355
 20
191.8621602951286036
 30
0.0
 40
0.080546660450082
 50
189.6318158218846008
 51
202.1160797830048921
  0
ARC
  5
C31C
  8
0
 10
4345.2997123144095895
 20
192.8824318081408933
 30
0.0
 40
3.2230785837769571
 50
199.0237721775268085
 51
199.5364912027262108
  0
ARC
  5
C31D
  8
0
 10
4343.8900145585994323
 20
192.3826519936989996
 30
0.0
 40
1.727409062174833
 50
199.5499633119727037
 51
201.8721691124711981
  0
ARC
  5
C31E
  8
0
 10
4342.3975226555412519
 20
191.7814432265699907
 30
0.0
 40
0.1183938136293321
 50
200.9412085659286049
 51
207.8599001042852024
  0
ARC
  5
C31F
  8
0
 10
4342.3035948351043771
 20
191.7326643344962065
 30
0.0
 40
0.0125814620304107
 50
211.3615777951750943
 51
251.8641822591137895
  0
ARC
  5
C320
  8
0
 10
4342.3035643766161229
 20
191.7325833288115007
 30
0.0
 40
0.012495000326272
 50
251.8812892079288872
 51
294.1855590911966942
  0
ARC
  5
C321
  8
0
 10
4342.0028640107921092
 20
191.6681875621347899
 30
0.0
 40
0.2960478481578903
 50
23.7294351349950396
 51
25.922797032082169
  0
ARC
  5
C322
  8
0
 10
4342.1216893882774457
 20
191.7259445027102061
 30
0.0
 40
0.1639292101115726
 50
25.922797032082169
 51
28.2284792842114491
  0
ARC
  5
C323
  8
0
 10
4342.223697459473442
 20
191.7807060494785105
 30
0.0
 40
0.0481515197156614
 50
28.2284792842085785
 51
33.2023101267560818
  0
ARC
  5
C324
  8
0
 10
4342.2580460639910598
 20
191.8031851244514883
 30
0.0
 40
0.0071011184508354
 50
33.2023101267656102
 51
45.2742274508513916
  0
ARC
  5
C325
  8
0
 10
4342.262814183491173
 20
191.8079991058837948
 30
0.0
 40
0.0003254722975166
 50
45.2742274503389908
 51
101.3579166977199009
  0
ARC
  5
C326
  8
0
 10
4342.2628397020262128
 20
191.8081527628932861
 30
0.0
 40
0.0001881538474914
 50
118.4435037282586052
 51
148.6496765004058034
  0
ARC
  5
C327
  8
0
 10
4342.2632671695018871
 20
191.8079952210258057
 30
0.0
 40
0.0006412236066324
 50
156.5248203035548045
 51
187.3017215480016091
  0
ARC
  5
C328
  8
0
 10
4342.2786726120721141
 20
191.8098995058014964
 30
0.0
 40
0.0161639093224561
 50
187.0567716571432868
 51
198.7035870587000943
  0
ARC
  5
C329
  8
0
 10
4342.4544385241451891
 20
191.8689879108839875
 30
0.0
 40
0.2015960611527888
 50
198.5912386640628995
 51
204.5279085945134057
  0
ARC
  5
C32A
  8
0
 10
4342.4855934659735794
 20
191.8792160065247003
 30
0.0
 40
0.2342137179315194
 50
203.640244735006803
 51
207.7740261830170141
  0
ARC
  5
C32B
  8
0
 10
4342.3191532695618662
 20
191.7917258314803064
 30
0.0
 40
0.0461797888915376
 50
207.9577738440889902
 51
214.1402756677944126
  0
ARC
  5
C32C
  8
0
 10
4342.2821757846049877
 20
191.7664190872079075
 30
0.0
 40
0.0013856122598902
 50
206.133845460512191
 51
253.966158539583688
  0
ARC
  5
C32D
  8
0
 10
4342.2816853059548521
 20
191.7652947430763106
 30
0.0
 40
0.0002336965613697
 50
297.4603305057239027
 51
0.0375029941598958
  0
ARC
  5
C32E
  8
0
 10
4342.2664385788793879
 20
191.7638694810545985
 30
0.0
 40
0.0155459101473967
 50
5.260877833059058
 51
20.0236608540742616
  0
ARC
  5
C32F
  8
0
 10
4342.0771471944690347
 20
191.6991258392463919
 30
0.0
 40
0.2156004583445092
 50
18.9646025709295714
 51
24.1467376774271685
  0
ARC
  5
C330
  8
0
 10
4342.301793553088828
 20
190.3931588117295917
 30
0.0
 40
0.5754752159633983
 50
23.8889704370576794
 51
27.8795546279860993
  0
ARC
  5
C331
  8
0
 10
4342.6261317396292725
 20
190.5857375108969052
 30
0.0
 40
0.1995944934806548
 50
22.5436016094112794
 51
31.8097252954311607
  0
ARC
  5
C332
  8
0
 10
4342.7847219925133686
 20
190.6854528203413963
 30
0.0
 40
0.0123174160695262
 50
26.4737722767831194
 51
58.3628400315491476
  0
ARC
  5
C333
  8
0
 10
4342.7904495193515686
 20
190.6947492671251894
 30
0.0
 40
0.0013982363158355
 50
58.3628400312427473
 51
142.5462498794759085
  0
ARC
  5
C334
  8
0
 10
4342.8008636171562102
 20
190.693414908882005
 30
0.0
 40
0.011729328046824
 50
169.2656454684326093
 51
188.6894366851595066
  0
ARC
  5
C335
  8
0
 10
4343.0533847813003376
 20
190.7351519262635975
 30
0.0
 40
0.2676755994166819
 50
189.3545911056050954
 51
193.7681930375960064
  0
ARC
  5
C336
  8
0
 10
4342.2658341153837682
 20
190.384995351123905
 30
0.0
 40
0.6117011841006881
 50
17.9645226609019204
 51
23.2240914074865792
  0
ARC
  5
C337
  8
0
 10
4342.7803246293260599
 20
190.5497594025445096
 30
0.0
 40
0.0715020705897464
 50
4.191769700804735
 51
19.5287920257791185
  0
ARC
  5
C338
  8
0
 10
4342.8440478670536322
 20
190.5542210064706978
 30
0.0
 40
0.0076260146396362
 50
339.3732359917369763
 51
5.7560390655985758
  0
ARC
  5
C339
  8
0
 10
4342.846672025620137
 20
190.553233250885512
 30
0.0
 40
0.0048221121313219
 50
320.5219257253432943
 51
339.3732359917369763
  0
ARC
  5
C33A
  8
0
 10
4342.8489103541724035
 20
190.5519343872828983
 30
0.0
 40
0.0023072718272709
 50
284.8788451956448853
 51
310.0200837471804789
  0
ARC
  5
C33B
  8
0
 10
4342.8496132719719753
 20
190.5508251756725997
 30
0.0
 40
0.0011261306639196
 50
231.930179043322596
 51
264.3706169279760729
  0
ARC
  5
C33C
  8
0
 10
4342.9588618563939235
 20
190.6399225031379103
 30
0.0
 40
0.1420723707693409
 50
210.2680846911038941
 51
219.2989383382740129
  0
LINE
  5
C33D
  8
0
 10
4342.8476888907898683
 20
190.5737369231005971
 30
0.0
 11
4342.800323359554568
 21
190.5514518463706111
 31
0.0
  0
LINE
  5
C33E
  8
0
 10
4342.8037596051608489
 20
190.6767659334477969
 30
0.0
 11
4342.7550568009810377
 21
190.651757805905703
 31
0.0
  0
ARC
  5
C33F
  8
0
 10
4342.7622561874122766
 20
190.6390490106400932
 30
0.0
 40
0.0146063219902665
 50
119.5310549094684944
 51
141.5587405241599015
  0
ARC
  5
C340
  8
0
 10
4342.7617597448970628
 20
190.6405033621599046
 30
0.0
 40
0.0133391744862587
 50
145.1281711832639871
 51
185.2046468166246882
  0
ARC
  5
C341
  8
0
 10
4342.8278867839526356
 20
190.6527700849904932
 30
0.0
 40
0.080546660450082
 50
189.6318158218846008
 51
202.1160797830048921
  0
ARC
  5
C342
  8
0
 10
4343.210396361146195
 20
190.7934612616782886
 30
0.0
 40
0.4880718031401406
 50
200.5112022622141126
 51
204.0036753817572901
  0
ARC
  5
C343
  8
0
 10
4343.2040869927077438
 20
190.7877418417891136
 30
0.0
 40
0.4799888006447148
 50
203.6863695213569088
 51
207.1472300359808969
  0
ARC
  5
C344
  8
0
 10
4342.8643233109178254
 20
190.6120541845486116
 30
0.0
 40
0.0975007498520388
 50
206.3794565464222899
 51
214.8835702619595054
  0
ARC
  5
C345
  8
0
 10
4342.7959989257160487
 20
190.564350335650488
 30
0.0
 40
0.0141709434811737
 50
214.6539925351580962
 51
250.7138727237521039
  0
ARC
  5
C346
  8
0
 10
4342.7952042437791533
 20
190.562850078110813
 30
0.0
 40
0.012495000326272
 50
251.8812892079288872
 51
294.1855590911966942
  0
ARC
  5
C347
  8
0
 10
4342.4978324310459357
 20
190.4779184050663901
 30
0.0
 40
0.2960478481578903
 50
23.7294351349950396
 51
25.922797032082169
  0
ARC
  5
C348
  8
0
 10
4342.6166578085321817
 20
190.5356753456420904
 30
0.0
 40
0.1639292101115726
 50
25.922797032082169
 51
28.2284792842114491
  0
ARC
  5
C349
  8
0
 10
4342.7186658797272685
 20
190.5904368924105086
 30
0.0
 40
0.0481515197156614
 50
28.2284792842085785
 51
33.2023101267560818
  0
ARC
  5
C34A
  8
0
 10
4342.7530144842448863
 20
190.6129159673830884
 30
0.0
 40
0.0071011184508354
 50
33.2023101267656102
 51
45.2742274508513916
  0
ARC
  5
C34B
  8
0
 10
4342.7577826037449995
 20
190.6177299488153949
 30
0.0
 40
0.0003254722975166
 50
45.2742274503389908
 51
101.3579166977199009
  0
ARC
  5
C34C
  8
0
 10
4342.7578081222809487
 20
190.6178836058251989
 30
0.0
 40
0.0001881538474914
 50
118.4435037282586052
 51
148.6496765004058034
  0
ARC
  5
C34D
  8
0
 10
4342.7582355897593516
 20
190.6177260639578037
 30
0.0
 40
0.0006412236066324
 50
156.5248203035548045
 51
187.3017215480016091
  0
ARC
  5
C34E
  8
0
 10
4342.7736410323277596
 20
190.6196303487330965
 30
0.0
 40
0.0161639093224561
 50
187.0567716571432868
 51
198.7035870587000943
  0
ARC
  5
C34F
  8
0
 10
4342.9494069443990156
 20
190.6787187538155877
 30
0.0
 40
0.2015960611527888
 50
198.5912386640628995
 51
204.5279085945134057
  0
ARC
  5
C350
  8
0
 10
4342.9805618862283154
 20
190.6889468494563005
 30
0.0
 40
0.2342137179315194
 50
203.640244735006803
 51
207.7740261830170141
  0
ARC
  5
C351
  8
0
 10
4342.8141216898184211
 20
190.6014566744119065
 30
0.0
 40
0.0461797888915376
 50
207.9577738440889902
 51
214.1402756677944126
  0
ARC
  5
C352
  8
0
 10
4342.7771442048588142
 20
190.5761499301395929
 30
0.0
 40
0.0013856122598902
 50
206.133845460512191
 51
253.966158539583688
  0
ARC
  5
C353
  8
0
 10
4342.7766537262095881
 20
190.5750255860083939
 30
0.0
 40
0.0002336965613697
 50
297.4603305057239027
 51
0.0375029941598958
  0
ARC
  5
C354
  8
0
 10
4342.7614069991341239
 20
190.5736003239865965
 30
0.0
 40
0.0155459101473967
 50
5.260877833059058
 51
20.0236608540742616
  0
ARC
  5
C355
  8
0
 10
4342.5721156147237707
 20
190.5088566821779921
 30
0.0
 40
0.2156004583445092
 50
18.9646025709295714
 51
24.1467376774271685
  0
ARC
  5
C356
  8
0
 10
4341.3939470829373022
 20
190.2575699586126063
 30
0.0
 40
1.426066390531094
 50
24.4840431600801907
 51
25.9879919452413901
  0
ARC
  5
C357
  8
0
 10
4389.828458790080731
 20
209.7910754203462886
 30
0.0
 40
50.8004388144722085
 50
201.8933676544600075
 51
201.9565828100193983
  0
LINE
  5
C358
  8
0
 10
4342.3561949172426466
 20
191.602346677133994
 30
0.0
 11
4342.3379673083891248
 21
191.5929882269549864
 31
0.0
  0
ARC
  5
C359
  8
0
 10
4342.3433616687098038
 20
191.5824815417568914
 30
0.0
 40
0.0118105697207404
 50
117.1769487506318939
 51
201.3806076052084109
  0
LINE
  5
C35A
  8
0
 10
4342.332363911147695
 20
191.5781758611229009
 30
0.0
 11
4342.3639650469849585
 21
191.4974588595212026
 31
0.0
  0
ARC
  5
C35B
  8
0
 10
4342.3749572995920971
 20
191.5017623849365123
 30
0.0
 40
0.0118046579116614
 50
201.3806076052053982
 51
295.1858913948045142
  0
LINE
  5
C35C
  8
0
 10
4342.3799808481717264
 20
191.4910799737820923
 30
0.0
 11
4342.4006289962935625
 21
191.5007850141809911
 31
0.0
  0
LINE
  5
C35D
  8
0
 10
4342.4803732726204544
 20
191.3798497332730051
 30
0.0
 11
4342.4351438464800594
 21
191.3565920045419091
 31
0.0
  0
ARC
  5
C35E
  8
0
 10
4342.4408175891057908
 20
191.345710172666486
 30
0.0
 40
0.0122721481555543
 50
117.5373519750287983
 51
200.4155211315732004
  0
ARC
  5
C35F
  8
0
 10
4343.306991438699697
 20
191.6442064126362936
 30
0.0
 40
0.9284328936067113
 50
199.0332183275511966
 51
204.5248907723000116
  0
ARC
  5
C360
  8
0
 10
4342.4726668603580038
 20
191.2646055199014938
 30
0.0
 40
0.0118486716704183
 50
209.3983384190084109
 51
297.7001080018908965
  0
LINE
  5
C361
  8
0
 10
4342.4781746409116749
 20
191.2541147919129116
 30
0.0
 11
4342.52280251537195
 21
191.2758228836607941
 31
0.0
  0
LINE
  5
C362
  8
0
 10
4342.5448682946389454
 20
191.1225260831920991
 30
0.0
 11
4342.521464541727255
 21
191.1109141242729947
 31
0.0
  0
ARC
  5
C363
  8
0
 10
4342.5288198603748242
 20
191.0991787064108962
 30
0.0
 40
0.0138499366354074
 50
122.0779390913901068
 51
186.5574957354502033
  0
LINE
  5
C364
  8
0
 10
4342.5150605333892599
 20
191.0975970409338061
 30
0.0
 11
4342.5502437860768623
 21
191.0173612025782006
 31
0.0
  0
ARC
  5
C365
  8
0
 10
4342.561060889149303
 20
191.0221048564216915
 30
0.0
 40
0.0118113220729689
 50
203.6790625715663055
 51
295.6748170754559055
  0
LINE
  5
C366
  8
0
 10
4342.5661782979477721
 20
191.0114596952533077
 30
0.0
 11
4342.6302464935452008
 21
191.0427248433589966
 31
0.0
  0
LINE
  5
C367
  8
0
 10
4342.7442793313257425
 20
190.7026085991298885
 30
0.0
 11
4342.7034003166318143
 21
190.6818558688235896
 31
0.0
  0
ARC
  5
C368
  8
0
 10
4342.7097462546116731
 20
190.6709248330136006
 30
0.0
 40
0.0126395598315314
 50
120.1370143316768946
 51
209.7179308067184138
  0
LINE
  5
C369
  8
0
 10
4342.6987690949727039
 20
190.6646590179034888
 30
0.0
 11
4342.8280370994498298
 21
190.3875956673080907
 31
0.0
  0
ARC
  5
C36A
  8
0
 10
4342.8416419133873205
 20
190.3934315846742038
 30
0.0
 40
0.0148178885612017
 50
202.7306412278859113
 51
245.2058224442839958
  0
LINE
  5
C36B
  8
0
 10
4342.8254230266456943
 20
190.5418701804763941
 30
0.0
 11
4342.7798945117674521
 21
190.5194894873656892
 31
0.0
  0
ARC
  5
C36C
  8
0
 10
4342.7857082704149434
 20
190.5076626955913071
 30
0.0
 40
0.0131784973846382
 50
116.1775913142494971
 51
185.301305694848395
  0
LINE
  5
C36D
  8
0
 10
4342.7744308808496498
 20
190.5737678380216948
 30
0.0
 11
4342.7573420643311692
 21
190.5653673980087888
 31
0.0
  0
ARC
  5
C36E
  8
0
 10
4342.7623402798026291
 20
190.5551996464390072
 30
0.0
 40
0.0113298424477255
 50
116.1775913141913037
 51
204.2753864777442914
  0
LINE
  5
C36F
  8
0
 10
4342.7490745077939209
 20
190.6446286907049057
 30
0.0
 11
4342.7254294336453313
 21
190.6328572549720946
 31
0.0
  0
ARC
  5
C370
  8
0
 10
4342.7324760930350749
 20
190.6212419800295095
 30
0.0
 40
0.0135856549543153
 50
121.2440059904403995
 51
178.8017895029215083
  0
LINE
  5
C371
  8
0
 10
4342.8178562302318824
 20
190.5597009118434926
 30
0.0
 11
4342.8553309396829718
 21
190.471393860796212
 31
0.0
  0
ARC
  5
C372
  8
0
 10
4342.3294838880856332
 20
190.1678074581450915
 30
0.0
 40
0.6117492322380553
 50
25.1618901025886608
 51
31.1805486435965697
  0
ARC
  5
C373
  8
0
 10
4342.5811637727329071
 20
190.3143408411594066
 30
0.0
 40
0.3205993519425521
 50
32.0632019901544467
 51
33.1722095886515973
  0
ARC
  5
C374
  8
0
 10
4342.8453387881418166
 20
190.4870291824582864
 30
0.0
 40
0.0049893045948908
 50
33.1722095885672132
 51
58.1624435056008622
  0
ARC
  5
C375
  8
0
 10
4342.8476518225861582
 20
190.4907542708355948
 30
0.0
 40
0.0006045113547757
 50
58.1624435052944833
 51
167.8272096714001123
  0
LINE
  5
C376
  8
0
 10
4342.8593766408230294
 20
190.4735046837471941
 30
0.0
 11
4342.8158899240479514
 21
190.4509097075354873
 31
0.0
  0
ARC
  5
C377
  8
0
 10
4342.8225791244021821
 20
190.4398956587652947
 30
0.0
 40
0.0128862202249832
 50
121.2717104077586043
 51
208.1176512620218091
  0
LINE
  5
C378
  8
0
 10
4342.811213713746838
 20
190.433822594275199
 30
0.0
 11
4342.8354278861397688
 21
190.3799796076145867
 31
0.0
  0
LINE
  5
C379
  8
0
 10
4342.8354278861397688
 20
190.3799796076145867
 30
0.0
 11
4342.8919317106410745
 21
190.2794912967138998
 31
0.0
  0
ARC
  5
C37A
  8
0
 10
4342.9057779909826422
 20
190.2825340878538043
 30
0.0
 40
0.0141766729962654
 50
192.3940355387532009
 51
288.0067285676914821
  0
LINE
  5
C37B
  8
0
 10
4342.9101604071956899
 20
190.2690517851800962
 30
0.0
 11
4342.9486837449421728
 21
190.2881471813693111
 31
0.0
  0
ARC
  5
C37C
  8
0
 10
4348.2543415373156677
 20
192.6427051055489983
 30
0.0
 40
5.8046251726109928
 50
202.9033374211938963
 51
203.9308130062898101
  0
ARC
  5
C37D
  8
0
 10
4342.1857078118791833
 20
190.0236996373276952
 30
0.0
 40
0.7467226196467838
 50
24.2634343822191489
 51
28.493502440502251
  0
ARC
  5
C37E
  8
0
 10
4343.5352391771011753
 20
190.6929392618260977
 30
0.0
 40
0.7606460961649609
 50
204.2993617632388919
 51
208.4519676414095954
  0
ARC
  5
C37F
  8
0
 10
4342.8823925203969338
 20
190.3255179260434033
 30
0.0
 40
0.0117862327311461
 50
232.0677494519925119
 51
302.1499832216071013
  0
ARC
  5
C380
  8
0
 10
4342.8467372487320972
 20
190.3967079744585931
 30
0.0
 40
0.0111494041898182
 50
109.1841102992914045
 51
184.0042676508064972
  0
LINE
  5
C381
  8
0
 10
4342.8098455820727395
 20
190.4418734280716876
 30
0.0
 11
4342.8734760584757169
 21
190.3123134521887039
 31
0.0
  0
LINE
  5
C382
  8
0
 10
4342.8886644154335954
 20
190.3155390175527941
 30
0.0
 11
4342.9278071922626623
 21
190.3358229530595054
 31
0.0
  0
LINE
  5
C383
  8
0
 10
4342.8430735017491315
 20
190.4072382247807127
 30
0.0
 11
4342.8831795324704217
 21
190.4279194658174106
 31
0.0
  0
ARC
  5
C384
  8
0
 10
4342.9410302628339196
 20
190.3514581487289092
 30
0.0
 40
0.0128485466922876
 50
222.1579737736691982
 51
295.1243808280888175
  0
ARC
  5
C385
  8
0
 10
4343.0879957052693499
 20
190.4622066891267878
 30
0.0
 40
0.1968218740049552
 50
202.1330430310378858
 51
217.3367568338244951
  0
ARC
  5
C386
  8
0
 10
4343.04664260316531
 20
190.4646114416121065
 30
0.0
 40
0.1604135203869556
 50
193.7507016685410122
 51
208.5066483806189979
  0
ARC
  5
C387
  8
0
 10
4342.9035915935201047
 20
190.4280903034168944
 30
0.0
 40
0.0129127344975493
 50
118.8679154834304939
 51
187.1620108700925016
  0
LINE
  5
C388
  8
0
 10
4342.946485559525172
 20
190.339825226047509
 30
0.0
 11
4342.9929218035540543
 21
190.3629521616614113
 31
0.0
  0
ARC
  5
C389
  8
0
 10
4342.8502492341158359
 20
190.3047466426729954
 30
0.0
 40
0.1540887552656932
 50
22.1937762085853905
 51
29.1825397069570904
  0
ARC
  5
C38A
  8
0
 10
4342.7878949560617912
 20
190.3271066217934049
 30
0.0
 40
0.2038345590318783
 50
15.0047868968382492
 51
36.1596018387599472
  0
ARC
  5
C38B
  8
0
 10
4342.9036924244346665
 20
190.4339942368702907
 30
0.0
 40
0.0505763056102088
 50
15.3430446557721503
 51
58.5425615219464035
  0
ARC
  5
C38C
  8
0
 10
4343.1058378753077704
 20
190.5080683761538012
 30
0.0
 40
0.1784525293577245
 50
189.9814742096424993
 51
196.0789335971176968
  0
LINE
  5
C38D
  8
0
 10
4342.8973597015346968
 20
190.4393988543666012
 30
0.0
 11
4342.9444779583636773
 21
190.4639024783990067
 31
0.0
  0
ARC
  5
C38E
  8
0
 10
4342.591872797722317
 20
191.2724043612379887
 30
0.0
 40
0.0026164660729783
 50
212.6022753915748922
 51
269.8871497911869142
  0
ARC
  5
C38F
  8
0
 10
4342.5206515126374143
 20
191.4414165097387013
 30
0.0
 40
0.00161649737536
 50
46.8596929297392393
 51
115.6127732252513027
  0
ARC
  5
C390
  8
0
 10
4342.4154099850438797
 20
191.2385160530020869
 30
0.0
 40
0.1835370200796997
 50
15.8017457609428291
 51
25.7556121440237007
  0
ARC
  5
C391
  8
0
 10
4342.6691949505411685
 20
190.7883317648316108
 30
0.0
 40
0.0120027400633277
 50
217.871326388579206
 51
295.9330865802925246
  0
ARC
  5
C392
  8
0
 10
4342.6326435400733317
 20
190.8672466726164032
 30
0.0
 40
0.011950408753322
 50
117.6676289683491063
 51
198.1608276367205974
  0
ARC
  5
C393
  8
0
 10
4343.5352065692077304
 20
191.2389538104193889
 30
0.0
 40
0.9880444271718364
 50
202.3439619166778982
 51
207.615270069265506
  0
ARC
  5
C394
  8
0
 10
4342.1505399538245911
 20
190.5957859063140916
 30
0.0
 40
0.5401690555621325
 50
22.3039624314390785
 51
27.3166832883676705
  0
ARC
  5
C395
  8
0
 10
4343.1322462751431885
 20
191.0496125625710135
 30
0.0
 40
0.5423917478344461
 50
202.3142398780163091
 51
207.3064058417513991
  0
LINE
  5
C396
  8
0
 10
4342.6744530506757656
 20
190.7775446500058933
 30
0.0
 11
4342.7127050846120255
 21
190.7965936819981039
 31
0.0
  0
LINE
  5
C397
  8
0
 10
4342.6270918728114339
 20
190.8778332878663093
 30
0.0
 11
4342.668791301883175
 21
190.8995181918089941
 31
0.0
  0
ARC
  5
C398
  8
0
 10
4342.3494808912955705
 20
190.7581435942622932
 30
0.0
 40
0.349209749252418
 50
20.8521831966786486
 51
23.8813770605693101
  0
ARC
  5
C399
  8
0
 10
4342.3308271076639357
 20
190.5960037094376958
 30
0.0
 40
0.427663631196876
 50
25.3274500610158917
 51
27.7159620698780493
  0
ARC
  5
C39A
  8
0
 10
4342.6775714075056385
 20
190.7778369638907066
 30
0.0
 40
0.0398269976401908
 50
1.6076904477383851
 51
28.0962964451378987
  0
ARC
  5
C39B
  8
0
 10
4342.4252085075086143
 20
190.8184845539171022
 30
0.0
 40
0.253129510114974
 50
18.2715380351959311
 51
22.6652060926705907
  0
ARC
  5
C39C
  8
0
 10
4342.6216514703119174
 20
190.8820553315987922
 30
0.0
 40
0.050331856294756
 50
19.4091752473620112
 51
42.4504558401191829
  0
ARC
  5
C39D
  8
0
 10
4342.2766039318676121
 20
191.7306138330079079
 30
0.0
 40
0.0775986417186696
 50
0.235471351910953
 51
31.1198253834888092
  0
ARC
  5
C39E
  8
0
 10
4341.809865935556445
 20
191.6104576491595992
 30
0.0
 40
0.5567343947018824
 50
16.7300093832892891
 51
26.4352027151960485
  0
ARC
  5
C39F
  8
0
 10
4342.7981013753606021
 20
192.0263499784032888
 30
0.0
 40
0.5177442240325347
 50
195.8389413420412097
 51
198.9381351323021931
  0
ARC
  5
C3A0
  8
0
 10
4342.1698962101054349
 20
191.839479391497008
 30
0.0
 40
0.137864161899594
 50
19.2975395009271509
 51
27.5978046818690004
  0
ARC
  5
C3A1
  8
0
 10
4342.664740943155266
 20
191.9942644262287104
 30
0.0
 40
0.3835969809202817
 50
193.7103632508463136
 51
196.7507867873650866
  0
ARC
  5
C3A2
  8
0
 10
4342.6039113476072089
 20
191.820887371800211
 30
0.0
 40
0.2654142092122977
 50
197.3996864213681022
 51
199.7982458082184962
  0
ARC
  5
C3A3
  8
0
 10
4344.3108362418715842
 20
192.3675147208228964
 30
0.0
 40
2.067388697225427
 50
197.7494470069387091
 51
201.0585583376029035
  0
ARC
  5
C3A4
  8
0
 10
4288.308305104925239
 20
169.6920122872436991
 30
0.0
 40
58.3447350689744013
 50
21.8180254763538883
 51
21.942879687251839
  0
ARC
  5
C3A5
  8
0
 10
4342.5631334837089526
 20
191.1544520387087118
 30
0.0
 40
0.0099149049172422
 50
200.9187148292218126
 51
232.774431215402501
  0
LINE
  5
C3A6
  8
0
 10
4342.5571354172279825
 20
191.1465571962156105
 30
0.0
 11
4342.5620204574934178
 21
191.1327836557672128
 31
0.0
  0
LINE
  5
C3A7
  8
0
 10
4342.5538720909844415
 20
191.1509119900777023
 30
0.0
 11
4342.5092821610696774
 21
191.2692462520103049
 31
0.0
  0
ARC
  5
C3A8
  8
0
 10
4342.6186423141080013
 20
191.0161930185429924
 30
0.0
 40
0.0099020065670322
 50
171.5597667970579039
 51
203.021932496418998
  0
LINE
  5
C3A9
  8
0
 10
4342.608847551128747
 20
191.0176464119097091
 30
0.0
 11
4342.603382990717364
 21
191.0296155090516947
 31
0.0
  0
LINE
  5
C3AA
  8
0
 10
4342.6095289507102279
 20
191.0123205075157955
 30
0.0
 11
4342.6599237112568517
 21
190.8949067893211122
 31
0.0
  0
LINE
  5
C3AB
  8
0
 10
4342.7641678530499121
 20
190.6564361885176879
 30
0.0
 11
4342.7600224731477283
 21
190.6645092289840022
 31
0.0
  0
LINE
  5
C3AC
  8
0
 10
4342.7600224731477283
 20
190.6645092289840022
 30
0.0
 11
4342.7442637173562616
 21
190.7026373686736918
 31
0.0
  0
LINE
  5
C3AD
  8
0
 10
4342.7442637173562616
 20
190.7026373686736918
 30
0.0
 11
4342.7348231101532292
 21
190.7200321746097984
 31
0.0
  0
LINE
  5
C3AE
  8
0
 10
4342.7348231101532292
 20
190.7200321746097984
 30
0.0
 11
4342.7038429826925494
 21
190.7921798812670033
 31
0.0
  0
LINE
  5
C3AF
  8
0
 10
4342.8751595938656465
 20
190.3162120109498971
 30
0.0
 11
4342.835615061891076
 21
190.3959294029046134
 31
0.0
  0
ARC
  5
C3B0
  8
0
 10
4342.9402869410241692
 20
190.2081995448930059
 30
0.0
 40
0.0128396806970084
 50
122.0698493180633051
 51
209.5680843249942029
  0
ARC
  5
C3B1
  8
0
 10
4342.9623485684023763
 20
190.1632935208637036
 30
0.0
 40
0.0116814631447753
 50
110.6190581335846019
 51
180.024480414568103
  0
ARC
  5
C3B2
  8
0
 10
4342.9984647706078249
 20
190.0922916751044909
 30
0.0
 40
0.0112233861333047
 50
229.6553694833322936
 51
304.237365592979927
  0
ARC
  5
C3B3
  8
0
 10
4343.0217442908433441
 20
190.0485664353886932
 30
0.0
 40
0.0128587555673114
 50
203.3406725412548894
 51
292.007643179145191
  0
ARC
  5
C3B4
  8
0
 10
4344.774981655060401
 20
191.0438887696608958
 30
0.0
 40
2.0288454274307388
 50
204.5209991104186997
 51
209.5443212291752957
  0
LINE
  5
C3B5
  8
0
 10
4342.9506671063236354
 20
190.1632885297970859
 30
0.0
 11
4342.9911989337542764
 21
190.0837376111207959
 31
0.0
  0
LINE
  5
C3B6
  8
0
 10
4343.0047792400546314
 20
190.0830132723206987
 30
0.0
 11
4343.0167588987542331
 21
190.0890502216207949
 31
0.0
  0
LINE
  5
C3B7
  8
0
 10
4342.9582349062538924
 20
190.1742266981208047
 30
0.0
 11
4342.9702200089723192
 21
190.1803653869131949
 31
0.0
  0
ARC
  5
C3B8
  8
0
 10
4342.3903584071831574
 20
189.8268002825375902
 30
0.0
 40
0.650927034896704
 50
24.62105415133097
 51
29.4735287583901702
  0
ARC
  5
C3B9
  8
0
 10
4343.5550881925373687
 20
190.4212973561371882
 30
0.0
 40
0.6579055244559853
 50
204.6328607318419017
 51
209.434282328728699
  0
LINE
  5
C3BA
  8
0
 10
4342.9334723651563763
 20
190.2190750814208116
 30
0.0
 11
4342.9706265701533994
 21
190.2385084335255954
 31
0.0
  0
LINE
  5
C3BB
  8
0
 10
4342.9706265701533994
 20
190.2385084335255954
 30
0.0
 11
4342.946546557088368
 21
190.2870878118754092
 31
0.0
  0
ARC
  5
C3BC
  8
0
 10
4342.8958772061696436
 20
190.1464548061074993
 30
0.0
 40
0.1185805116198781
 50
27.4578754941992784
 51
50.92271935829406
  0
LINE
  5
C3BD
  8
0
 10
4343.0265628558563549
 20
190.0366446475208022
 30
0.0
 11
4343.0638672311833943
 21
190.0552089299442002
 31
0.0
  0
ARC
  5
C3BE
  8
0
 10
4343.1291994713637905
 20
190.2828968381033121
 30
0.0
 40
0.0407983544981269
 50
171.1901173909843124
 51
199.2584317071548128
  0
ARC
  5
C3BF
  8
0
 10
4343.0759252246061806
 20
190.2603203753253069
 30
0.0
 40
0.0316033187535926
 50
30.1532568703799306
 51
65.7954207995789346
  0
ARC
  5
C3C0
  8
0
 10
4342.9500976482586339
 20
190.3465797997845925
 30
0.0
 40
0.0458471646905336
 50
351.6793296058664282
 51
20.9226575874895104
  0
ARC
  5
C3C1
  8
0
 10
4343.0394024103143238
 20
190.388799055079005
 30
0.0
 40
0.0657072988422885
 50
208.5812342746849879
 51
228.031161646194505
  0
ARC
  5
C3C2
  8
0
 10
4343.6993283914871427
 20
190.1686167786699002
 30
0.0
 40
0.5595522034265326
 50
195.9367374983301033
 51
197.7896247762215864
  0
ARC
  5
C3C3
  8
0
 10
4343.156041672237734
 20
189.9928856534139925
 30
0.0
 40
0.0227047148432533
 50
25.9824179099576291
 51
76.6547772478917722
  0
LINE
  5
C3C4
  8
0
 10
4344.0262696672652964
 20
190.6198944492215048
 30
0.0
 11
4345.1950837309723283
 21
190.6198944492215048
 31
0.0
  0
LINE
  5
C3C5
  8
0
 10
4343.9155711325729499
 20
191.8403519295214892
 30
0.0
 11
4343.9155711325729499
 21
190.8356920876973959
 31
0.0
  0
LINE
  5
C3C6
  8
0
 10
4345.2147837309721581
 20
190.885612559421503
 30
0.0
 11
4345.2147837309721581
 21
190.6395944492215051
 31
0.0
  0
LINE
  5
C3C7
  8
0
 10
4343.9352711325709606
 20
191.8600519295214895
 30
0.0
 11
4345.1950837309723283
 21
191.8600519295214895
 31
0.0
  0
LINE
  5
C3C8
  8
0
 10
4344.0139963294732297
 20
191.9427290948214875
 30
0.0
 11
4344.0139963294732297
 21
191.8600519295214895
 31
0.0
  0
LINE
  5
C3C9
  8
0
 10
4345.1163585341719227
 20
191.8600519295214895
 30
0.0
 11
4345.1163585341719227
 21
191.9427290948214875
 31
0.0
  0
ARC
  5
C3CA
  8
0
 10
4343.9352711325709606
 20
191.8403519295214892
 30
0.0
 40
0.0197
 50
90.0
 51
180.0000000000098055
  0
ARC
  5
C3CB
  8
0
 10
4345.1950837309723283
 20
191.8403519295214892
 30
0.0
 40
0.0197
 50
0.0000000000097707
 51
90.0
  0
LINE
  5
C3CC
  8
0
 10
4343.9155711325729499
 20
191.9624290948214878
 30
0.0
 11
4343.9155711325729499
 21
192.3560999609215116
 31
0.0
  0
ARC
  5
C3CD
  8
0
 10
4343.9352711325709606
 20
191.9624290948214878
 30
0.0
 40
0.0197
 50
180.0
 51
270.0
  0
LINE
  5
C3CE
  8
0
 10
4345.2147837309721581
 20
192.3560999609215116
 30
0.0
 11
4345.2147837309721581
 21
191.9624290948214878
 31
0.0
  0
LINE
  5
C3CF
  8
0
 10
4330.785646723172249
 20
203.9269763389214916
 30
0.0
 11
4342.5966766443716551
 21
203.9269763389214916
 31
0.0
  0
LINE
  5
C3D0
  8
0
 10
4342.5966782191708262
 20
204.7143826381214922
 30
0.0
 11
4330.785645148373078
 21
204.7143826381214922
 31
0.0
  0
LINE
  5
C3D1
  8
0
 10
4329.210846723171926
 20
201.5647763389214902
 30
0.0
 11
4329.210846723171926
 21
202.3521763389215096
 31
0.0
  0
LINE
  5
C3D2
  8
0
 10
4328.4234451483716839
 20
201.5647763389214902
 30
0.0
 11
4328.4234451483716839
 21
202.3521745730581927
 31
0.0
  0
ARC
  5
C3D3
  8
0
 10
4330.785646723172249
 20
202.3521763389215096
 30
0.0
 40
1.5747999999999991
 50
90.0
 51
180.0
  0
ARC
  5
C3D4
  8
0
 10
4342.5966766443716551
 20
202.3521763389215096
 30
0.0
 40
1.5747999999999991
 50
0.0
 51
90.0
  0
ARC
  5
C3D5
  8
0
 10
4342.5966701540983195
 20
202.3521745730581927
 30
0.0
 40
2.3622080650771009
 50
0.0
 51
89.9998043801555099
  0
ARC
  5
C3D6
  8
0
 10
4330.7856532134455847
 20
202.3521745730581927
 30
0.0
 40
2.3622080650771129
 50
90.0001956198445043
 51
180.0
  0
ARC
  5
C3D7
  8
0
 10
4345.1950837309723283
 20
190.6395944492215904
 30
0.0
 40
0.0197
 50
270.0
 51
359.9999999999674856
  0
LINE
  5
C3D8
  8
0
 10
4347.419508140371363
 20
189.9998157090215045
 30
0.0
 11
4347.419508140371363
 21
192.4801306696215022
 31
0.0
  0
LINE
  5
C3D9
  8
0
 10
4347.0258073529730609
 20
190.0293160173204114
 30
0.0
 11
4347.0258073529730609
 21
192.4506303613227089
 31
0.0
  0
LINE
  5
C3DA
  8
0
 10
4347.0449916670913808
 20
190.0096227680184029
 30
0.0
 11
4347.419508140371363
 21
189.9998157090215045
 31
0.0
  0
LINE
  5
C3DB
  8
0
 10
4347.0449916670913808
 20
192.4703236106246891
 30
0.0
 11
4347.419508140371363
 21
192.4801306696215022
 31
0.0
  0
LINE
  5
C3DC
  8
0
 10
4345.6675396364717017
 20
190.7478472051215022
 30
0.0
 11
4347.0258073529730609
 21
190.7478472051215022
 31
0.0
  0
LINE
  5
C3DD
  8
0
 10
4345.6675396364717017
 20
191.7320991736214921
 30
0.0
 11
4347.0258073529730609
 21
191.7320991736214921
 31
0.0
  0
LINE
  5
C3DE
  8
0
 10
4345.6675396364717017
 20
191.7320991736214921
 30
0.0
 11
4345.6675396364717017
 21
190.7478472051215022
 31
0.0
  0
LINE
  5
C3DF
  8
0
 10
4345.6675396364717017
 20
190.9250125594213898
 30
0.0
 11
4345.2541837309727271
 21
190.9250125594215035
 31
0.0
  0
LINE
  5
C3E0
  8
0
 10
4345.6675396364717017
 20
191.5549338192215032
 30
0.0
 11
4345.2541837309727271
 21
191.5549338192215032
 31
0.0
  0
ARC
  5
C3E1
  8
0
 10
4347.0455073529719812
 20
190.0293160173204114
 30
0.0
 40
0.0197
 50
180.0000000000098055
 51
268.499999999801787
  0
ARC
  5
C3E2
  8
0
 10
4347.0455073529719812
 20
192.4506303613227089
 30
0.0
 40
0.0197
 50
91.500000000198213
 51
180.0
  0
ARC
  5
C3E3
  8
0
 10
4345.2541837309727271
 20
190.8856125594215882
 30
0.0
 40
0.0394
 50
89.9999999999478888
 51
180.0000000000098055
  0
LINE
  5
C3E4
  8
0
 10
4345.2147837309721581
 20
191.5943338192215037
 30
0.0
 11
4345.2147837309721581
 21
191.8403519295214892
 31
0.0
  0
ARC
  5
C3E5
  8
0
 10
4345.2541837309727271
 20
191.5943338192215037
 30
0.0
 40
0.0394
 50
179.9999999999901945
 51
270.0
  0
ARC
  5
C3E6
  8
0
 10
4345.9110283060681468
 20
191.2565902546284065
 30
0.0
 40
0.7889112489321983
 50
181.2069267946189086
 51
208.0498823004116957
  0
ARC
  5
C3E7
  8
0
 10
4345.9194044480682351
 20
191.2211698676310903
 30
0.0
 40
0.7973341142382361
 50
152.0945075489605074
 51
178.6486833560647085
  0
LINE
  5
C3E8
  8
0
 10
4328.4234451483716839
 20
201.5647763389214902
 30
0.0
 11
4329.210846723171926
 21
201.5647763389214902
 31
0.0
  0
LINE
  5
C3E9
  8
0
 10
4328.4529602947732201
 20
201.446653699521903
 30
0.0
 11
4328.4529602947732201
 21
201.5647763389214902
 31
0.0
  0
ARC
  5
C3EA
  8
0
 10
4328.4431301875747522
 20
200.5556575103911996
 30
0.0
 40
0.019685039496224
 50
0.0000000882877197
 51
69.9999997456402951
  0
ARC
  5
C3EB
  8
0
 10
4328.4431301876720681
 20
200.4281109629216076
 30
0.0
 40
0.0196850393999891
 50
316.4847259471595748
 51
0.0000000000097707
  0
ARC
  5
C3EC
  8
0
 10
4328.8171459356717605
 20
200.072993725621501
 30
0.0
 40
0.4960629920999942
 50
136.4847257596948964
 51
158.8167765154173026
  0
ARC
  5
C3ED
  8
0
 10
4325.5917363476673927
 20
200.4918842389224949
 30
0.0
 40
2.8717870676497839
 50
358.7275379892881801
 51
1.2724619208715631
  0
ARC
  5
C3EE
  8
0
 10
4328.1630010843373384
 20
200.1931424807133055
 30
0.0
 40
0.0590551180082231
 50
89.9999993829630256
 51
175.5518357766111137
  0
ARC
  5
C3EF
  8
0
 10
4323.8331712489716665
 20
199.4254259450204074
 30
0.0
 40
0.0157480315010972
 50
90.0000000016154047
 51
180.9999999962523134
  0
ARC
  5
C3F0
  8
0
 10
4323.8834257508151495
 20
199.0277881604689014
 30
0.0
 40
0.0590551431071795
 50
181.0000099827506119
 51
270.0398863814079959
  0
LINE
  5
C3F1
  8
0
 10
4323.817425615972752
 20
199.4251511039751108
 30
0.0
 11
4323.8243796022698007
 21
199.0267574958982948
 31
0.0
  0
ARC
  5
C3F2
  8
0
 10
4340.2289123350674345
 20
199.2545561743949065
 30
0.0
 40
12.1614168116983699
 50
175.5520169845009946
 51
179.0651057406267057
  0
ARC
  5
C3F3
  8
0
 10
4329.1911616837678594
 20
200.5556575103911996
 30
0.0
 40
0.0196850394962488
 50
110.0000002543597049
 51
179.999999911669903
  0
ARC
  5
C3F4
  8
0
 10
4329.1911616836732719
 20
200.4281109629216076
 30
0.0
 40
0.0196850393999891
 50
179.9999999999901945
 51
223.5152740528403967
  0
ARC
  5
C3F5
  8
0
 10
4328.8171459356717605
 20
200.072993725621501
 30
0.0
 40
0.4960629920999942
 50
21.1832234845826903
 51
43.515274240305061
  0
ARC
  5
C3F6
  8
0
 10
4332.0425555236761284
 20
200.4918842389224949
 30
0.0
 40
2.8717870676497839
 50
178.7275380791284078
 51
181.2724620107117914
  0
ARC
  5
C3F7
  8
0
 10
4329.4712907870089111
 20
200.1931424807133055
 30
0.0
 40
0.0590551180082231
 50
4.448164223388904
 51
90.0000006169848632
  0
ARC
  5
C3F8
  8
0
 10
4333.8011206223718546
 20
199.4254259450204074
 30
0.0
 40
0.0157480315010972
 50
359.0000000037476866
 51
89.9999999983324841
  0
ARC
  5
C3F9
  8
0
 10
4333.7508661452993692
 20
199.0277881498271029
 30
0.0
 40
0.0590551181555839
 50
270.0000000714430826
 51
358.9999999210750161
  0
LINE
  5
C3FA
  8
0
 10
4333.8168662553707691
 20
199.4251511039751108
 30
0.0
 11
4333.8099122690737204
 21
199.0267574958982948
 31
0.0
  0
ARC
  5
C3FB
  8
0
 10
4317.4053795362769961
 20
199.2545561743949065
 30
0.0
 40
12.1614168116983699
 50
0.9348942593732482
 51
4.447983015498953
  0
LINE
  5
C3FC
  8
0
 10
4329.6163585340727877
 20
199.4411739765214975
 30
0.0
 11
4329.6045475104729121
 21
199.4529850002215028
 31
0.0
  0
LINE
  5
C3FD
  8
0
 10
4323.88346686197292
 20
198.9687330316714906
 30
0.0
 11
4333.7508661453721288
 21
198.9687330316714906
 31
0.0
  0
LINE
  5
C3FE
  8
0
 10
4333.8011206223718546
 20
199.4411739765214975
 30
0.0
 11
4323.8331712489716665
 21
199.4411739765214975
 31
0.0
  0
LINE
  5
C3FF
  8
0
 10
4328.1630010849721657
 20
200.2521975987214944
 30
0.0
 11
4329.4712907870089111
 21
200.2521975987214944
 31
0.0
  0
LINE
  5
C400
  8
0
 10
4328.0297443608724279
 20
199.4529850002215028
 30
0.0
 11
4329.6045475104729121
 21
199.4529850002215028
 31
0.0
  0
LINE
  5
C401
  8
0
 10
4328.3447049907708788
 20
201.4136149215215141
 30
0.0
 11
4329.2895868805708233
 21
201.4136149215215994
 31
0.0
  0
LINE
  5
C402
  8
0
 10
4328.4498628676883527
 20
200.5741553967158097
 30
0.0
 11
4329.1844290036569873
 21
200.5741553967158097
 31
0.0
  0
LINE
  5
C403
  8
0
 10
4328.4628152269733619
 20
200.4281109629216076
 30
0.0
 11
4329.1714766442728433
 21
200.4281109629216076
 31
0.0
  0
LINE
  5
C404
  8
0
 10
4328.3447055131728121
 20
201.4136149215215141
 30
0.0
 11
4328.3447049907708788
 21
201.0986542916215001
 31
0.0
  0
LINE
  5
C405
  8
0
 10
4328.3447049907708788
 20
201.0986542916215001
 30
0.0
 11
4328.3840750695717361
 21
201.0986542916215001
 31
0.0
  0
LINE
  5
C406
  8
0
 10
4328.3840750695717361
 20
201.0986542916215001
 30
0.0
 11
4328.3840750695717361
 21
200.5981001970214948
 31
0.0
  0
LINE
  5
C407
  8
0
 10
4328.3840750695717361
 20
200.5981001970214948
 30
0.0
 11
4328.4498628676883527
 21
200.5741553967158097
 31
0.0
  0
LINE
  5
C408
  8
0
 10
4329.2895863581716185
 20
201.4136149215215141
 30
0.0
 11
4329.2895863581716185
 21
201.0986542916215001
 31
0.0
  0
LINE
  5
C409
  8
0
 10
4329.2895863581716185
 20
201.0986542916215001
 30
0.0
 11
4329.2502168017726945
 21
201.0986542916215001
 31
0.0
  0
LINE
  5
C40A
  8
0
 10
4329.2502168017726945
 20
201.0986542916215001
 30
0.0
 11
4329.2502168017726945
 21
200.5981060635214988
 31
0.0
  0
LINE
  5
C40B
  8
0
 10
4329.2502168017726945
 20
200.5981060635214988
 30
0.0
 11
4329.1844290036569873
 21
200.5741553967158097
 31
0.0
  0
ARC
  5
C40C
  8
0
 10
4324.8678689989810664
 20
198.9175519295160939
 30
0.0
 40
0.0078740158945971
 50
270.0000013514260786
 51
353.9999994564881263
  0
ARC
  5
C40D
  8
0
 10
4324.7752316252208402
 20
198.9174785681823892
 30
0.0
 40
0.0078009342257496
 50
185.514840599253489
 51
270.485159549842308
  0
LINE
  5
C40E
  8
0
 10
4324.8812040762231845
 20
198.9687330316214968
 30
0.0
 11
4324.8756986716780375
 21
198.9167174525726978
 31
0.0
  0
LINE
  5
C40F
  8
0
 10
4324.7674806069071565
 20
198.9165974950184079
 30
0.0
 11
4324.7620009412257787
 21
198.9687330316214968
 31
0.0
  0
LINE
  5
C410
  8
0
 10
4324.8678689991684223
 20
198.9096779136214934
 30
0.0
 11
4324.7752976798674354
 21
198.9096779136214934
 31
0.0
  0
ARC
  5
C411
  8
0
 10
4325.1810896146316736
 20
198.9175519295160939
 30
0.0
 40
0.0078740158945971
 50
270.0000013514260786
 51
353.9999994564881263
  0
ARC
  5
C412
  8
0
 10
4325.0884522408696284
 20
198.9174785681823892
 30
0.0
 40
0.0078009342257496
 50
185.514840599253489
 51
270.485159549842308
  0
LINE
  5
C413
  8
0
 10
4325.1944246918710633
 20
198.9687330316214968
 30
0.0
 11
4325.1889204958351911
 21
198.9167288706605916
 31
0.0
  0
LINE
  5
C414
  8
0
 10
4325.0807012225577637
 20
198.9165974950184079
 30
0.0
 11
4325.0752215568745669
 21
198.9687330316214968
 31
0.0
  0
LINE
  5
C415
  8
0
 10
4325.18108961481812
 20
198.9096779136214934
 30
0.0
 11
4325.0885182955171331
 21
198.9096779136214934
 31
0.0
  0
ARC
  5
C416
  8
0
 10
4325.6062155811805496
 20
198.9175519295160939
 30
0.0
 40
0.0078740158945971
 50
270.0000013514260786
 51
353.9999994564881263
  0
ARC
  5
C417
  8
0
 10
4325.513578207419414
 20
198.9174785681823892
 30
0.0
 40
0.0078009342257496
 50
185.514840599253489
 51
270.485159549842308
  0
LINE
  5
C418
  8
0
 10
4325.6195506584208488
 20
198.9687330316214968
 30
0.0
 11
4325.6140452538784302
 21
198.9167174525726978
 31
0.0
  0
LINE
  5
C419
  8
0
 10
4325.5058271891075492
 20
198.9165974950178963
 30
0.0
 11
4325.5003475234252619
 21
198.9687330316214968
 31
0.0
  0
LINE
  5
C41A
  8
0
 10
4325.606215581366996
 20
198.9096779136214934
 30
0.0
 11
4325.5136442620678281
 21
198.9096779136214934
 31
0.0
  0
ARC
  5
C41B
  8
0
 10
4325.9968167765819089
 20
198.9175519295160939
 30
0.0
 40
0.0078740158945971
 50
270.0000013514260786
 51
353.9999994564881263
  0
ARC
  5
C41C
  8
0
 10
4325.9041794028198638
 20
198.9174785681823892
 30
0.0
 40
0.0078009342257496
 50
185.514840599253489
 51
270.485159549842308
  0
LINE
  5
C41D
  8
0
 10
4326.0101518538212986
 20
198.9687330316214968
 30
0.0
 11
4326.00464644927888
 21
198.9167174525726978
 31
0.0
  0
LINE
  5
C41E
  8
0
 10
4325.8964145763839042
 20
198.9167288705536976
 30
0.0
 11
4325.8909487188266212
 21
198.9687330316214968
 31
0.0
  0
LINE
  5
C41F
  8
0
 10
4325.9968167767674458
 20
198.9096779136214934
 30
0.0
 11
4325.9042454574682779
 21
198.9096779136214934
 31
0.0
  0
ARC
  5
C420
  8
0
 10
4326.1302997548318672
 20
198.9175519295160939
 30
0.0
 40
0.0078740158945971
 50
270.0000013514260786
 51
353.9999994564881263
  0
ARC
  5
C421
  8
0
 10
4326.037662381069822
 20
198.9174785681823892
 30
0.0
 40
0.0078009342257496
 50
185.514840599253489
 51
270.485159549842308
  0
LINE
  5
C422
  8
0
 10
4326.1436348320712568
 20
198.9687330316214968
 30
0.0
 11
4326.1381306360362942
 21
198.9167288706605916
 31
0.0
  0
LINE
  5
C423
  8
0
 10
4326.0298975546338625
 20
198.9167288705536976
 30
0.0
 11
4326.0244316970765794
 21
198.9687330316214968
 31
0.0
  0
LINE
  5
C424
  8
0
 10
4326.1302997550174041
 20
198.9096779136214934
 30
0.0
 11
4326.0377284357182361
 21
198.9096779136214934
 31
0.0
  0
ARC
  5
C425
  8
0
 10
4326.4924772065824072
 20
198.9175519295160939
 30
0.0
 40
0.0078740158945971
 50
270.0000013514260786
 51
353.9999994564881263
  0
ARC
  5
C426
  8
0
 10
4326.3998398328203621
 20
198.9174785681823892
 30
0.0
 40
0.0078009342257496
 50
185.514840599253489
 51
270.485159549842308
  0
LINE
  5
C427
  8
0
 10
4326.5058122838217969
 20
198.9687330316214968
 30
0.0
 11
4326.5003068792766499
 21
198.9167174525667861
 31
0.0
  0
LINE
  5
C428
  8
0
 10
4326.3920888145066783
 20
198.9165974950184079
 30
0.0
 11
4326.3866091488253005
 21
198.9687330316214968
 31
0.0
  0
LINE
  5
C429
  8
0
 10
4326.4924772067679442
 20
198.9096779136214934
 30
0.0
 11
4326.3999058874687762
 21
198.9096779136214934
 31
0.0
  0
ARC
  5
C42A
  8
0
 10
4326.7374281739812432
 20
198.9175519295160939
 30
0.0
 40
0.0078740158945971
 50
270.0000013514260786
 51
353.9999994564881263
  0
ARC
  5
C42B
  8
0
 10
4326.644790800221017
 20
198.9174785681823892
 30
0.0
 40
0.0078009342257496
 50
185.514840599253489
 51
270.485159549842308
  0
LINE
  5
C42C
  8
0
 10
4326.7507632512224518
 20
198.9687330316214968
 30
0.0
 11
4326.7452578466782143
 21
198.9167174525726978
 31
0.0
  0
LINE
  5
C42D
  8
0
 10
4326.6370259737832384
 20
198.9167288705536976
 30
0.0
 11
4326.6315601162259554
 21
198.9687330316214968
 31
0.0
  0
LINE
  5
C42E
  8
0
 10
4326.7374281741658706
 20
198.9096779136214934
 30
0.0
 11
4326.6448568548667026
 21
198.9096779136214934
 31
0.0
  0
ARC
  5
C42F
  8
0
 10
4327.0917691736322013
 20
198.9175519295160939
 30
0.0
 40
0.0078740158945971
 50
270.0000013514260786
 51
353.9999994564881263
  0
ARC
  5
C430
  8
0
 10
4326.9991317998701561
 20
198.9174785681823892
 30
0.0
 40
0.0078009342257496
 50
185.514840599253489
 51
270.485159549842308
  0
LINE
  5
C431
  8
0
 10
4327.1051042508706814
 20
198.9687330316214968
 30
0.0
 11
4327.0995988463291724
 21
198.9167174525726978
 31
0.0
  0
LINE
  5
C432
  8
0
 10
4326.9913807815573819
 20
198.9165974950184079
 30
0.0
 11
4326.9859011158741851
 21
198.9687330316214968
 31
0.0
  0
LINE
  5
C433
  8
0
 10
4327.0917691738177382
 20
198.9096779136214934
 30
0.0
 11
4326.9991978545176607
 21
198.9096779136214934
 31
0.0
  0
ARC
  5
C434
  8
0
 10
4327.234814003531028
 20
198.9175519295160939
 30
0.0
 40
0.0078740158945971
 50
270.0000013514260786
 51
353.9999994564881263
  0
ARC
  5
C435
  8
0
 10
4327.1421766297689828
 20
198.9174785681823892
 30
0.0
 40
0.0078009342257496
 50
185.514840599253489
 51
270.485159549842308
  0
LINE
  5
C436
  8
0
 10
4327.2481490807713271
 20
198.9687330316214968
 30
0.0
 11
4327.2426448847363645
 21
198.9167288706605916
 31
0.0
  0
LINE
  5
C437
  8
0
 10
4327.1344118033339328
 20
198.9167288705536976
 30
0.0
 11
4327.1289459457748308
 21
198.9687330316214968
 31
0.0
  0
LINE
  5
C438
  8
0
 10
4327.2348140037165649
 20
198.9096779136214934
 30
0.0
 11
4327.1422426844183065
 21
198.9096779136214934
 31
0.0
  0
ARC
  5
C439
  8
0
 10
4327.6359849165810374
 20
198.9175519295160939
 30
0.0
 40
0.0078740158945971
 50
270.0000013514260786
 51
353.9999994564881263
  0
ARC
  5
C43A
  8
0
 10
4327.5433475428199017
 20
198.9174785681823892
 30
0.0
 40
0.0078009342257496
 50
185.514840599253489
 51
270.485159549842308
  0
LINE
  5
C43B
  8
0
 10
4327.6493199938213365
 20
198.9687330316214968
 30
0.0
 11
4327.6438157977863739
 21
198.9167288706605916
 31
0.0
  0
LINE
  5
C43C
  8
0
 10
4327.5355827163839422
 20
198.9167288705536976
 30
0.0
 11
4327.5301168588248402
 21
198.9687330316214968
 31
0.0
  0
LINE
  5
C43D
  8
0
 10
4327.6359849167665743
 20
198.9096779136214934
 30
0.0
 11
4327.5434135974683159
 21
198.9096779136214934
 31
0.0
  0
ARC
  5
C43E
  8
0
 10
4327.7684703198801799
 20
198.9175519295160939
 30
0.0
 40
0.0078740158945971
 50
270.0000013514260786
 51
353.9999994564881263
  0
ARC
  5
C43F
  8
0
 10
4327.6758329461208632
 20
198.9174785681823892
 30
0.0
 40
0.0078009342257496
 50
185.514840599253489
 51
270.485159549842308
  0
LINE
  5
C440
  8
0
 10
4327.781805397122298
 20
198.9687330316214968
 30
0.0
 11
4327.7762999925780605
 21
198.9167174525726978
 31
0.0
  0
LINE
  5
C441
  8
0
 10
4327.6680819278080889
 20
198.9165974950178963
 30
0.0
 11
4327.6626022621248921
 21
198.9687330316214968
 31
0.0
  0
LINE
  5
C442
  8
0
 10
4327.800175281781776
 20
198.9096779136214934
 30
0.0
 11
4327.6758990007683678
 21
198.9096779136214934
 31
0.0
  0
ARC
  5
C443
  8
0
 10
4328.1250658437311358
 20
198.9175519295160939
 30
0.0
 40
0.0078740158945971
 50
270.0000013514260786
 51
353.9999994564881263
  0
ARC
  5
C444
  8
0
 10
4328.0324284699700002
 20
198.9174785681823892
 30
0.0
 40
0.0078009342257496
 50
185.514840599253489
 51
270.485159549842308
  0
LINE
  5
C445
  8
0
 10
4328.1384009209723445
 20
198.9687330316214968
 30
0.0
 11
4328.1328955164281069
 21
198.9167174525726978
 31
0.0
  0
LINE
  5
C446
  8
0
 10
4328.0246774516581354
 20
198.9165974950184079
 30
0.0
 11
4328.0191977859758481
 21
198.9687330316214968
 31
0.0
  0
LINE
  5
C447
  8
0
 10
4328.1547893471733914
 20
198.9096779135215058
 30
0.0
 11
4328.0324945246184143
 21
198.9096779136214934
 31
0.0
  0
ARC
  5
C448
  8
0
 10
4328.8634117891806454
 20
198.9175519295160939
 30
0.0
 40
0.0078740158945971
 50
270.0000013514260786
 51
353.9999994564881263
  0
ARC
  5
C449
  8
0
 10
4328.7707744154204192
 20
198.9174785681823892
 30
0.0
 40
0.0078009342257496
 50
185.514840599253489
 51
270.485159549842308
  0
LINE
  5
C44A
  8
0
 10
4328.8767468664209446
 20
198.9687330316214968
 30
0.0
 11
4328.8712414618776165
 21
198.9167174525667861
 31
0.0
  0
LINE
  5
C44B
  8
0
 10
4328.7630095889835502
 20
198.9167288705536976
 30
0.0
 11
4328.7575437314262672
 21
198.9687330316214968
 31
0.0
  0
LINE
  5
C44C
  8
0
 10
4328.8634117893670918
 20
198.9096779136214934
 30
0.0
 11
4328.7708404700679239
 21
198.9096779136214934
 31
0.0
  0
ARC
  5
C44D
  8
0
 10
4324.6760025392813986
 20
198.9175519294161063
 30
0.0
 40
0.0078740158945971
 50
270.0000013514260786
 51
353.9999994564881263
  0
ARC
  5
C44E
  8
0
 10
4324.5833651655193535
 20
198.9174785680824016
 30
0.0
 40
0.0078009342257496
 50
185.514840599253489
 51
270.485159549842308
  0
LINE
  5
C44F
  8
0
 10
4324.6893376165216978
 20
198.9687330315215092
 30
0.0
 11
4324.6838334204849161
 21
198.916728870560604
 31
0.0
  0
LINE
  5
C450
  8
0
 10
4324.5756141472083982
 20
198.9165974949183919
 30
0.0
 11
4324.5701344815252014
 21
198.9687330315215092
 31
0.0
  0
LINE
  5
C451
  8
0
 10
4324.6760025394669356
 20
198.9096779135215058
 30
0.0
 11
4324.5834312201677676
 21
198.9096779135215058
 31
0.0
  0
ARC
  5
C452
  8
0
 10
4325.3972898598822212
 20
198.9175519294161063
 30
0.0
 40
0.0078740158945971
 50
270.0000013514260786
 51
353.9999994564881263
  0
ARC
  5
C453
  8
0
 10
4325.304652486120176
 20
198.9174785680824016
 30
0.0
 40
0.0078009342257496
 50
185.514840599253489
 51
270.485159549842308
  0
LINE
  5
C454
  8
0
 10
4325.4106249371216109
 20
198.9687330315215092
 30
0.0
 11
4325.4051195325773733
 21
198.9167174524669122
 31
0.0
  0
LINE
  5
C455
  8
0
 10
4325.2968876596823975
 20
198.91672887045371
 30
0.0
 11
4325.2914218021251145
 21
198.9687330315215092
 31
0.0
  0
LINE
  5
C456
  8
0
 10
4325.3972898600677581
 20
198.9096779135215058
 30
0.0
 11
4325.3047185407685902
 21
198.9096779135215058
 31
0.0
  0
ARC
  5
C457
  8
0
 10
4325.6261536435822563
 20
198.9175519294161063
 30
0.0
 40
0.0078740158945971
 50
270.0000013514260786
 51
353.9999994564881263
  0
LINE
  5
C458
  8
0
 10
4325.639488720821646
 20
198.9687330315215092
 30
0.0
 11
4325.6339833162783179
 21
198.9167174524727102
 31
0.0
  0
LINE
  5
C459
  8
0
 10
4325.6261536437659743
 20
198.9096779135215058
 30
0.0
 11
4325.6062539197819206
 21
198.9096779136214934
 31
0.0
  0
ARC
  5
C45A
  8
0
 10
4326.8590152508822939
 20
198.9175519295160939
 30
0.0
 40
0.0078740158945971
 50
270.0000013514260786
 51
353.9999994564881263
  0
ARC
  5
C45B
  8
0
 10
4326.7663778771193392
 20
198.9174785681823892
 30
0.0
 40
0.0078009342257496
 50
185.514840599253489
 51
270.485159549842308
  0
LINE
  5
C45C
  8
0
 10
4326.8723503281207741
 20
198.9687330316214968
 30
0.0
 11
4326.8668461320849019
 21
198.9167288706605916
 31
0.0
  0
LINE
  5
C45D
  8
0
 10
4326.758626858806565
 20
198.9165974950184079
 30
0.0
 11
4326.7531471931251872
 21
198.9687330316214968
 31
0.0
  0
LINE
  5
C45E
  8
0
 10
4326.8654340328721446
 20
198.9096779136214934
 30
0.0
 11
4326.7664439317677534
 21
198.9096779136214934
 31
0.0
  0
ARC
  5
C45F
  8
0
 10
4326.8653953599823581
 20
198.9175519294161063
 30
0.0
 40
0.0078740158945971
 50
270.0000013514260786
 51
353.9999994564881263
  0
LINE
  5
C460
  8
0
 10
4326.8787304372208382
 20
198.9687330315215092
 30
0.0
 11
4326.8732262411849661
 21
198.916728870560604
 31
0.0
  0
ARC
  5
C461
  8
0
 10
4327.4091535487823421
 20
198.9175519295160939
 30
0.0
 40
0.0078740158945971
 50
270.0000013514260786
 51
353.9999994564881263
  0
ARC
  5
C462
  8
0
 10
4327.3165161750202969
 20
198.9174785681823892
 30
0.0
 40
0.0078009342257496
 50
185.514840599253489
 51
270.485159549842308
  0
LINE
  5
C463
  8
0
 10
4327.4224886260217318
 20
198.9687330316214968
 30
0.0
 11
4327.4169832214793132
 21
198.9167174525726978
 31
0.0
  0
LINE
  5
C464
  8
0
 10
4327.3087651567066132
 20
198.9165974950184079
 30
0.0
 11
4327.3032854910261449
 21
198.9687330316214968
 31
0.0
  0
LINE
  5
C465
  8
0
 10
4327.4460895912816341
 20
198.9096779136214934
 30
0.0
 11
4327.3165822296687111
 21
198.9096779136214934
 31
0.0
  0
ARC
  5
C466
  8
0
 10
4327.4460895912816341
 20
198.9175519295160939
 30
0.0
 40
0.0078740158945971
 50
270.0000013514260786
 51
353.9999994564881263
  0
LINE
  5
C467
  8
0
 10
4327.4594246685201142
 20
198.9687330316214968
 30
0.0
 11
4327.4539192639776957
 21
198.9167174525726978
 31
0.0
  0
ARC
  5
C468
  8
0
 10
4327.800175281781776
 20
198.9175519295160939
 30
0.0
 40
0.0078740158945971
 50
270.0000013514260786
 51
353.9999994564881263
  0
LINE
  5
C469
  8
0
 10
4327.8135103590202561
 20
198.9687330316214968
 30
0.0
 11
4327.8080049544787471
 21
198.9167174525726978
 31
0.0
  0
ARC
  5
C46A
  8
0
 10
4328.1297521405813313
 20
198.9175519295160939
 30
0.0
 40
0.0078740158945971
 50
270.0000013514260786
 51
353.9999994564881263
  0
LINE
  5
C46B
  8
0
 10
4328.1430872178234495
 20
198.9687330316214968
 30
0.0
 11
4328.1375818132792119
 21
198.9167174525726978
 31
0.0
  0
ARC
  5
C46C
  8
0
 10
4328.154751008582025
 20
198.9175519294161063
 30
0.0
 40
0.0078740158945971
 50
270.0000013514260786
 51
353.9999994564881263
  0
LINE
  5
C46D
  8
0
 10
4328.1680860858214146
 20
198.9687330315215092
 30
0.0
 11
4328.1625806812771771
 21
198.9167174524669122
 31
0.0
  0
ARC
  5
C46E
  8
0
 10
4328.4939941166812787
 20
198.9175519294161063
 30
0.0
 40
0.0078740158945971
 50
270.0000013514260786
 51
353.9999994564881263
  0
LINE
  5
C46F
  8
0
 10
4328.5073291939215778
 20
198.9687330315215092
 30
0.0
 11
4328.5018249978847962
 21
198.916728870560604
 31
0.0
  0
ARC
  5
C470
  8
0
 10
4328.5090367309821886
 20
198.9175519295160939
 30
0.0
 40
0.0078740158945971
 50
270.0000013514260786
 51
353.9999994564881263
  0
LINE
  5
C471
  8
0
 10
4328.5223718082206688
 20
198.9687330316214968
 30
0.0
 11
4328.5168664036773407
 21
198.9167174525668997
 31
0.0
  0
ARC
  5
C472
  8
0
 10
4328.4927762417801205
 20
198.9175519294161063
 30
0.0
 40
0.0078740158945971
 50
270.0000013514260786
 51
353.9999994564881263
  0
ARC
  5
C473
  8
0
 10
4328.4001388680208038
 20
198.9174785680824016
 30
0.0
 40
0.0078009342257496
 50
185.514840599253489
 51
270.485159549842308
  0
LINE
  5
C474
  8
0
 10
4328.5061113190222386
 20
198.9687330315215092
 30
0.0
 11
4328.5006059144780011
 21
198.9167174524727102
 31
0.0
  0
LINE
  5
C475
  8
0
 10
4328.3923740415830252
 20
198.91672887045371
 30
0.0
 11
4328.3869081840248327
 21
198.9687330315215092
 31
0.0
  0
ARC
  5
C476
  8
0
 10
4326.3156730101200083
 20
198.9174785681823892
 30
0.0
 40
0.0078009342257496
 50
185.514840599253489
 51
270.485159549842308
  0
LINE
  5
C477
  8
0
 10
4326.307921991809053
 20
198.9165974950184079
 30
0.0
 11
4326.3024423261249467
 21
198.9687330316214968
 31
0.0
  0
LINE
  5
C478
  8
0
 10
4326.3999058874660477
 20
198.9096779136214934
 30
0.0
 11
4326.3157390647684224
 21
198.9096779136214934
 31
0.0
  0
ARC
  5
C479
  8
0
 10
4325.2274659604208864
 20
198.9174785681823892
 30
0.0
 40
0.0078009342257496
 50
185.514840599253489
 51
270.485159549842308
  0
LINE
  5
C47A
  8
0
 10
4325.2197011339831079
 20
198.9167288705536976
 30
0.0
 11
4325.2142352764249154
 21
198.9687330316214968
 31
0.0
  0
LINE
  5
C47B
  8
0
 10
4325.3047185407658617
 20
198.9096779135215058
 30
0.0
 11
4325.2275320150665721
 21
198.9096779136214934
 31
0.0
  0
ARC
  5
C47C
  8
0
 10
4324.5187682098203368
 20
198.917478567982414
 30
0.0
 40
0.0078009342257496
 50
185.514840599253489
 51
270.485159549842308
  0
LINE
  5
C47D
  8
0
 10
4324.5110033833816487
 20
198.9167288703536087
 30
0.0
 11
4324.5055375258252752
 21
198.9687330314214933
 31
0.0
  0
LINE
  5
C47E
  8
0
 10
4324.5834312201677676
 20
198.9096779135215058
 30
0.0
 11
4324.5188342644687509
 21
198.9096779134214898
 31
0.0
  0
LINE
  5
C47F
  8
0
 10
4328.5090750695726456
 20
198.9096779136214934
 30
0.0
 11
4328.4007096803716195
 21
198.9096779136214934
 31
0.0
  0
ARC
  5
C480
  8
0
 10
4332.7664228723633641
 20
198.9175519295160939
 30
0.0
 40
0.0078740158945971
 50
186.0000005435117885
 51
269.9999986485216823
  0
ARC
  5
C481
  8
0
 10
4332.8590602461235903
 20
198.9174785681823892
 30
0.0
 40
0.0078009342257496
 50
269.5148404501578057
 51
354.4851594007463973
  0
LINE
  5
C482
  8
0
 10
4332.753087795123065
 20
198.9687330316214968
 30
0.0
 11
4332.7585919911598467
 21
198.9167288706605916
 31
0.0
  0
LINE
  5
C483
  8
0
 10
4332.8668250725622784
 20
198.9167288705536976
 30
0.0
 11
4332.8722909301195614
 21
198.9687330316214968
 31
0.0
  0
LINE
  5
C484
  8
0
 10
4332.7664228721769177
 20
198.9096779136214934
 30
0.0
 11
4332.8589941914760857
 21
198.9096779136214934
 31
0.0
  0
ARC
  5
C485
  8
0
 10
4332.4532022567118474
 20
198.9175519295160939
 30
0.0
 40
0.0078740158945971
 50
186.0000005435117885
 51
269.9999986485216823
  0
ARC
  5
C486
  8
0
 10
4332.5458396304748021
 20
198.9174785681823892
 30
0.0
 40
0.0078009342257496
 50
269.5148404501578057
 51
354.4851594007463973
  0
LINE
  5
C487
  8
0
 10
4332.4398671794733673
 20
198.9687330316214968
 30
0.0
 11
4332.4453713755083299
 21
198.9167288706605916
 31
0.0
  0
LINE
  5
C488
  8
0
 10
4332.5536044569116712
 20
198.9167288705536976
 30
0.0
 11
4332.5590703144689542
 21
198.9687330316214968
 31
0.0
  0
LINE
  5
C489
  8
0
 10
4332.45320225652722
 20
198.9096779136214934
 30
0.0
 11
4332.545773575826388
 21
198.9096779136214934
 31
0.0
  0
ARC
  5
C48A
  8
0
 10
4332.0280762901629714
 20
198.9175519295160939
 30
0.0
 40
0.0078740158945971
 50
186.0000005435117885
 51
269.9999986485216823
  0
ARC
  5
C48B
  8
0
 10
4332.1207136639250166
 20
198.9174785681823892
 30
0.0
 40
0.0078009342257496
 50
269.5148404501578057
 51
354.4851594007463973
  0
LINE
  5
C48C
  8
0
 10
4332.0147412129226723
 20
198.9687330316214968
 30
0.0
 11
4332.0202454089594539
 21
198.9167288706605916
 31
0.0
  0
LINE
  5
C48D
  8
0
 10
4332.1284784903609761
 20
198.9167288705536976
 30
0.0
 11
4332.1339443479182592
 21
198.9687330316214968
 31
0.0
  0
LINE
  5
C48E
  8
0
 10
4332.0280762899756155
 20
198.9096779136214934
 30
0.0
 11
4332.1206476092766025
 21
198.9096779136214934
 31
0.0
  0
ARC
  5
C48F
  8
0
 10
4331.6374750947643406
 20
198.9175519295160939
 30
0.0
 40
0.0078740158945971
 50
186.0000005435117885
 51
269.9999986485216823
  0
ARC
  5
C490
  8
0
 10
4331.7301124685263858
 20
198.9174785681823892
 30
0.0
 40
0.0078009342257496
 50
269.5148404501578057
 51
354.4851594007463973
  0
LINE
  5
C491
  8
0
 10
4331.6241400175240415
 20
198.9687330316214968
 30
0.0
 11
4331.6296442135590041
 21
198.9167288706605916
 31
0.0
  0
LINE
  5
C492
  8
0
 10
4331.7378772949614358
 20
198.9167288705536976
 30
0.0
 11
4331.7433431525187189
 21
198.9687330316214968
 31
0.0
  0
LINE
  5
C493
  8
0
 10
4331.6374750945769847
 20
198.9096779136214934
 30
0.0
 11
4331.7300464138770622
 21
198.9096779136214934
 31
0.0
  0
ARC
  5
C494
  8
0
 10
4331.5039921165125634
 20
198.9175519295160939
 30
0.0
 40
0.0078740158945971
 50
186.0000005435117885
 51
269.9999986485216823
  0
ARC
  5
C495
  8
0
 10
4331.5966294902764275
 20
198.9174785681823892
 30
0.0
 40
0.0078009342257496
 50
269.5148404501578057
 51
354.4851594007463973
  0
LINE
  5
C496
  8
0
 10
4331.4906570392722642
 20
198.9687330316214968
 30
0.0
 11
4331.4961612353099554
 21
198.9167288706605916
 31
0.0
  0
LINE
  5
C497
  8
0
 10
4331.6043943167123871
 20
198.9167288705536976
 30
0.0
 11
4331.6098601742678511
 21
198.9687330316214968
 31
0.0
  0
LINE
  5
C498
  8
0
 10
4331.5039921163279359
 20
198.9096779136214934
 30
0.0
 11
4331.5965634356271039
 21
198.9096779136214934
 31
0.0
  0
ARC
  5
C499
  8
0
 10
4331.1418146647629328
 20
198.9175519295160939
 30
0.0
 40
0.0078740158945971
 50
186.0000005435117885
 51
269.9999986485216823
  0
ARC
  5
C49A
  8
0
 10
4331.234452038524978
 20
198.9174785681823892
 30
0.0
 40
0.0078009342257496
 50
269.5148404501578057
 51
354.4851594007463973
  0
LINE
  5
C49B
  8
0
 10
4331.1284795875244527
 20
198.9687330316214968
 30
0.0
 11
4331.1339837835575963
 21
198.9167288706605916
 31
0.0
  0
LINE
  5
C49C
  8
0
 10
4331.2422168649609375
 20
198.9167288705536976
 30
0.0
 11
4331.2476827225200395
 21
198.9687330316214968
 31
0.0
  0
LINE
  5
C49D
  8
0
 10
4331.1418146645783054
 20
198.9096779136214934
 30
0.0
 11
4331.2343859838765638
 21
198.9096779136214934
 31
0.0
  0
ARC
  5
C49E
  8
0
 10
4330.8968636973622779
 20
198.9175519295160939
 30
0.0
 40
0.0078740158945971
 50
186.0000005435117885
 51
269.9999986485216823
  0
ARC
  5
C49F
  8
0
 10
4330.9895010711243231
 20
198.9174785681823892
 30
0.0
 40
0.0078009342257496
 50
269.5148404501578057
 51
354.4851594007463973
  0
LINE
  5
C4A0
  8
0
 10
4330.8835286201219787
 20
198.9687330316214968
 30
0.0
 11
4330.8890328161587604
 21
198.9167288706605916
 31
0.0
  0
LINE
  5
C4A1
  8
0
 10
4330.9972658975621016
 20
198.9167288705536976
 30
0.0
 11
4331.0027317551193846
 21
198.9687330316214968
 31
0.0
  0
LINE
  5
C4A2
  8
0
 10
4330.8968636971758315
 20
198.9096779136214934
 30
0.0
 11
4330.9894350164768184
 21
198.9096779136214934
 31
0.0
  0
ARC
  5
C4A3
  8
0
 10
4330.5425226977131388
 20
198.9175519295160939
 30
0.0
 40
0.0078740158945971
 50
186.0000005435117885
 51
269.9999986485216823
  0
ARC
  5
C4A4
  8
0
 10
4330.6351600714760934
 20
198.9174785681823892
 30
0.0
 40
0.0078009342257496
 50
269.5148404501578057
 51
354.4851594007463973
  0
LINE
  5
C4A5
  8
0
 10
4330.5291876204737491
 20
198.9687330316214968
 30
0.0
 11
4330.5346930250161677
 21
198.9167174525784958
 31
0.0
  0
LINE
  5
C4A6
  8
0
 10
4330.6429248979111435
 20
198.9167288705536976
 30
0.0
 11
4330.6483907554684265
 21
198.9687330316214968
 31
0.0
  0
LINE
  5
C4A7
  8
0
 10
4330.5425226975266924
 20
198.9096779136214934
 30
0.0
 11
4330.6350940168258603
 21
198.9096779136214934
 31
0.0
  0
ARC
  5
C4A8
  8
0
 10
4330.3994778678134026
 20
198.9175519295160939
 30
0.0
 40
0.0078740158945971
 50
186.0000005435117885
 51
269.9999986485216823
  0
ARC
  5
C4A9
  8
0
 10
4330.4921152415754477
 20
198.9174785681823892
 30
0.0
 40
0.0078009342257496
 50
269.5148404501578057
 51
354.4851594007463973
  0
LINE
  5
C4AA
  8
0
 10
4330.3861427905740129
 20
198.9687330316214968
 30
0.0
 11
4330.3916481951164315
 21
198.9167174525784958
 31
0.0
  0
LINE
  5
C4AB
  8
0
 10
4330.499866259886403
 20
198.9165974950184079
 30
0.0
 11
4330.5053459255677808
 21
198.9687330316214968
 31
0.0
  0
LINE
  5
C4AC
  8
0
 10
4330.3994778676278656
 20
198.9096779136214934
 30
0.0
 11
4330.4920491869261241
 21
198.9096779136214934
 31
0.0
  0
ARC
  5
C4AD
  8
0
 10
4329.9983069547633932
 20
198.9175519295160939
 30
0.0
 40
0.0078740158945971
 50
186.0000005435117885
 51
269.9999986485216823
  0
ARC
  5
C4AE
  8
0
 10
4330.0909443285254383
 20
198.9174785681823892
 30
0.0
 40
0.0078009342257496
 50
269.5148404501578057
 51
354.4851594007463973
  0
LINE
  5
C4AF
  8
0
 10
4329.9849718775240035
 20
198.9687330316214968
 30
0.0
 11
4329.990477282066422
 21
198.9167174525784958
 31
0.0
  0
LINE
  5
C4B0
  8
0
 10
4330.0987091549613979
 20
198.9167288705536976
 30
0.0
 11
4330.1041750125177714
 21
198.9687330316214968
 31
0.0
  0
LINE
  5
C4B1
  8
0
 10
4329.9983069545769467
 20
198.9096779136214934
 30
0.0
 11
4330.0908782738770242
 21
198.9096779136214934
 31
0.0
  0
ARC
  5
C4B2
  8
0
 10
4329.8658215514633412
 20
198.9175519295160939
 30
0.0
 40
0.0078740158945971
 50
186.0000005435117885
 51
269.9999986485216823
  0
ARC
  5
C4B3
  8
0
 10
4329.9584589252253863
 20
198.9174785681823892
 30
0.0
 40
0.0078009342257496
 50
269.5148404501578057
 51
354.4851594007463973
  0
LINE
  5
C4B4
  8
0
 10
4329.852486474223042
 20
198.9687330316214968
 30
0.0
 11
4329.8579906702598237
 21
198.9167288706605916
 31
0.0
  0
LINE
  5
C4B5
  8
0
 10
4329.9662099435372511
 20
198.9165974950184079
 30
0.0
 11
4329.9716896092186289
 21
198.9687330316214968
 31
0.0
  0
LINE
  5
C4B6
  8
0
 10
4329.8341165895626546
 20
198.9096779136214934
 30
0.0
 11
4329.9583928705760627
 21
198.9096779136214934
 31
0.0
  0
ARC
  5
C4B7
  8
0
 10
4329.5092260276132947
 20
198.9175519295160939
 30
0.0
 40
0.0078740158945971
 50
186.0000005435117885
 51
269.9999986485216823
  0
ARC
  5
C4B8
  8
0
 10
4329.6018634013744304
 20
198.9174785681823892
 30
0.0
 40
0.0078009342257496
 50
269.5148404501578057
 51
354.4851594007463973
  0
LINE
  5
C4B9
  8
0
 10
4329.4958909503729956
 20
198.9687330316214968
 30
0.0
 11
4329.5013963549154141
 21
198.9167174525784958
 31
0.0
  0
LINE
  5
C4BA
  8
0
 10
4329.6096144196872046
 20
198.9165974950184079
 30
0.0
 11
4329.6150940853685825
 21
198.9687330316214968
 31
0.0
  0
LINE
  5
C4BB
  8
0
 10
4329.4795025241728581
 20
198.9096779135215058
 30
0.0
 11
4329.6017973467251068
 21
198.9096779136214934
 31
0.0
  0
ARC
  5
C4BC
  8
0
 10
4332.9582893320612129
 20
198.9175519294161063
 30
0.0
 40
0.0078740158945971
 50
186.0000005435117885
 51
269.9999986485216823
  0
ARC
  5
C4BD
  8
0
 10
4333.0509267058241676
 20
198.9174785680824016
 30
0.0
 40
0.0078009342257496
 50
269.5148404501578057
 51
354.4851594007463973
  0
LINE
  5
C4BE
  8
0
 10
4332.9449542548227328
 20
198.9687330315215092
 30
0.0
 11
4332.9504584508586049
 21
198.916728870560604
 31
0.0
  0
LINE
  5
C4BF
  8
0
 10
4333.0586915322610366
 20
198.91672887045371
 30
0.0
 11
4333.0641573898192291
 21
198.9687330315215092
 31
0.0
  0
LINE
  5
C4C0
  8
0
 10
4332.958289331875676
 20
198.9096779135215058
 30
0.0
 11
4333.0508606511766629
 21
198.9096779135215058
 31
0.0
  0
ARC
  5
C4C1
  8
0
 10
4332.2370020114631188
 20
198.9175519294161063
 30
0.0
 40
0.0078740158945971
 50
186.0000005435117885
 51
269.9999986485216823
  0
ARC
  5
C4C2
  8
0
 10
4332.329639385225164
 20
198.9174785680824016
 30
0.0
 40
0.0078009342257496
 50
269.5148404501578057
 51
354.4851594007463973
  0
LINE
  5
C4C3
  8
0
 10
4332.2236669342237292
 20
198.9687330315215092
 30
0.0
 11
4332.2291711302586918
 21
198.916728870560604
 31
0.0
  0
LINE
  5
C4C4
  8
0
 10
4332.3374042116611236
 20
198.91672887045371
 30
0.0
 11
4332.3428700692184066
 21
198.9687330315215092
 31
0.0
  0
LINE
  5
C4C5
  8
0
 10
4332.2370020112775819
 20
198.9096779135215058
 30
0.0
 11
4332.3295733305767499
 21
198.9096779135215058
 31
0.0
  0
ARC
  5
C4C6
  8
0
 10
4332.0081382277621742
 20
198.9175519294161063
 30
0.0
 40
0.0078740158945971
 50
186.0000005435117885
 51
269.9999986485216823
  0
LINE
  5
C4C7
  8
0
 10
4331.9948031505218751
 20
198.9687330315215092
 30
0.0
 11
4332.0003073465595662
 21
198.916728870560604
 31
0.0
  0
LINE
  5
C4C8
  8
0
 10
4332.0081382275766373
 20
198.9096779135215058
 30
0.0
 11
4332.0280379515616005
 21
198.9096779136214934
 31
0.0
  0
ARC
  5
C4C9
  8
0
 10
4330.7752766204630461
 20
198.9175519295160939
 30
0.0
 40
0.0078740158945971
 50
186.0000005435117885
 51
269.9999986485216823
  0
ARC
  5
C4CA
  8
0
 10
4330.8679139942241818
 20
198.9174785681823892
 30
0.0
 40
0.0078009342257496
 50
269.5148404501578057
 51
354.4851594007463973
  0
LINE
  5
C4CB
  8
0
 10
4330.761941543222747
 20
198.9687330316214968
 30
0.0
 11
4330.7674457392577096
 21
198.9167288706605916
 31
0.0
  0
LINE
  5
C4CC
  8
0
 10
4330.8756650125360466
 20
198.9165974950184079
 30
0.0
 11
4330.8811446782183339
 21
198.9687330316214968
 31
0.0
  0
LINE
  5
C4CD
  8
0
 10
4330.7688578384731954
 20
198.9096779136214934
 30
0.0
 11
4330.8678479395757677
 21
198.9096779136214934
 31
0.0
  0
ARC
  5
C4CE
  8
0
 10
4330.768896511362982
 20
198.9175519294161063
 30
0.0
 40
0.0078740158945971
 50
186.0000005435117885
 51
269.9999986485216823
  0
LINE
  5
C4CF
  8
0
 10
4330.7555614341226828
 20
198.9687330315215092
 30
0.0
 11
4330.7610656301576455
 21
198.916728870560604
 31
0.0
  0
ARC
  5
C4D0
  8
0
 10
4330.2251383225629979
 20
198.9175519295160939
 30
0.0
 40
0.0078740158945971
 50
186.0000005435117885
 51
269.9999986485216823
  0
ARC
  5
C4D1
  8
0
 10
4330.3177756963241336
 20
198.9174785681823892
 30
0.0
 40
0.0078009342257496
 50
269.5148404501578057
 51
354.4851594007463973
  0
LINE
  5
C4D2
  8
0
 10
4330.2118032453226988
 20
198.9687330316214968
 30
0.0
 11
4330.2173086498660268
 21
198.9167174525784958
 31
0.0
  0
LINE
  5
C4D3
  8
0
 10
4330.3255267146359984
 20
198.9165974950178963
 30
0.0
 11
4330.3310063803182857
 21
198.9687330316214968
 31
0.0
  0
LINE
  5
C4D4
  8
0
 10
4330.188202280063706
 20
198.9096779136214934
 30
0.0
 11
4330.3177096416757195
 21
198.9096779136214934
 31
0.0
  0
ARC
  5
C4D5
  8
0
 10
4330.188202280063706
 20
198.9175519295160939
 30
0.0
 40
0.0078740158945971
 50
186.0000005435117885
 51
269.9999986485216823
  0
LINE
  5
C4D6
  8
0
 10
4330.1748672028215879
 20
198.9687330316214968
 30
0.0
 11
4330.1803726073640064
 21
198.9167174525784958
 31
0.0
  0
ARC
  5
C4D7
  8
0
 10
4329.8341165895626546
 20
198.9175519295160939
 30
0.0
 40
0.0078740158945971
 50
186.0000005435117885
 51
269.9999986485216823
  0
LINE
  5
C4D8
  8
0
 10
4329.8207815123232649
 20
198.9687330316214968
 30
0.0
 11
4329.826286916864774
 21
198.9167174525784958
 31
0.0
  0
ARC
  5
C4D9
  8
0
 10
4329.5045397307621897
 20
198.9175519295160939
 30
0.0
 40
0.0078740158945971
 50
186.0000005435117885
 51
269.9999986485216823
  0
LINE
  5
C4DA
  8
0
 10
4329.4912046535228001
 20
198.9687330316214968
 30
0.0
 11
4329.4967100580670376
 21
198.9167174525668997
 31
0.0
  0
ARC
  5
C4DB
  8
0
 10
4329.4795408627633151
 20
198.9175519294161063
 30
0.0
 40
0.0078740158945971
 50
186.0000005435117885
 51
269.9999986485216823
  0
LINE
  5
C4DC
  8
0
 10
4329.4662057855239254
 20
198.9687330315215092
 30
0.0
 11
4329.471711190066344
 21
198.9167174524785082
 31
0.0
  0
ARC
  5
C4DD
  8
0
 10
4329.1402977546622424
 20
198.9175519294161063
 30
0.0
 40
0.0078740158945971
 50
186.0000005435117885
 51
269.9999986485216823
  0
LINE
  5
C4DE
  8
0
 10
4329.1269626774228527
 20
198.9687330315215092
 30
0.0
 11
4329.1324668734587249
 21
198.916728870560604
 31
0.0
  0
ARC
  5
C4DF
  8
0
 10
4329.1252551403631514
 20
198.9175519295160939
 30
0.0
 40
0.0078740158945971
 50
186.0000005435117885
 51
269.9999986485216823
  0
LINE
  5
C4E0
  8
0
 10
4329.1119200631228523
 20
198.9687330316214968
 30
0.0
 11
4329.1174254676661803
 21
198.9167174525784958
 31
0.0
  0
ARC
  5
C4E1
  8
0
 10
4329.1415156295615816
 20
198.9175519294161063
 30
0.0
 40
0.0078740158945971
 50
186.0000005435117885
 51
269.9999986485216823
  0
ARC
  5
C4E2
  8
0
 10
4329.2341530033254458
 20
198.9174785680824016
 30
0.0
 40
0.0078009342257496
 50
269.5148404501578057
 51
354.4851594007463973
  0
LINE
  5
C4E3
  8
0
 10
4329.1281805523231014
 20
198.9687330315215092
 30
0.0
 11
4329.1341134972972213
 21
198.9126780103426881
 31
0.0
  0
LINE
  5
C4E4
  8
0
 10
4329.2419040216373105
 20
198.9165974949189035
 30
0.0
 11
4329.2473836873186883
 21
198.9687330315215092
 31
0.0
  0
ARC
  5
C4E5
  8
0
 10
4331.3186188612253318
 20
198.9174785681823892
 30
0.0
 40
0.0078009342257496
 50
269.5148404501578057
 51
354.4851594007463973
  0
LINE
  5
C4E6
  8
0
 10
4331.3263836876612913
 20
198.9167288705536976
 30
0.0
 11
4331.3318495452176649
 21
198.9687330316214968
 31
0.0
  0
LINE
  5
C4E7
  8
0
 10
4331.2343859838765638
 20
198.9096779136214934
 30
0.0
 11
4331.3185528065769176
 21
198.9096779136214934
 31
0.0
  0
ARC
  5
C4E8
  8
0
 10
4332.4068259109253631
 20
198.9174785681823892
 30
0.0
 40
0.0078009342257496
 50
269.5148404501578057
 51
354.4851594007463973
  0
LINE
  5
C4E9
  8
0
 10
4332.4145907373631417
 20
198.9167288705536976
 30
0.0
 11
4332.4200565949186057
 21
198.9687330316214968
 31
0.0
  0
LINE
  5
C4EA
  8
0
 10
4332.3295733305767499
 20
198.9096779135215058
 30
0.0
 11
4332.4067598562760395
 21
198.9096779136214934
 31
0.0
  0
ARC
  5
C4EB
  8
0
 10
4333.1155236615250033
 20
198.917478567982414
 30
0.0
 40
0.0078009342257496
 50
269.5148404501578057
 51
354.4851594007463973
  0
LINE
  5
C4EC
  8
0
 10
4333.1232884879609628
 20
198.9167288703536087
 30
0.0
 11
4333.1287543455446212
 21
198.9687330316714906
 31
0.0
  0
LINE
  5
C4ED
  8
0
 10
4333.0508606511766629
 20
198.9096779135215058
 30
0.0
 11
4333.1154576068765891
 21
198.9096779134214898
 31
0.0
  0
LINE
  5
C4EE
  8
0
 10
4329.1252168017726945
 20
198.9096779136214934
 30
0.0
 11
4329.2335821909728111
 21
198.9096779136214934
 31
0.0
  0
LINE
  5
C4EF
  8
0
 10
4328.3840750695717361
 20
200.6077154605216037
 30
0.0
 11
4329.2502168017726945
 21
200.6077154605216037
 31
0.0
  0
LINE
  5
C4F0
  8
0
 10
4344.1714766443728877
 20
202.3521763389215096
 30
0.0
 11
4344.1714766443728877
 21
192.3757999609215119
 31
0.0
  0
LINE
  5
C4F1
  8
0
 10
4344.9588782191731298
 20
192.3757999609215119
 30
0.0
 11
4344.9588782191731298
 21
202.3521745730581927
 31
0.0
  0
LINE
  5
C4F2
  8
0
 10
4344.3459748175282584
 20
192.3757999609215119
 30
0.0
 11
4344.3459755246440182
 21
191.9427290948214875
 31
0.0
  0
LINE
  5
C4F3
  8
0
 10
4344.7843807450290115
 20
191.9427290948214875
 30
0.0
 11
4344.7843798602625611
 21
192.3757999609215119
 31
0.0
  0
LINE
  5
C4F4
  8
0
 10
4328.0179333372725523
 20
199.4411739765214975
 30
0.0
 11
4328.0297443608724279
 21
199.4529850002215028
 31
0.0
  0
LINE
  5
C4F5
  8
0
 10
4343.9352711325709606
 20
192.3757999609215119
 30
0.0
 11
4345.1950837309723283
 21
192.3757999609215119
 31
0.0
  0
ARC
  5
C4F6
  8
0
 10
4343.9352711325709606
 20
192.3560999609215116
 30
0.0
 40
0.0197
 50
90.0
 51
180.0
  0
ARC
  5
C4F7
  8
0
 10
4345.1950837309723283
 20
192.3560999609215116
 30
0.0
 40
0.0197
 50
359.9999999999593001
 51
90.0000000000521254
  0
LINE
  5
C4F8
  8
0
 10
4343.9352711325709606
 20
191.9427290948214875
 30
0.0
 11
4345.1950837309723283
 21
191.9427290948214875
 31
0.0
  0
ARC
  5
C4F9
  8
0
 10
4345.1950837309723283
 20
191.9624290948214878
 30
0.0
 40
0.0197
 50
269.9999999999478746
 51
0.0
  0
LINE
  5
C4FA
  8
0
 10
4340.1046618071923149
 20
144.5568893925830878
 30
0.0
 11
4342.2593822388444096
 21
144.5568889050406085
 31
0.0
  0
LINE
  5
C4FB
  8
0
 10
4342.8255969234278382
 20
144.5568887769248079
 30
0.0
 11
4343.6804227653801718
 21
144.556888583505696
 31
0.0
  0
LINE
  5
C4FC
  8
0
 10
4342.2364522348725586
 20
145.4269810633215059
 30
0.0
 11
4342.2409274574802112
 21
145.4269810633215059
 31
0.0
  0
LINE
  5
C4FD
  8
0
 10
4342.0880106996000904
 20
142.3128078350337944
 30
0.0
 11
4342.3537486662016818
 21
142.3128078350339081
 31
0.0
  0
LINE
  5
C4FE
  8
0
 10
4341.1795966021845743
 20
143.3754143409026938
 30
0.0
 11
4342.3001709700038191
 21
143.3377370485758888
 31
0.0
  0
LINE
  5
C4FF
  8
0
 10
4342.8750685248978698
 20
143.3184071550359135
 30
0.0
 11
4345.7109996951639914
 21
143.2230540836204966
 31
0.0
  0
ARC
  5
C500
  8
0
 10
4340.2483903237280174
 20
143.5088874758195914
 30
0.0
 40
0.0129845059798401
 50
223.7411150412694099
 51
254.4020757532173036
  0
ARC
  5
C501
  8
0
 10
4340.4143772669649479
 20
143.7243861982387045
 30
0.0
 40
0.2848569224431125
 50
212.8377650599547053
 51
232.0019292564161901
  0
ARC
  5
C502
  8
0
 10
4340.9555182859912748
 20
143.9934380863718104
 30
0.0
 40
0.8879854286868615
 50
185.8689702590492061
 51
208.4859763791725982
  0
ARC
  5
C503
  8
0
 10
4343.3002272703206472
 20
144.3313572160834042
 30
0.0
 40
3.256384740428059
 50
177.0013608532044032
 51
187.5652335576095879
  0
ARC
  5
C504
  8
0
 10
4340.1087158690579599
 20
144.4963757330625072
 30
0.0
 40
0.0606493067246515
 50
93.8327554596673394
 51
174.9579700107356075
  0
ARC
  5
C505
  8
0
 10
4342.1291573228036214
 20
156.4525612796693963
 30
0.0
 40
13.0924800093110605
 50
261.7253065642070737
 51
263.6143397043675805
  0
ARC
  5
C506
  8
0
 10
4340.9413363674502762
 20
145.2287622172027
 30
0.0
 40
1.807480485163637
 50
261.4626635646069985
 51
264.7255610336789005
  0
ARC
  5
C507
  8
0
 10
4343.6001179995073471
 20
164.2016859150647008
 30
0.0
 40
20.963955975659001
 50
262.2557156990465046
 51
262.7823401778143193
  0
ARC
  5
C508
  8
0
 10
4341.3177679904811157
 20
145.2270708281853899
 30
0.0
 40
1.8568045345268069
 50
259.0865632788413109
 51
265.7324738560337209
  0
LINE
  5
C509
  8
0
 10
4345.7502168018727389
 20
143.2682105135035897
 30
0.0
 11
4345.7502168018727389
 21
145.8761723475483052
 31
0.0
  0
ARC
  5
C50A
  8
0
 10
4345.7080056756603881
 20
143.2652620060920867
 30
0.0
 40
0.0423139796293579
 50
274.0574804938331113
 51
3.9957017696234218
  0
LINE
  5
C50B
  8
0
 10
4342.0260249864113575
 20
143.3469547128923125
 30
0.0
 11
4342.0683277780599383
 21
142.3316877133028981
 31
0.0
  0
ARC
  5
C50C
  8
0
 10
4342.0880106996000904
 20
142.3325078350337094
 30
0.0
 40
0.0197
 50
182.3859440303893109
 51
269.9999999999478746
  0
LINE
  5
C50D
  8
0
 10
4343.7187211368718636
 20
144.8519886416115128
 30
0.0
 11
4343.7187211368718636
 21
146.0539052099076969
 31
0.0
  0
ARC
  5
C50E
  8
0
 10
4343.4236211368715885
 20
144.8519886416115128
 30
0.0
 40
0.2951
 50
269.9999870358141152
 51
359.9999999999984084
  0
LINE
  5
C50F
  8
0
 10
4343.7187211368718636
 20
146.0539052099076969
 30
0.0
 11
4345.7502168018727389
 21
145.8761723475483052
 31
0.0
  0
LINE
  5
C510
  8
0
 10
4345.7554586087935604
 20
146.3922601328004021
 30
0.0
 11
4344.7909319486780078
 21
146.0973747372433991
 31
0.0
  0
LINE
  5
C511
  8
0
 10
4343.7587733357286197
 20
146.1732846483133983
 30
0.0
 11
4344.7162029939117929
 21
146.08952040749611
 31
0.0
  0
LINE
  5
C512
  8
0
 10
4343.7401513128706938
 20
146.7278217140535048
 30
0.0
 11
4343.7401513128706938
 21
146.1936070201552127
 31
0.0
  0
LINE
  5
C513
  8
0
 10
4341.0260351322613133
 20
147.7305649887559014
 30
0.0
 11
4342.2316180703237478
 21
147.4530219278404104
 31
0.0
  0
LINE
  5
C514
  8
0
 10
4342.7997152219595591
 20
147.3222375434694982
 30
0.0
 11
4343.3718710386092425
 21
147.1905187942568887
 31
0.0
  0
LINE
  5
C515
  8
0
 10
4341.1807088367040706
 20
147.9185720478511996
 30
0.0
 11
4342.2334666879705765
 21
147.6851803452881029
 31
0.0
  0
LINE
  5
C516
  8
0
 10
4342.8029234984169307
 20
147.5589343197976007
 30
0.0
 11
4345.2308811119628444
 21
147.0206669865312961
 31
0.0
  0
ARC
  5
C517
  8
0
 10
4341.0539815401107262
 20
147.839252900752399
 30
0.0
 40
0.1122232771129413
 50
174.5519926583822041
 51
255.5801724771891941
  0
ARC
  5
C518
  8
0
 10
4341.4710800825414481
 20
147.7994728482410096
 30
0.0
 40
0.5312145021707437
 50
168.3543505379126088
 51
174.5519926583822041
  0
ARC
  5
C519
  8
0
 10
4340.9794227424017663
 20
147.9008038984486006
 30
0.0
 40
0.0292235442349337
 50
93.4726502020298966
 51
168.3543505379126088
  0
ARC
  5
C51A
  8
0
 10
4341.0382974152998941
 20
146.930611529345299
 30
0.0
 40
1.0012006325323271
 50
88.6685116035809813
 51
93.4726502020298966
  0
ARC
  5
C51B
  8
0
 10
4341.0451967726776275
 20
147.2274469333106026
 30
0.0
 40
0.704285058371124
 50
78.906489688228973
 51
88.6685116035809813
  0
ARC
  5
C51C
  8
0
 10
4343.2653513128707345
 20
146.7278217140535048
 30
0.0
 40
0.4748000000000001
 50
0.0
 51
77.0355460680598725
  0
ARC
  5
C51D
  8
0
 10
4343.7605513128728489
 20
146.193607020155099
 30
0.0
 40
0.0204
 50
179.9999999999901945
 51
265.0000000235655193
  0
LINE
  5
C51E
  8
0
 10
4345.7698942259730757
 20
146.4117687498080898
 30
0.0
 11
4345.7698942259730757
 21
146.8459713930606085
 31
0.0
  0
ARC
  5
C51F
  8
0
 10
4345.74949422597183
 20
146.4117687498080898
 30
0.0
 40
0.0204
 50
287.000000134465779
 51
359.9999999999544116
  0
ARC
  5
C520
  8
0
 10
4343.3248259311667425
 20
139.6130763150609937
 30
0.0
 40
7.6488852722663969
 50
71.4674106843915098
 51
75.570186389964789
  0
ARC
  5
C521
  8
0
 10
4345.74949422597183
 20
146.8459713930604948
 30
0.0
 40
0.0204
 50
0.0000000000553671
 51
71.4674106841716252
  0
ARC
  5
C522
  8
0
 10
4344.7333639595781278
 20
146.2856711435574084
 30
0.0
 40
0.1969
 50
265.0000000235655193
 51
287.000000134465779
  0
LINE
  5
C523
  8
0
 10
4345.6439175892719504
 20
145.9745972635217015
 30
0.0
 11
4345.6439175892719504
 21
145.8854723247264076
 31
0.0
  0
ARC
  5
C524
  8
0
 10
4343.5563191640758305
 20
145.9745972635217015
 30
0.0
 40
2.087598425197271
 50
0.0000000000016284
 51
10.3002345225539802
  0
ARC
  5
C525
  8
0
 10
4346.1724608962786078
 20
145.9745972635211047
 30
0.0
 40
2.0875984252074851
 50
175.3413016923024941
 51
178.7036803187237979
  0
LINE
  5
C526
  8
0
 10
4347.4195081403941003
 20
142.7658787010722961
 30
0.0
 11
4347.4195081402958749
 21
145.324448900579398
 31
0.0
  0
ARC
  5
C527
  8
0
 10
4347.3995081403945733
 20
142.7658787010715002
 30
0.0
 40
0.02
 50
270.0
 51
0.0000000022391105
  0
ARC
  5
C528
  8
0
 10
4347.3995248471355808
 20
145.324328635289703
 30
0.0
 40
0.0199836550502034
 50
0.3448185579716018
 51
88.3394282777948376
  0
LINE
  5
C529
  8
0
 10
4347.40010394122055
 20
145.3443038979715141
 30
0.0
 11
4347.2777758558877395
 21
145.3443038979715141
 31
0.0
  0
ARC
  5
C52A
  8
0
 10
4347.2783138090799184
 20
145.146621239042986
 30
0.0
 40
0.1976833908923188
 50
90.1559184384176575
 51
141.9442677328497098
  0
LINE
  5
C52B
  8
0
 10
4347.1226556298042851
 20
145.2684787552626915
 30
0.0
 11
4346.648798632195394
 21
144.6619694563499081
 31
0.0
  0
ARC
  5
C52C
  8
0
 10
4346.7108468402220751
 20
144.6134921343868029
 30
0.0
 40
0.0787402747266546
 50
142.0000293114339058
 51
179.9999706295907913
  0
LINE
  5
C52D
  8
0
 10
4346.6321065654956328
 20
144.6134921747498936
 30
0.0
 11
4346.6321061796934373
 21
143.4763545186499982
 31
0.0
  0
LINE
  5
C52E
  8
0
 10
4346.6321065469046516
 20
144.5587028742498887
 30
0.0
 11
4346.3801380616741881
 21
144.5587028742498887
 31
0.0
  0
LINE
  5
C52F
  8
0
 10
4347.1221491811884334
 20
142.8220161628051983
 30
0.0
 11
4346.648798632195394
 21
143.4278772370498984
 31
0.0
  0
ARC
  5
C530
  8
0
 10
4346.7108499952346392
 20
143.4763562720449102
 30
0.0
 40
0.0787438155620308
 50
180.0012758097533094
 51
217.9995395493745036
  0
LINE
  5
C531
  8
0
 10
4346.6321061982807805
 20
143.5311438192499054
 30
0.0
 11
4346.3801380616741881
 21
143.5311438192499054
 31
0.0
  0
LINE
  5
C532
  8
0
 10
4347.2782541114756896
 20
142.74587870107149
 30
0.0
 11
4347.3995081403945733
 21
142.74587870107149
 31
0.0
  0
ARC
  5
C533
  8
0
 10
4347.2782541114756896
 20
142.9439787010715008
 30
0.0
 40
0.1981
 50
218.0000000015382966
 51
270.0
  0
LINE
  5
C534
  8
0
 10
4345.8289569592716362
 20
144.6159574413215125
 30
0.0
 11
4346.3801380616741881
 21
144.6159574413215125
 31
0.0
  0
LINE
  5
C535
  8
0
 10
4346.3801380616741881
 20
144.6159574413215125
 30
0.0
 11
4346.3801380616741881
 21
143.4742251578215075
 31
0.0
  0
LINE
  5
C536
  8
0
 10
4346.3801380616741881
 20
143.4742251578215075
 30
0.0
 11
4345.8289569592716362
 21
143.4742251578215075
 31
0.0
  0
LINE
  5
C537
  8
0
 10
4345.8289569592716362
 20
143.4742251578215075
 30
0.0
 11
4345.8289569592716362
 21
144.6159574413215125
 31
0.0
  0
LINE
  5
C538
  8
0
 10
4345.8683270380706745
 20
144.1437756897215081
 30
0.0
 11
4346.3407679829715562
 21
144.1437756897215081
 31
0.0
  0
LINE
  5
C539
  8
0
 10
4346.3407679829715562
 20
144.1437756897215081
 30
0.0
 11
4346.3407679829715562
 21
143.946406909421512
 31
0.0
  0
LINE
  5
C53A
  8
0
 10
4346.3407679829715562
 20
143.946406909421512
 30
0.0
 11
4345.8683270380706745
 21
143.946406909421512
 31
0.0
  0
LINE
  5
C53B
  8
0
 10
4345.8683270380706745
 20
143.946406909421512
 30
0.0
 11
4345.8683270380706745
 21
144.1437756897215081
 31
0.0
  0
LINE
  5
C53C
  8
0
 10
4345.8683270380706745
 20
143.5729095479215118
 30
0.0
 11
4346.3407679829715562
 21
143.5729095479215118
 31
0.0
  0
LINE
  5
C53D
  8
0
 10
4346.3407679829715562
 20
143.5729095479215118
 30
0.0
 11
4346.3407679829715562
 21
143.4742251578215075
 31
0.0
  0
LINE
  5
C53E
  8
0
 10
4345.8683270380706745
 20
143.4742251578215075
 30
0.0
 11
4345.8683270380706745
 21
143.5729095479215118
 31
0.0
  0
LINE
  5
C53F
  8
0
 10
4346.3407679829715562
 20
144.6159574413215125
 30
0.0
 11
4346.3407679829715562
 21
144.5172730511214922
 31
0.0
  0
LINE
  5
C540
  8
0
 10
4346.3407679829715562
 20
144.5172730511214922
 30
0.0
 11
4345.8683270380706745
 21
144.5172730511214922
 31
0.0
  0
LINE
  5
C541
  8
0
 10
4345.8683270380706745
 20
144.5172730511214922
 30
0.0
 11
4345.8683270380706745
 21
144.6159574413215125
 31
0.0
  0
ARC
  5
C542
  8
0
 10
4346.2915553837383413
 20
144.3305243704215002
 30
0.0
 40
0.4625984244653842
 50
156.1906237368636994
 51
203.8093762631347943
  0
ARC
  5
C543
  8
0
 10
4346.2915553839757195
 20
143.7596582286714977
 30
0.0
 40
0.4625984247025615
 50
156.1906237430536066
 51
203.8093762569434091
  0
ARC
  5
C544
  8
0
 10
4345.917539635895082
 20
143.7596582286714977
 30
0.0
 40
0.4625984257775992
 50
336.1906238018009958
 51
23.8093761981990788
  0
ARC
  5
C545
  8
0
 10
4345.9175396361315507
 20
144.3305243704215002
 30
0.0
 40
0.4625984255404204
 50
336.1906237956064842
 51
23.8093762043935193
  0
ARC
  5
C546
  8
0
 10
4341.2257763151483232
 20
144.0091946833964016
 30
0.0
 40
3.6272533333781301
 50
352.9724004165822748
 51
7.6795022331558469
  0
ARC
  5
C547
  8
0
 10
4344.7657509552700503
 20
143.572809422589188
 30
0.0
 40
0.0604827283980984
 50
317.6345256532255235
 51
352.9724004165789779
  0
ARC
  5
C548
  8
0
 10
4343.8601674462688607
 20
144.0016753211091896
 30
0.0
 40
1.0599820932312269
 50
326.7307652250145793
 51
333.7015015019132989
  0
ARC
  5
C549
  8
0
 10
4344.8709064645127
 20
143.3816565803101923
 30
0.0
 40
0.1303152576827893
 50
162.7977410737236141
 51
266.7847371196656923
  0
ARC
  5
C54A
  8
0
 10
4342.9096273008453863
 20
131.6386292790652135
 30
0.0
 40
12.9412344505814101
 50
83.5363267672787941
 51
86.5853736160744347
  0
ARC
  5
C54B
  8
0
 10
4342.3701417603715527
 20
142.576382372094514
 30
0.0
 40
2.770629354705362
 50
43.9017227425720904
 51
53.3871292838702729
  0
ARC
  5
C54C
  8
0
 10
4343.8611120438181388
 20
144.5830336775640887
 30
0.0
 40
0.2707009861590905
 50
53.3871292838702729
 51
69.403882172881822
  0
ARC
  5
C54D
  8
0
 10
4343.8627449553750921
 20
144.5873788622797065
 30
0.0
 40
0.2660591082665841
 50
69.403882172881822
 51
84.4215320870659411
  0
ARC
  5
C54E
  8
0
 10
4343.7754147574078161
 20
3819864.2036913931369781
 30
0.0
 40
3819719.3515134789049625
 50
269.999999149561404
 51
270.000001697906896
  0
ARC
  5
C54F
  8
0
 10
4345.1648699301576926
 20
144.3006694416816913
 30
0.0
 40
0.7315132007894802
 50
141.8138108834575917
 51
164.6826034424910858
  0
ARC
  5
C550
  8
0
 10
4344.7943604444380981
 20
144.5920870699139869
 30
0.0
 40
0.2601306459008096
 50
91.0057740605531365
 51
141.8138108834575917
  0
ARC
  5
C551
  8
0
 10
4345.1373826402050327
 20
125.0532004631548944
 30
0.0
 40
19.8020280476010484
 50
88.9942692928039065
 51
91.0057740605531365
  0
ARC
  5
C552
  8
0
 10
4345.4805934007399628
 20
144.6036707927003135
 30
0.0
 40
0.2485453978891984
 50
11.1268679888447508
 51
88.9942692928039065
  0
ARC
  5
C553
  8
0
 10
4345.1384447944774365
 20
144.4572286755638117
 30
0.0
 40
0.6174267094729484
 50
7.760344429807831
 51
18.3527493202698118
  0
LINE
  5
C554
  8
0
 10
4344.8204970684719228
 20
144.4939105281214893
 30
0.0
 11
4344.4593420862929634
 21
144.4939102874168952
 31
0.0
  0
LINE
  5
C555
  8
0
 10
4344.7464206379718235
 20
143.4201967590219056
 30
0.0
 11
4344.7464206379718235
 21
144.4939104787505926
 31
0.0
  0
LINE
  5
C556
  8
0
 10
4342.2167522348718194
 20
145.0115842129214911
 30
0.0
 11
4342.2167522348718194
 21
145.4072810633215056
 31
0.0
  0
LINE
  5
C557
  8
0
 10
4342.2265522348716331
 20
145.0017842129215069
 30
0.0
 11
4342.248848504603302
 21
145.0017842129215069
 31
0.0
  0
ARC
  5
C558
  8
0
 10
4342.2265522348716331
 20
145.0115842129214911
 30
0.0
 40
0.0098
 50
180.0000000000212026
 51
270.0
  0
ARC
  5
C559
  8
0
 10
4342.2364522348725586
 20
145.4072810633215056
 30
0.0
 40
0.0197
 50
90.0000000000521254
 51
179.9999999999951115
  0
LINE
  5
C55A
  8
0
 10
4345.0573034159715462
 20
155.0017842129215069
 30
0.0
 11
4344.0730514474716983
 21
155.0017842129215069
 31
0.0
  0
LINE
  5
C55B
  8
0
 10
4345.0573034159715462
 20
155.0608393310214979
 30
0.0
 11
4344.0730514474716983
 21
155.0608393310214979
 31
0.0
  0
LINE
  5
C55C
  8
0
 10
4347.0061073529732312
 20
155.0687133468260015
 30
0.0
 11
4344.0927514474733471
 21
155.0687133468256889
 31
0.0
  0
LINE
  5
C55D
  8
0
 10
4344.1206575476007856
 20
154.7813117720214962
 30
0.0
 11
4345.0096973159452318
 21
154.7813117720214962
 31
0.0
  0
LINE
  5
C55E
  8
0
 10
4347.0061073529732312
 20
157.9427290948214875
 30
0.0
 11
4344.0730514474716983
 21
157.9427290948214875
 31
0.0
  0
LINE
  5
C55F
  8
0
 10
4344.0730514474716983
 20
155.0884133468256891
 30
0.0
 11
4344.0730514474716983
 21
155.8704396866095863
 31
0.0
  0
LINE
  5
C560
  8
0
 10
4344.0730514474716983
 20
156.4720883299524132
 30
0.0
 11
4344.0730514474716983
 21
156.7365814189095943
 31
0.0
  0
LINE
  5
C561
  8
0
 10
4344.0730514474716983
 20
157.3382300622523928
 30
0.0
 11
4344.0730514474716983
 21
157.9230290948214872
 31
0.0
  0
LINE
  5
C562
  8
0
 10
4347.0258073529730609
 20
155.0884133468260018
 30
0.0
 11
4347.0258073529730609
 21
157.9230290948214872
 31
0.0
  0
ARC
  5
C563
  8
0
 10
4347.0061073529732312
 20
155.0884133468258881
 30
0.0
 40
0.0197
 50
269.9999999999478746
 51
0.0000000000227982
  0
ARC
  5
C564
  8
0
 10
4344.0927514474733471
 20
155.0884133468258028
 30
0.0
 40
0.0197
 50
180.0000000000163141
 51
269.9999999999478746
  0
ARC
  5
C565
  8
0
 10
4347.0061073529732312
 20
157.9230290948214872
 30
0.0
 40
0.0197
 50
359.9999999999789111
 51
90.0000000000521254
  0
ARC
  5
C566
  8
0
 10
4344.0927514474733471
 20
157.9230290948214872
 30
0.0
 40
0.0197
 50
90.0
 51
179.999999999980389
  0
LINE
  5
C567
  8
0
 10
4344.0730514474716983
 20
155.0017842129215069
 30
0.0
 11
4344.0730514474716983
 21
155.0608393310214979
 31
0.0
  0
LINE
  5
C568
  8
0
 10
4345.0573034159715462
 20
155.0608393310214979
 30
0.0
 11
4345.0573034159715462
 21
155.0017842129215069
 31
0.0
  0
LINE
  5
C569
  8
0
 10
4344.2502168018727389
 20
155.0687133468258025
 30
0.0
 11
4344.2502168018727389
 21
155.0608393310214979
 31
0.0
  0
LINE
  5
C56A
  8
0
 10
4344.8801380616732786
 20
155.0687133468258025
 30
0.0
 11
4344.8801380616732786
 21
155.0608393310214979
 31
0.0
  0
LINE
  5
C56B
  8
0
 10
4345.0175904672214529
 20
154.7730828907183991
 30
0.0
 11
4344.9596648807801103
 21
153.3828688155909958
 31
0.0
  0
LINE
  5
C56C
  8
0
 10
4344.1127643963227456
 20
154.7730828907183991
 30
0.0
 11
4344.1706899827659072
 21
153.3828688155909106
 31
0.0
  0
ARC
  5
C56D
  8
0
 10
4344.1206575476007856
 20
154.7734117720214897
 30
0.0
 40
0.0079
 50
90.0000000001042082
 51
182.3859440295497905
  0
ARC
  5
C56E
  8
0
 10
4345.0096973159452318
 20
154.7734117720214897
 30
0.0
 40
0.0079
 50
357.6140559704551265
 51
90.0000000002084306
  0
LINE
  5
C56F
  8
0
 10
4344.9687207388724346
 20
154.7813117720214962
 30
0.0
 11
4344.9687207388724346
 21
155.0017842129215069
 31
0.0
  0
LINE
  5
C570
  8
0
 10
4344.1616341246717639
 20
154.7813117720214962
 30
0.0
 11
4344.1616341246717639
 21
155.0017842129215069
 31
0.0
  0
LINE
  5
C571
  8
0
 10
4344.9399819592399581
 20
153.3639889373214942
 30
0.0
 11
4344.1903729043060594
 21
153.3639889373214942
 31
0.0
  0
ARC
  5
C572
  8
0
 10
4344.9399819592399581
 20
153.3836889373214944
 30
0.0
 40
0.0197
 50
270.0
 51
357.6140559704405177
  0
ARC
  5
C573
  8
0
 10
4344.1903729043060594
 20
153.3836889373214944
 30
0.0
 40
0.0197
 50
182.3859440295269962
 51
270.0000000000521254
  0
LINE
  5
C574
  8
0
 10
4345.8439162114009378
 20
153.6002094098215025
 30
0.0
 11
4346.5935252663439314
 21
153.6002094098215025
 31
0.0
  0
LINE
  5
C575
  8
0
 10
4346.6711337743217882
 20
155.0093033631183914
 30
0.0
 11
4346.6132081878840836
 21
153.6190892880910042
 31
0.0
  0
LINE
  5
C576
  8
0
 10
4345.766307703423081
 20
155.0093033631183914
 30
0.0
 11
4345.8242332898598761
 21
153.6190892880910042
 31
0.0
  0
LINE
  5
C577
  8
0
 10
4346.6632406230455672
 20
155.0175322444214885
 30
0.0
 11
4345.774200854699302
 21
155.0175322444214885
 31
0.0
  0
LINE
  5
C578
  8
0
 10
4345.8643900301722169
 20
155.0687133468258878
 30
0.0
 11
4345.8643900301722169
 21
155.0175322444214885
 31
0.0
  0
LINE
  5
C579
  8
0
 10
4346.5730514474726078
 20
155.0687133468258878
 30
0.0
 11
4346.5730514474726078
 21
155.0175322444214885
 31
0.0
  0
ARC
  5
C57A
  8
0
 10
4346.6632406230455672
 20
155.0096322444215104
 30
0.0
 40
0.0079
 50
357.6140559704193151
 51
90.0000000002084306
  0
ARC
  5
C57B
  8
0
 10
4345.774200854699302
 20
155.0096322444215104
 30
0.0
 40
0.0079
 50
90.0000000001042082
 51
182.385944029398388
  0
ARC
  5
C57C
  8
0
 10
4345.8439162114009378
 20
153.6199094098215028
 30
0.0
 40
0.0197
 50
182.3859440295464935
 51
270.0
  0
ARC
  5
C57D
  8
0
 10
4346.5935252663439314
 20
153.6199094098215028
 30
0.0
 40
0.0197
 50
270.0000000000521254
 51
357.6140559704551265
  0
LINE
  5
C57E
  8
0
 10
4345.8250199514723136
 20
157.9545401184215052
 30
0.0
 11
4346.1917764176723722
 21
157.9545401184215052
 31
0.0
  0
LINE
  5
C57F
  8
0
 10
4346.2110236726857693
 20
157.9545401184215052
 30
0.0
 11
4346.7305317624650343
 21
157.9545401184215052
 31
0.0
  0
LINE
  5
C580
  8
0
 10
4345.8269580780906836
 20
158.3246916665925994
 30
0.0
 11
4345.8250199514723136
 21
157.9545401184215052
 31
0.0
  0
LINE
  5
C581
  8
0
 10
4346.7167937975063978
 20
158.3364298822214948
 30
0.0
 11
4345.838757916339091
 21
158.3364298822214948
 31
0.0
  0
LINE
  5
C582
  8
0
 10
4346.7285936357548053
 20
158.3246916665954984
 30
0.0
 11
4346.7305354777354296
 21
157.9538305605526887
 31
0.0
  0
ARC
  5
C583
  8
0
 10
4346.7167937975063978
 20
158.324629882221501
 30
0.0
 40
0.0118
 50
0.300000003858996
 51
90.0
  0
ARC
  5
C584
  8
0
 10
4345.838757916339091
 20
158.324629882221501
 30
0.0
 40
0.0118
 50
89.9999999998957776
 51
179.7000000105238087
  0
ARC
  5
C585
  8
0
 10
4346.7423840618193935
 20
157.9545897187306025
 30
0.0
 40
0.0118728794386119
 50
183.6660241257368966
 51
267.3964685357331064
  0
LINE
  5
C586
  8
0
 10
4346.1917764176723722
 20
157.9545401184215052
 30
0.0
 11
4346.1917323546840635
 21
157.9427290948214875
 31
0.0
  0
ARC
  5
C587
  8
0
 10
4346.2090118261730822
 20
157.9272460749189122
 30
0.0
 40
0.027368089759171
 50
85.7843464734664138
 51
129.0935226437277095
  0
LINE
  5
C588
  8
0
 10
4343.9669412112725695
 20
156.4466661027215082
 30
0.0
 11
4344.0882618421856023
 21
156.4466661027215082
 31
0.0
  0
LINE
  5
C589
  8
0
 10
4343.9669412112725695
 20
155.8954850003214858
 30
0.0
 11
4344.0888843358134181
 21
155.8954850003214858
 31
0.0
  0
LINE
  5
C58A
  8
0
 10
4343.9549412112710343
 20
155.9074850003214863
 30
0.0
 11
4343.9549412112710343
 21
156.4346661027215077
 31
0.0
  0
ARC
  5
C58B
  8
0
 10
4343.9669412112725695
 20
155.9074850003214863
 30
0.0
 40
0.012
 50
180.0
 51
269.9999999999478746
  0
ARC
  5
C58C
  8
0
 10
4343.9669412112725695
 20
156.4346661027215077
 30
0.0
 40
0.012
 50
90.0
 51
180.0000000000194973
  0
ARC
  5
C58D
  8
0
 10
4343.513413934007076
 20
156.1550351676499133
 30
0.0
 40
0.5226277799909504
 50
1.758785913674362
 51
32.3471649799398122
  0
ARC
  5
C58E
  8
0
 10
4343.4955448465925656
 20
156.1925971355346974
 30
0.0
 40
0.5406791558083609
 50
328.1752937676650959
 51
357.7187541930409225
  0
ARC
  5
C58F
  8
0
 10
4343.4452474733043346
 20
156.2848455266839096
 30
0.0
 40
0.7522433318214494
 50
326.5716787024874179
 51
345.1111807207432776
  0
ARC
  5
C590
  8
0
 10
4343.8026344226891524
 20
156.1715221464789067
 30
0.0
 40
0.3781514265062704
 50
347.7924948360015946
 51
16.6739327558717498
  0
ARC
  5
C591
  8
0
 10
4343.2348509587191074
 20
155.953322486370098
 30
0.0
 40
0.9857474624937502
 50
19.3552468711489603
 51
31.7535410044205904
  0
LINE
  5
C592
  8
0
 10
4344.0850514474732336
 20
157.3128078350214878
 30
0.0
 11
4344.0882618421856023
 21
157.3128078350214878
 31
0.0
  0
LINE
  5
C593
  8
0
 10
4344.0850514474732336
 20
156.7616267326214938
 30
0.0
 11
4344.0888843358134181
 21
156.7616267326214938
 31
0.0
  0
LINE
  5
C594
  8
0
 10
4344.0730514474716983
 20
156.7736267326214943
 30
0.0
 11
4344.0730514474716983
 21
157.3008078350214873
 31
0.0
  0
ARC
  5
C595
  8
0
 10
4344.0850514474732336
 20
156.7736267326214943
 30
0.0
 40
0.012
 50
180.0
 51
269.9999999999478746
  0
ARC
  5
C596
  8
0
 10
4344.0850514474732336
 20
157.3008078350214873
 30
0.0
 40
0.012
 50
90.0
 51
180.0000000000194973
  0
ARC
  5
C597
  8
0
 10
4343.6315241702068306
 20
157.0211768999498929
 30
0.0
 40
0.5226277799909504
 50
1.758785913674362
 51
32.3471649799398122
  0
ARC
  5
C598
  8
0
 10
4343.6136550827932297
 20
157.0587388678347054
 30
0.0
 40
0.5406791558083609
 50
328.1752937676650959
 51
357.7187541930409225
  0
ARC
  5
C599
  8
0
 10
4343.4452474733043346
 20
157.1509872589838892
 30
0.0
 40
0.7522433318214494
 50
326.5716787024874179
 51
345.1111807207432776
  0
ARC
  5
C59A
  8
0
 10
4343.8026344226891524
 20
157.0376638787788863
 30
0.0
 40
0.3781514265062704
 50
347.7924948360015946
 51
16.6739327558717498
  0
ARC
  5
C59B
  8
0
 10
4343.2348509587191074
 20
156.819464218670106
 30
0.0
 40
0.9857474624937502
 50
19.3552468711489603
 51
31.7535410044205904
  0
LINE
  5
C59C
  8
0
 10
4345.0573034159715462
 20
157.9427290948214875
 30
0.0
 11
4345.0573034159715462
 21
159.8624607237535997
 31
0.0
  0
LINE
  5
C59D
  8
0
 10
4345.0573034159715462
 20
160.747927501424698
 30
0.0
 11
4345.0573034159715462
 21
181.7653724834194122
 31
0.0
  0
LINE
  5
C59E
  8
0
 10
4345.0573034159715462
 20
182.9389833440235122
 30
0.0
 11
4345.0573034159715462
 21
183.1446918953583918
 31
0.0
  0
LINE
  5
C59F
  8
0
 10
4344.0730514474716983
 20
157.9427290948214875
 30
0.0
 11
4344.0730514474716983
 21
166.2410836262469047
 31
0.0
  0
LINE
  5
C5A0
  8
0
 10
4344.0730514474716983
 20
174.3426562270990132
 30
0.0
 11
4344.0730514474716983
 21
181.765352419582598
 31
0.0
  0
LINE
  5
C5A1
  8
0
 10
4344.0730514474716983
 20
182.939003407860298
 30
0.0
 11
4344.0730514474716983
 21
183.1437138147553867
 31
0.0
  0
LINE
  5
C5A2
  8
0
 10
4347.419508140371363
 20
161.5450912995214878
 30
0.0
 11
4347.419508140371363
 21
159.0647763389214902
 31
0.0
  0
LINE
  5
C5A3
  8
0
 10
4347.419508140371363
 20
159.0647763389214902
 30
0.0
 11
4347.0449916670913808
 21
159.0745833979210033
 31
0.0
  0
LINE
  5
C5A4
  8
0
 10
4347.0258073529730609
 20
159.0942766472228982
 30
0.0
 11
4347.0258073529730609
 21
161.5155909912199945
 31
0.0
  0
LINE
  5
C5A5
  8
0
 10
4347.419508140371363
 20
161.5450912995214878
 30
0.0
 11
4347.0449916670913808
 21
161.5352842405220031
 31
0.0
  0
ARC
  5
C5A6
  8
0
 10
4347.0455073529719812
 20
159.0942766472228982
 30
0.0
 40
0.0197
 50
179.9999999999951115
 51
268.4999999994369091
  0
ARC
  5
C5A7
  8
0
 10
4347.0455073529719812
 20
161.5155909912199945
 30
0.0
 40
0.0197
 50
91.5000000006152021
 51
179.9999999999917861
  0
LINE
  5
C5A8
  8
0
 10
4347.0258073529730609
 20
159.8521779137215049
 30
0.0
 11
4345.0573034159715462
 21
159.8521779137215049
 31
0.0
  0
LINE
  5
C5A9
  8
0
 10
4347.0258073529730609
 20
160.7576897247215015
 30
0.0
 11
4345.0573034159715462
 21
160.7576897247215015
 31
0.0
  0
ARC
  5
C5AA
  8
0
 10
4346.0641496415119036
 20
160.8463412936690133
 30
0.0
 40
1.4077500835519361
 50
208.3957911853129872
 51
224.3390470378481893
  0
ARC
  5
C5AB
  8
0
 10
4345.0471829098532908
 20
160.3056440757287078
 30
0.0
 40
0.2561319975364424
 50
148.2514444130106028
 51
210.1824873791321977
  0
ARC
  5
C5AC
  8
0
 10
4346.1090286795069915
 20
159.7301615811240936
 30
0.0
 40
1.4635482562877149
 50
135.9401114836728937
 51
150.9679932920477086
  0
LINE
  5
C5AD
  8
0
 10
4344.2112372574456458
 20
181.7201471195558895
 30
0.0
 11
4344.2112372574456458
 21
182.9664778326520036
 31
0.0
  0
LINE
  5
C5AE
  8
0
 10
4344.9191348594449664
 20
181.7201719785172997
 30
0.0
 11
4344.9191348594449664
 21
182.9660615797062917
 31
0.0
  0
LINE
  5
C5AF
  8
0
 10
4344.9191348594449664
 20
182.0647763389214902
 30
0.0
 11
4344.2112372574456458
 21
182.0647763389214902
 31
0.0
  0
ARC
  5
C5B0
  8
0
 10
4344.5651654695720936
 20
182.3521779137215049
 30
0.0
 40
0.7658592372745688
 50
122.1064858259146035
 51
248.0764824982686889
  0
ARC
  5
C5B1
  8
0
 10
4344.5651654695720936
 20
182.3521779137215049
 30
0.0
 40
0.7658592372745688
 50
291.829787297330995
 51
57.9061566944532231
  0
ARC
  5
C5B2
  8
0
 10
4344.1836372574462075
 20
181.7201471195558895
 30
0.0
 40
0.0276
 50
238.8825317124604055
 51
359.9999999999478746
  0
ARC
  5
C5B3
  8
0
 10
4344.9467348594444047
 20
181.7201719785174134
 30
0.0
 40
0.0276
 50
180.0000000000731859
 51
301.1212012662804796
  0
LINE
  5
C5B4
  8
0
 10
4344.8506063397726393
 20
182.0647763389214902
 30
0.0
 11
4344.8494229873031145
 21
181.3004484904469109
 31
0.0
  0
LINE
  5
C5B5
  8
0
 10
4344.2792176869261311
 20
182.0647763389214902
 30
0.0
 11
4344.2792176869261311
 21
179.7786586335394077
 31
0.0
  0
ARC
  5
C5B6
  8
0
 10
4162.381060019157303
 20
182.633006567923303
 30
0.0
 40
182.4732287085008124
 50
359.1752776030490963
 51
359.5815789911771958
  0
ARC
  5
C5B7
  8
0
 10
4206.7585150924678601
 20
181.9941879794932049
 30
0.0
 40
138.0911759396998946
 50
358.5458397061680103
 51
359.1752776030490963
  0
ARC
  5
C5B8
  8
0
 10
4184.7204701741284225
 20
182.5536311494836923
 30
0.0
 40
160.1363205407959072
 50
357.8525516638330259
 51
358.5458397061680103
  0
ARC
  5
C5B9
  8
0
 10
4186.8938577613571397
 20
182.4721343225592136
 30
0.0
 40
157.9614055224278104
 50
356.9988757368989241
 51
357.8525516638330259
  0
ARC
  5
C5BA
  8
0
 10
4150.1620451170629167
 20
184.3978897876748988
 30
0.0
 40
194.7436647549291138
 50
356.3298797764085748
 51
356.9988757368989241
  0
ARC
  5
C5BB
  8
0
 10
4136.2820737680503953
 20
185.2881988343494015
 30
0.0
 40
208.6521605344175896
 50
355.7771419480683903
 51
356.3298797764085748
  0
ARC
  5
C5BC
  8
0
 10
4058.1525781574591747
 20
191.0570089827249092
 30
0.0
 40
286.9943410944032962
 50
355.3935505719459229
 51
355.7771419480683903
  0
ARC
  5
C5BD
  8
0
 10
3991.3291799683001955
 20
196.4410625967616113
 30
0.0
 40
354.0342887291212719
 50
354.9330852205529823
 51
355.3935505719459229
  0
ARC
  5
C5BE
  8
0
 10
2420.4753174175571075
 20
335.7217735541847219
 30
0.0
 40
1931.0507673796739709
 50
354.8519691635290201
 51
354.9330852205529823
  0
ARC
  5
C5BF
  8
0
 10
2960.5124725754080828
 20
286.4980968703932263
 30
0.0
 40
1388.204941755866912
 50
354.8287223088395876
 51
355.0527494862823232
  0
ARC
  5
C5C0
  8
0
 10
4111.0897931389636142
 20
186.9029287260503907
 30
0.0
 40
233.3251349738306999
 50
355.0527494862823232
 51
356.1622759273275847
  0
ARC
  5
C5C1
  8
0
 10
4146.1037331957668357
 20
184.5541491715895006
 30
0.0
 40
198.2325037858327903
 50
356.1622759273275847
 51
357.4505566028253156
  0
ARC
  5
C5C2
  8
0
 10
4213.5067465968149918
 20
181.552991526500108
 30
0.0
 40
130.7627093385960109
 50
357.4505566028253156
 51
358.4789606354025864
  0
ARC
  5
C5C3
  8
0
 10
4477.8182260629710072
 20
174.5346275550294024
 30
0.0
 40
133.6419343619733127
 50
177.7511698840401948
 51
178.4789606354025864
  0
ARC
  5
C5C4
  8
0
 10
4344.1734495360169603
 20
182.9679001158849871
 30
0.0
 40
0.0378144784477408
 50
357.8444750287135889
 51
88.173500739339147
  0
ARC
  5
C5C5
  8
0
 10
4344.1773176251208497
 20
182.9655326768555881
 30
0.0
 40
0.0402508821718096
 50
93.7932154747606717
 51
118.4935916826755999
  0
ARC
  5
C5C6
  8
0
 10
4344.9569046167271154
 20
182.9679001158849871
 30
0.0
 40
0.0378144784477408
 50
91.8264992606608672
 51
182.786813789488491
  0
ARC
  5
C5C7
  8
0
 10
4344.953036527623226
 20
182.9655326768555881
 30
0.0
 40
0.0402508821718096
 50
61.7755251283091127
 51
86.2067845252393568
  0
LINE
  5
C5C8
  8
0
 10
4344.1331523920962354
 20
182.9845583942928045
 30
0.0
 11
4344.1266931797727011
 21
183.1395794885214059
 31
0.0
  0
LINE
  5
C5C9
  8
0
 10
4345.0036616836732719
 20
183.1395794885214912
 30
0.0
 11
4344.9972018093249062
 21
182.9845425019551044
 31
0.0
  0
LINE
  5
C5CA
  8
0
 10
4345.0573034159715462
 20
183.7669573010493878
 30
0.0
 11
4345.0573034159715462
 21
190.6198944492215048
 31
0.0
  0
ARC
  5
C5CB
  8
0
 10
4684.7173756632737422
 20
130.0016263238578063
 30
0.0
 40
343.0877881641399085
 50
174.7533802078457086
 51
175.6698976993810106
  0
ARC
  5
C5CC
  8
0
 10
4485.2364465865175589
 20
145.1060735583448889
 30
0.0
 40
143.0358314339304115
 50
175.6698976993810106
 51
178.092337098659101
  0
ARC
  5
C5CD
  8
0
 10
4432.9836521180850468
 20
146.8464734377679122
 30
0.0
 40
90.7540609828408691
 50
178.092337098659101
 51
180.3267014621200985
  0
ARC
  5
C5CE
  8
0
 10
4428.4742421582768657
 20
146.8207604305225118
 30
0.0
 40
86.2445777148421371
 50
180.3267014621200985
 51
182.1907132644730893
  0
ARC
  5
C5CF
  8
0
 10
4392.2549466534328531
 20
145.4352346471858937
 30
0.0
 40
49.998791082964793
 50
182.1907132644730893
 51
185.8979918312643065
  0
ARC
  5
C5D0
  8
0
 10
4367.681401621054647
 20
142.8966762730424023
 30
0.0
 40
25.2944717424687191
 50
185.8979918312643065
 51
194.7196584896570073
  0
ARC
  5
C5D1
  8
0
 10
4348.7830411641489263
 20
137.9318531961083067
 30
0.0
 40
5.7548326428228549
 50
194.7196584896570073
 51
217.3856889437682867
  0
ARC
  5
C5D2
  8
0
 10
4345.592706933419322
 20
135.4939209272567098
 30
0.0
 40
1.739643201304117
 50
217.3856889437682867
 51
246.0259133591011107
  0
ARC
  5
C5D3
  8
0
 10
4345.4200691719242968
 20
135.1708580195366096
 30
0.0
 40
1.374559392608081
 50
247.1295876136013021
 51
266.9112452187275721
  0
ARC
  5
C5D4
  8
0
 10
4345.2828197968628956
 20
135.0692471915421891
 30
0.0
 40
1.272521298127246
 50
272.8460650330886779
 51
299.6216152554757741
  0
ARC
  5
C5D5
  8
0
 10
4344.3317262644313814
 20
135.817092042949696
 30
0.0
 40
2.4360070054397389
 50
310.4382416713609132
 51
350.6770832051014963
  0
ARC
  5
C5D6
  8
0
 10
4326.801636541607877
 20
138.8390391986119141
 30
0.0
 40
20.2245925407565004
 50
350.2742828956830863
 51
2.6738553216229501
  0
ARC
  5
C5D7
  8
0
 10
4261.8548163494760956
 20
138.2021951783918041
 30
0.0
 40
85.1640574160686299
 50
1.0632616873729031
 51
2.8413394449813398
  0
ARC
  5
C5D8
  8
0
 10
4337.1995091330236392
 20
144.2534196023661934
 30
0.0
 40
9.8854545704081112
 50
332.7816275270012056
 51
352.5738354619924166
  0
ARC
  5
C5D9
  8
0
 10
4340.208771768528095
 20
142.7056486612590049
 30
0.0
 40
6.5014840481403438
 50
312.9994979889572164
 51
332.7816275270012056
  0
ARC
  5
C5DA
  8
0
 10
4342.9512491870718804
 20
139.7646500276715926
 30
0.0
 40
2.4802087088991489
 50
288.5692907315673779
 51
312.9994979889572164
  0
ARC
  5
C5DB
  8
0
 10
4343.3119484442049725
 20
138.6909505436628933
 30
0.0
 40
1.3475417075010041
 50
250.8065212202893974
 51
256.4229515807580242
  0
ARC
  5
C5DC
  8
0
 10
4343.3119484442049725
 20
138.6909505436628933
 30
0.0
 40
1.3475417075010041
 50
281.4861787283754211
 51
288.5692907315673779
  0
ARC
  5
C5DD
  8
0
 10
4343.3523424662671459
 20
138.4180927317391934
 30
0.0
 40
1.1105153240118819
 50
191.6878204268822117
 51
244.1954214393446989
  0
ARC
  5
C5DE
  8
0
 10
4349.1410780425103439
 20
139.5757855853053115
 30
0.0
 40
7.0138594305333637
 50
176.3437359171014123
 51
191.369328988504094
  0
ARC
  5
C5DF
  8
0
 10
4194.0096356060639664
 20
143.5638230640714141
 30
0.0
 40
148.1741700226245939
 50
358.6307336349203752
 51
359.5162534448169822
  0
ARC
  5
C5E0
  8
0
 10
4856.498128494618868
 20
115.3131185828927983
 30
0.0
 40
514.9235588182798438
 50
174.7476990311504892
 51
175.3220304270483894
  0
ARC
  5
C5E1
  8
0
 10
4476.6780173371926139
 20
145.7682225151067996
 30
0.0
 40
133.8863704108424884
 50
175.0555544500699909
 51
179.1311371979051899
  0
ARC
  5
C5E2
  8
0
 10
4408.3137102850214433
 20
146.5526065316032884
 30
0.0
 40
65.5185155587130907
 50
178.9104326204611937
 51
185.4341730037762943
  0
ARC
  5
C5E3
  8
0
 10
4360.827795811024771
 20
141.7416085777406067
 30
0.0
 40
17.792809599342359
 50
184.4926807783238871
 51
199.299180653587598
  0
ARC
  5
C5E4
  8
0
 10
4347.561084531722372
 20
137.3087993887081097
 30
0.0
 40
3.811865153301754
 50
202.3210338262205141
 51
227.4524501870128859
  0
ARC
  5
C5E5
  8
0
 10
4345.3309269749488521
 20
134.8790608589715134
 30
0.0
 40
0.5138002584110274
 50
227.4524501870128859
 51
307.5397295506140836
  0
ARC
  5
C5E6
  8
0
 10
4344.2674235759886869
 20
135.8146084794092872
 30
0.0
 40
1.923140408608186
 50
315.7081114853223767
 51
349.5418928620244969
  0
ARC
  5
C5E7
  8
0
 10
4325.9901121016573597
 20
138.9644956113405101
 30
0.0
 40
20.4697668754711586
 50
350.1579007099527985
 51
3.286799005283449
  0
ARC
  5
C5E8
  8
0
 10
4215.2984248422826568
 20
136.5215928101060001
 30
0.0
 40
131.1776449042014008
 50
1.5798224895887389
 51
1.8100043505847341
  0
ARC
  5
C5E9
  8
0
 10
4215.2984248422826568
 20
136.5215928101060001
 30
0.0
 40
131.1776449042014008
 50
2.5442446138818351
 51
2.9195239393820338
  0
ARC
  5
C5EA
  8
0
 10
3254.3325353772152084
 20
86.3042929531233369
 30
0.0
 40
1093.4546544748920951
 50
2.9827692436194861
 51
2.9970058778253699
  0
ARC
  5
C5EB
  8
0
 10
3254.3325353772152084
 20
86.3042929531233369
 30
0.0
 40
1093.4546544748920951
 50
3.056914938148088
 51
3.1413362489389538
  0
ARC
  5
C5EC
  8
0
 10
4473.4486909028091759
 20
153.6278290981983901
 30
0.0
 40
127.5196047149837
 50
181.2006298725098929
 51
182.1964447723848082
  0
ARC
  5
C5ED
  8
0
 10
4473.4486909028091759
 20
153.6278290981983901
 30
0.0
 40
127.5196047149837
 50
183.038225339105793
 51
183.3281547300231011
  0
ARC
  5
C5EE
  8
0
 10
4474.3970659142360091
 20
153.4125813094671003
 30
0.0
 40
128.4634764150355011
 50
179.9163162761078922
 51
181.0957856463500093
  0
ARC
  5
C5EF
  8
0
 10
4461.7806588245557577
 20
153.2945708904368871
 30
0.0
 40
115.2761983929118941
 50
179.848088174499992
 51
183.1560267295791959
  0
ARC
  5
C5F0
  8
0
 10
4333.8812310148487086
 20
143.2771263404785884
 30
0.0
 40
13.3141263665450307
 50
8.2411001420603238
 51
25.6443723707730094
  0
ARC
  5
C5F1
  8
0
 10
4355.4252021529791818
 20
153.6197900522421094
 30
0.0
 40
10.5838523148238099
 50
181.3849164851341129
 51
205.6443723707729987
  0
ARC
  5
C5F2
  8
0
 10
4356.2690457504104415
 20
153.8026589204758068
 30
0.0
 40
12.0062999044338792
 50
182.0938619050531031
 51
205.4216801651346032
  0
ARC
  5
C5F3
  8
0
 10
4334.2658304024753306
 20
143.3445592785919871
 30
0.0
 40
12.3558291849381501
 50
10.5159598674456607
 51
25.4216801651331004
  0
ARC
  5
C5F4
  8
0
 10
4338.5228992050579109
 20
144.1347869575056109
 30
0.0
 40
8.0260376686583452
 50
339.5814169678640724
 51
355.686676815395117
  0
ARC
  5
C5F5
  8
0
 10
4338.5228992050579109
 20
144.1347869575056109
 30
0.0
 40
8.0260376686583452
 50
3.0276334439475918
 51
10.5159598674456607
  0
ARC
  5
C5F6
  8
0
 10
4333.8187321739005711
 20
145.8859879492281948
 30
0.0
 40
13.0455886814916404
 50
330.2693481301080283
 51
339.5814169678640724
  0
ARC
  5
C5F7
  8
0
 10
4341.9826984036280919
 20
141.2235535803131086
 30
0.0
 40
3.6440654621098258
 50
293.8588632079877243
 51
330.2693481301080283
  0
CIRCLE
  5
C5F8
  8
0
 10
4328.8171459356717605
 20
200.4884180712215027
 30
0.0
 40
0.0236220472
  0
LINE
  5
C5F9
  8
0
 10
4329.2143703555721004
 20
201.4136149215215994
 30
0.0
 11
4329.1817799601230945
 21
201.4462053160837058
 31
0.0
  0
LINE
  5
C5FA
  8
0
 10
4328.4199215158732841
 20
201.4136149215215141
 30
0.0
 11
4328.4529602947732201
 21
201.446653699521903
 31
0.0
  0
LINE
  5
C5FB
  8
0
 10
4329.1817799601230945
 20
201.4462053160837058
 30
0.0
 11
4328.4529602947732201
 21
201.446653699521903
 31
0.0
  0
LINE
  5
C5FC
  8
0
 10
4329.1817799601230945
 20
201.4462053160837058
 30
0.0
 11
4329.1817799601230945
 21
201.5647763389214902
 31
0.0
  0
LINE
  5
C5FD
  8
0
 10
4344.0730514474716983
 20
187.994139436293608
 30
0.0
 11
4344.0730514474716983
 21
187.4797379122948939
 31
0.0
  0
LINE
  5
C5FE
  8
0
 10
4347.1226556298042851
 20
145.2684787552626915
 30
0.0
 11
4347.1221491811884334
 21
142.8220161628051983
 31
0.0
  0
LINE
  5
C5FF
  8
0
 10
4340.7779756702493614
 20
143.4009823352629951
 30
0.0
 11
4340.7827238518675586
 21
143.4279106114225044
 31
0.0
  0
ARC
  5
C600
  8
0
 10
4340.8523802989293472
 20
144.0575732488860012
 30
0.0
 40
0.6624021184575544
 50
246.2145429110985901
 51
254.6622830840431106
  0
ARC
  5
C601
  8
0
 10
4340.8291689543439134
 20
143.9944995670232117
 30
0.0
 40
0.5957209554251869
 50
265.0702064682088235
 51
280.0969637955257099
  0
LINE
  5
C602
  8
0
 10
4340.8096255756290702
 20
143.3990992705157055
 30
0.0
 11
4340.8099474434729927
 21
143.4009246734215139
 31
0.0
  0
LINE
  5
C603
  8
0
 10
4340.8099474434729927
 20
143.4009246734215139
 30
0.0
 11
4340.810801686708146
 21
143.4009355084257891
 31
0.0
  0
LINE
  5
C604
  8
0
 10
4340.810801686708146
 20
143.4009355084257891
 30
0.0
 11
4340.8279336671730562
 21
143.3999217536214985
 31
0.0
  0
LINE
  5
C605
  8
0
 10
4340.8279336671730562
 20
143.3999217536214985
 30
0.0
 11
4340.8277324057726219
 21
143.3987803436797037
 31
0.0
  0
LINE
  5
C606
  8
0
 10
4340.8102344442722824
 20
143.4025523358214969
 30
0.0
 11
4340.8111972618717118
 21
143.4080127458215088
 31
0.0
  0
LINE
  5
C607
  8
0
 10
4340.8111972618717118
 20
143.4080127458215088
 30
0.0
 11
4340.8120599923213376
 21
143.4080717156246862
 31
0.0
  0
LINE
  5
C608
  8
0
 10
4340.8120599923213376
 20
143.4080717156246862
 30
0.0
 11
4340.8290304991669473
 21
143.4061421967946046
 31
0.0
  0
LINE
  5
C609
  8
0
 10
4340.8290304991669473
 20
143.4061421967946046
 30
0.0
 11
4340.8285347115715922
 21
143.4033304458214957
 31
0.0
  0
LINE
  5
C60A
  8
0
 10
4340.8285347115715922
 20
143.4033304458214957
 30
0.0
 11
4340.8110726388713374
 21
143.4024721563122
 31
0.0
  0
LINE
  5
C60B
  8
0
 10
4340.8110726388713374
 20
143.4024721563122
 30
0.0
 11
4340.8102344442722824
 21
143.4025523358214969
 31
0.0
  0
LINE
  5
C60C
  8
0
 10
4340.8117793108722253
 20
143.4113137100214885
 30
0.0
 11
4340.8134146343718385
 21
143.4205880901214982
 31
0.0
  0
LINE
  5
C60D
  8
0
 10
4340.8134146343718385
 20
143.4205880901214982
 30
0.0
 11
4340.8142865116733446
 21
143.4206989345215106
 31
0.0
  0
LINE
  5
C60E
  8
0
 10
4340.8142865116733446
 20
143.4206989345215106
 30
0.0
 11
4340.8310752622955988
 21
143.417738624922805
 31
0.0
  0
LINE
  5
C60F
  8
0
 10
4340.8310752622955988
 20
143.417738624922805
 30
0.0
 11
4340.8302496358192002
 21
143.4130562646257943
 31
0.0
  0
LINE
  5
C610
  8
0
 10
4340.8302496358192002
 20
143.4130562646257943
 30
0.0
 11
4340.812609497837002
 21
143.4111881146662029
 31
0.0
  0
LINE
  5
C611
  8
0
 10
4340.812609497837002
 20
143.4111881146662029
 30
0.0
 11
4340.8117793108722253
 21
143.4113137100214885
 31
0.0
  0
LINE
  5
C612
  8
0
 10
4340.823590097577835
 20
143.4113186927519052
 30
0.0
 11
4340.8229248129719053
 21
143.4075456759215115
 31
0.0
  0
LINE
  5
C613
  8
0
 10
4340.8229248129719053
 20
143.4075456759215115
 30
0.0
 11
4340.8399565582467403
 21
143.4059634575102109
 31
0.0
  0
LINE
  5
C614
  8
0
 10
4340.8399565582467403
 20
143.4059634575102109
 30
0.0
 11
4340.8576574688722758
 21
143.4081762641214937
 31
0.0
  0
LINE
  5
C615
  8
0
 10
4340.8576574688722758
 20
143.4081762641214937
 30
0.0
 11
4340.8583306065247598
 21
143.4119938175878133
 31
0.0
  0
LINE
  5
C616
  8
0
 10
4340.8583306065247598
 20
143.4119938175878133
 30
0.0
 11
4340.8412949345038214
 21
143.4135537666074924
 31
0.0
  0
LINE
  5
C617
  8
0
 10
4340.8412949345038214
 20
143.4135537666074924
 30
0.0
 11
4340.823590097577835
 21
143.4113186927519052
 31
0.0
  0
LINE
  5
C618
  8
0
 10
4340.8254968961327904
 20
143.4221544506143005
 30
0.0
 11
4340.8251374014998873
 21
143.4200370696117943
 31
0.0
  0
LINE
  5
C619
  8
0
 10
4340.8251374014998873
 20
143.4200370696117943
 30
0.0
 11
4340.8419951270971069
 21
143.4175247561701951
 31
0.0
  0
LINE
  5
C61A
  8
0
 10
4340.8419951270971069
 20
143.4175247561701951
 30
0.0
 11
4340.8499959168111673
 21
143.4188978759291047
 31
0.0
  0
LINE
  5
C61B
  8
0
 10
4340.853121924487823
 20
143.418484460206912
 30
0.0
 11
4340.8522422825317335
 21
143.4134957626540938
 31
0.0
  0
LINE
  5
C61C
  8
0
 10
4340.8522422825317335
 20
143.4134957626540938
 30
0.0
 11
4340.8693407964683502
 21
143.412292208039986
 31
0.0
  0
LINE
  5
C61D
  8
0
 10
4340.8693407964683502
 20
143.412292208039986
 30
0.0
 11
4340.8818003084334123
 21
143.4147140557543878
 31
0.0
  0
LINE
  5
C61E
  8
0
 10
4340.8220196484508051
 20
143.4024122328200122
 30
0.0
 11
4340.8216916341807519
 21
143.4005519716689889
 31
0.0
  0
LINE
  5
C61F
  8
0
 10
4340.8216916341807519
 20
143.4005519716689889
 30
0.0
 11
4340.8388846680209099
 21
143.3998844659859913
 31
0.0
  0
LINE
  5
C620
  8
0
 10
4340.8388846680209099
 20
143.3998844659859913
 30
0.0
 11
4340.8564101246138307
 21
143.401102223140299
 31
0.0
  0
LINE
  5
C621
  8
0
 10
4340.8564101246138307
 20
143.401102223140299
 30
0.0
 11
4340.8567417894719256
 21
143.4029831883215138
 31
0.0
  0
LINE
  5
C622
  8
0
 10
4340.8567417894719256
 20
143.4029831883215138
 30
0.0
 11
4340.8395444300040253
 21
143.4036261620923085
 31
0.0
  0
LINE
  5
C623
  8
0
 10
4340.8395444300040253
 20
143.4036261620923085
 30
0.0
 11
4340.8220196484508051
 21
143.4024122328200122
 31
0.0
  0
LINE
  5
C624
  8
0
 10
4340.8510140545731701
 20
143.4065301355240081
 30
0.0
 11
4340.8505146337720362
 21
143.403697779421492
 31
0.0
  0
LINE
  5
C625
  8
0
 10
4340.8505146337720362
 20
143.403697779421492
 30
0.0
 11
4340.8677744585829714
 21
143.4034090640263912
 31
0.0
  0
LINE
  5
C626
  8
0
 10
4340.8677744585829714
 20
143.4034090640263912
 30
0.0
 11
4340.8855407650708003
 21
143.4059927492214968
 31
0.0
  0
LINE
  5
C627
  8
0
 10
4340.8855407650708003
 20
143.4059927492214968
 30
0.0
 11
4340.8860476015715903
 21
143.4088671619215063
 31
0.0
  0
LINE
  5
C628
  8
0
 10
4340.8860476015715903
 20
143.4088671619215063
 30
0.0
 11
4340.8687793774715828
 21
143.4091152141890007
 31
0.0
  0
LINE
  5
C629
  8
0
 10
4340.8687793774715828
 20
143.4091152141890007
 30
0.0
 11
4340.8510140545731701
 21
143.4065301355240081
 31
0.0
  0
LINE
  5
C62A
  8
0
 10
4340.884551148115861
 20
143.4143545128623032
 30
0.0
 11
4340.8805150436919575
 21
143.413521012933586
 31
0.0
  0
LINE
  5
C62B
  8
0
 10
4340.8805150436919575
 20
143.413521012933586
 30
0.0
 11
4340.8798354912696595
 21
143.4096670800362858
 31
0.0
  0
LINE
  5
C62C
  8
0
 10
4340.8798354912696595
 20
143.4096670800362858
 30
0.0
 11
4340.8971668481153756
 21
143.4097840432683029
 31
0.0
  0
LINE
  5
C62D
  8
0
 10
4340.8971668481153756
 20
143.4097840432683029
 30
0.0
 11
4340.9057556223124266
 21
143.4115954503812134
 31
0.0
  0
LINE
  5
C62E
  8
0
 10
4340.9083837953239708
 20
143.4112550122816003
 30
0.0
 11
4340.9079099258633505
 21
143.4085675644280116
 31
0.0
  0
LINE
  5
C62F
  8
0
 10
4340.9079099258633505
 20
143.4085675644280116
 30
0.0
 11
4340.9213130468388044
 21
143.409585151194392
 31
0.0
  0
LINE
  5
C630
  8
0
 10
4340.9275136110727544
 20
143.4087872250719897
 30
0.0
 11
4340.9072886181602371
 21
143.4050439538424087
 31
0.0
  0
LINE
  5
C631
  8
0
 10
4340.9072886181602371
 20
143.4050439538424087
 30
0.0
 11
4340.9070862357366423
 21
143.4038961857314121
 31
0.0
  0
LINE
  5
C632
  8
0
 10
4340.8789112273843784
 20
143.4044253188457105
 30
0.0
 11
4340.8785763790865531
 21
143.4025263000191899
 31
0.0
  0
LINE
  5
C633
  8
0
 10
4340.8785763790865531
 20
143.4025263000191899
 30
0.0
 11
4340.8960689826781163
 21
143.4035577385585043
 31
0.0
  0
LINE
  5
C634
  8
0
 10
4340.8960689826781163
 20
143.4035577385585043
 30
0.0
 11
4340.9139063890715988
 21
143.406544651221509
 31
0.0
  0
LINE
  5
C635
  8
0
 10
4340.9139063890715988
 20
143.406544651221509
 30
0.0
 11
4340.9142473010952017
 21
143.4084780594278925
 31
0.0
  0
LINE
  5
C636
  8
0
 10
4340.9142473010952017
 20
143.4084780594278925
 30
0.0
 11
4340.8967446643746371
 21
143.407389719722687
 31
0.0
  0
LINE
  5
C637
  8
0
 10
4340.8967446643746371
 20
143.407389719722687
 30
0.0
 11
4340.8789112273843784
 21
143.4044253188457105
 31
0.0
  0
LINE
  5
C638
  8
0
 10
4340.8497097126592053
 20
143.3991328447582134
 30
0.0
 11
4340.8499092332731379
 21
143.4002643823214953
 31
0.0
  0
LINE
  5
C639
  8
0
 10
4340.8499092332731379
 20
143.4002643823214953
 30
0.0
 11
4340.8674984043318545
 21
143.4018434825723034
 31
0.0
  0
LINE
  5
C63A
  8
0
 10
4340.8674984043318545
 20
143.4018434825723034
 30
0.0
 11
4340.884926476610417
 21
143.4025089460747893
 31
0.0
  0
LINE
  5
C63B
  8
0
 10
4340.884926476610417
 20
143.4025089460747893
 30
0.0
 11
4340.8847265221011185
 21
143.4013749482475077
 31
0.0
  0
LINE
  5
C63C
  8
0
 10
4340.8960689826781163
 20
143.4035577385585043
 30
0.0
 11
4340.8967446643746371
 21
143.407389719722687
 31
0.0
  0
LINE
  5
C63D
  8
0
 10
4340.8971668481153756
 20
143.4097840432683029
 30
0.0
 11
4340.8971668481153756
 21
143.4127103457261114
 31
0.0
  0
LINE
  5
C63E
  8
0
 10
4340.8677744585829714
 20
143.4034090640263912
 30
0.0
 11
4340.8687793774715828
 21
143.4091152141890007
 31
0.0
  0
LINE
  5
C63F
  8
0
 10
4340.8693407964683502
 20
143.412292208039986
 30
0.0
 11
4340.8697983288084288
 21
143.4162870821060949
 31
0.0
  0
LINE
  5
C640
  8
0
 10
4340.8674984043318545
 20
143.4018434825723034
 30
0.0
 11
4340.8673038954284493
 21
143.4000004644155126
 31
0.0
  0
LINE
  5
C641
  8
0
 10
4340.8388846680209099
 20
143.3998844659859913
 30
0.0
 11
4340.8395444300040253
 21
143.4036261620923085
 31
0.0
  0
LINE
  5
C642
  8
0
 10
4340.8399565582467403
 20
143.4059634575102109
 30
0.0
 11
4340.8412949345038214
 21
143.4135537666074924
 31
0.0
  0
LINE
  5
C643
  8
0
 10
4340.8419951270971069
 20
143.4175247561701951
 30
0.0
 11
4340.8423288505318851
 21
143.419913874183095
 31
0.0
  0
LINE
  5
C644
  8
0
 10
4340.8110726388713374
 20
143.4024721563122
 30
0.0
 11
4340.8120599923213376
 21
143.4080717156246862
 31
0.0
  0
LINE
  5
C645
  8
0
 10
4340.812609497837002
 20
143.4111881146662029
 30
0.0
 11
4340.8142865119170892
 21
143.420698934478196
 31
0.0
  0
LINE
  5
C646
  8
0
 10
4340.810801686708146
 20
143.4009355084257891
 30
0.0
 11
4340.810475040709207
 21
143.3990719943278975
 31
0.0
  0
LINE
  5
C647
  8
0
 10
4340.6771685774592697
 20
143.4187573455147913
 30
0.0
 11
4340.6809384628877524
 21
143.4401374282805932
 31
0.0
  0
LINE
  5
C648
  8
0
 10
4340.6467833488395627
 20
143.4278127486105916
 30
0.0
 11
4340.6471052165652509
 21
143.4296381515368921
 31
0.0
  0
LINE
  5
C649
  8
0
 10
4340.6471052165652509
 20
143.4296381515368921
 30
0.0
 11
4340.6463061962904249
 21
143.4299405015038928
 31
0.0
  0
LINE
  5
C64A
  8
0
 10
4340.6463061962904249
 20
143.4299405015038928
 30
0.0
 11
4340.6298606760992698
 21
143.4348473659914873
 31
0.0
  0
LINE
  5
C64B
  8
0
 10
4340.6298606760992698
 20
143.4348473659914873
 30
0.0
 11
4340.6296594147597716
 21
143.4337059560388923
 31
0.0
  0
LINE
  5
C64C
  8
0
 10
4340.6473922173572646
 20
143.4312658139384098
 30
0.0
 11
4340.6483550349703364
 21
143.4367262239364038
 31
0.0
  0
LINE
  5
C64D
  8
0
 10
4340.6483550349703364
 20
143.4367262239364038
 30
0.0
 11
4340.6475645023938341
 21
143.4370767086157059
 31
0.0
  0
LINE
  5
C64E
  8
0
 10
4340.6475645023938341
 20
143.4370767086157059
 30
0.0
 11
4340.6309575080267678
 21
143.4410678091767011
 31
0.0
  0
LINE
  5
C64F
  8
0
 10
4340.6309575080267678
 20
143.4410678091767011
 30
0.0
 11
4340.6304617205041723
 21
143.4382560581908876
 31
0.0
  0
LINE
  5
C650
  8
0
 10
4340.6304617205041723
 20
143.4382560581908876
 30
0.0
 11
4340.6465771490720726
 21
143.4314771492811076
 31
0.0
  0
LINE
  5
C651
  8
0
 10
4340.6465771490720726
 20
143.4314771492811076
 30
0.0
 11
4340.6473922173572646
 21
143.4312658139384098
 31
0.0
  0
LINE
  5
C652
  8
0
 10
4340.6489370840636184
 20
143.4400271881195863
 30
0.0
 11
4340.6496283785500054
 21
143.4439477141380905
 31
0.0
  0
LINE
  5
C653
  8
0
 10
4340.6376268205222004
 20
143.4453183144989907
 30
0.0
 11
4340.6481140073574352
 21
143.4401931077551069
 31
0.0
  0
LINE
  5
C654
  8
0
 10
4340.6481140073574352
 20
143.4401931077551069
 30
0.0
 11
4340.6489370840636184
 21
143.4400271881195863
 31
0.0
  0
LINE
  5
C655
  8
0
 10
4340.6378402791424378
 20
143.4440713973048958
 30
0.0
 11
4340.6371749944219118
 21
143.4402983804945109
 31
0.0
  0
LINE
  5
C656
  8
0
 10
4340.6371749944219118
 20
143.4402983804945109
 30
0.0
 11
4340.6206292384958942
 21
143.4446367814717007
 31
0.0
  0
LINE
  5
C657
  8
0
 10
4340.6206292384958942
 20
143.4446367814717007
 30
0.0
 11
4340.6139584322882001
 21
143.4480541718860138
 31
0.0
  0
LINE
  5
C658
  8
0
 10
4340.634776884789062
 20
143.4456454307567981
 30
0.0
 11
4340.6378402791424378
 21
143.4440713973048958
 31
0.0
  0
LINE
  5
C659
  8
0
 10
4340.6362698299026306
 20
143.4351649373926136
 30
0.0
 11
4340.6359418157098844
 21
143.4333046762282038
 31
0.0
  0
LINE
  5
C65A
  8
0
 10
4340.6359418157098844
 20
143.4333046762282038
 30
0.0
 11
4340.6195573482846157
 21
143.4385577899448094
 31
0.0
  0
LINE
  5
C65B
  8
0
 10
4340.6195573482846157
 20
143.4385577899448094
 30
0.0
 11
4340.6035053035193414
 21
143.445696166515603
 31
0.0
  0
LINE
  5
C65C
  8
0
 10
4340.6035053035193414
 20
143.445696166515603
 30
0.0
 11
4340.6038369684765712
 21
143.4475771316791963
 31
0.0
  0
LINE
  5
C65D
  8
0
 10
4340.6038369684765712
 20
143.4475771316791963
 30
0.0
 11
4340.6202171102540888
 21
143.442299486053912
 31
0.0
  0
LINE
  5
C65E
  8
0
 10
4340.6202171102540888
 20
143.442299486053912
 30
0.0
 11
4340.6362698299026306
 21
143.4351649373926136
 31
0.0
  0
LINE
  5
C65F
  8
0
 10
4340.6103484946570461
 20
143.4484752857306091
 30
0.0
 11
4340.6099329852895607
 21
143.4461188149840041
 31
0.0
  0
LINE
  5
C660
  8
0
 10
4340.6099329852895607
 20
143.4461188149840041
 30
0.0
 11
4340.5993802130506083
 21
143.4497610124699065
 31
0.0
  0
LINE
  5
C661
  8
0
 10
4340.6091280641148842
 20
143.4415538803316963
 30
0.0
 11
4340.609327584706989
 21
143.4426854178985025
 31
0.0
  0
LINE
  5
C662
  8
0
 10
4340.609327584706989
 20
143.4426854178985025
 30
0.0
 11
4340.5933392545421157
 21
143.4501851375418937
 31
0.0
  0
LINE
  5
C663
  8
0
 10
4340.5933392545421157
 20
143.4501851375418937
 30
0.0
 11
4340.5923449383099069
 21
143.4505906409902991
 31
0.0
  0
LINE
  5
C664
  8
0
 10
4340.5933392545421157
 20
143.4501851375418937
 30
0.0
 11
4340.5928916837929137
 21
143.448386741016094
 31
0.0
  0
LINE
  5
C665
  8
0
 10
4340.6195573482846157
 20
143.4385577899448094
 30
0.0
 11
4340.6202171102540888
 21
143.442299486053912
 31
0.0
  0
LINE
  5
C666
  8
0
 10
4340.6206292384958942
 20
143.4446367814717007
 30
0.0
 11
4340.6210857390778983
 21
143.4472257248837934
 31
0.0
  0
LINE
  5
C667
  8
0
 10
4340.6465771490720726
 20
143.4314771492811076
 30
0.0
 11
4340.6475645023938341
 21
143.4370767086157059
 31
0.0
  0
LINE
  5
C668
  8
0
 10
4340.6481140073574352
 20
143.4401931077551069
 30
0.0
 11
4340.648792807512109
 21
143.4440427746251885
 31
0.0
  0
LINE
  5
C669
  8
0
 10
4340.6463061962904249
 20
143.4299405015038928
 30
0.0
 11
4340.645975783767426
 21
143.4280776515454932
 31
0.0
  0
LINE
  5
C66A
  8
0
 10
4345.7974608962722414
 20
143.6238314570215096
 30
0.0
 11
4345.7502168018727389
 21
143.6238314570215096
 31
0.0
  0
LINE
  5
C66B
  8
0
 10
4345.7974608962722414
 20
143.6238314570215096
 30
0.0
 11
4345.8289569592716362
 21
143.6364298822215062
 31
0.0
  0
LINE
  5
C66C
  8
0
 10
4345.7974608962722414
 20
144.4663511420214945
 30
0.0
 11
4345.7502168018727389
 21
144.4663511420214945
 31
0.0
  0
LINE
  5
C66D
  8
0
 10
4345.7974608962722414
 20
144.4663511420214945
 30
0.0
 11
4345.8289569592716362
 21
144.4537527168214979
 31
0.0
  0
LINE
  5
C66E
  8
0
 10
4345.7974608962722414
 20
144.4663511420214945
 30
0.0
 11
4345.7974608962722414
 21
143.6238314570215096
 31
0.0
  0
ARC
  5
C66F
  8
0
 10
4345.710673095922175
 20
144.5171335491401123
 30
0.0
 40
0.0397691526084019
 50
6.1034693453106721
 51
89.7499823680390705
  0
ARC
  5
C670
  8
0
 10
4344.8842020356250941
 20
144.4936500501056003
 30
0.0
 40
0.0637054996746864
 50
96.8385606974493953
 51
179.7657292914416018
  0
LINE
  5
C671
  8
0
 10
4344.8766164804610526
 20
144.5569023231215056
 30
0.0
 11
4345.7108466332738317
 21
144.5569023231215056
 31
0.0
  0
ENDSEC
  0
EOF
