  0
SECTION
  2
HEADER
  9
$ACADVER
  1
AC1009
  9
$INSBASE
 10
2652.7993908254920825
 20
170.1922645525461917
 30
0.0
  9
$EXTMIN
 10
2648.4397661325801892
 20
162.8154548420912135
 30
-0.0015258207003583
  9
$EXTMAX
 10
2666.6551737550098551
 20
170.2039983074942029
 30
0.0000000349246037
  9
$LIMMIN
 10
0.0
 20
0.0
  9
$LIMMAX
 10
11.6929133858000007
 20
8.2677165353999982
  9
$ORTHOMODE
 70
     1
  9
$REGENMODE
 70
     1
  9
$FILLMODE
 70
     1
  9
$QTEXTMODE
 70
     0
  9
$MIRRTEXT
 70
     0
  9
$DRAGMODE
 70
     2
  9
$LTSCALE
 40
0.6431102362
  9
$OSMODE
 70
  4095
  9
$ATTMODE
 70
     1
  9
$TEXTSIZE
 40
0.2
  9
$TRACEWID
 40
0.05
  9
$TEXTSTYLE
  7
STANDARD
  9
$CLAYER
  8
0
  9
$CELTYPE
  6
BYLAYER
  9
$CECOLOR
 62
   256
  9
$DIMSCALE
 40
1.0
  9
$DIMASZ
 40
0.1875
  9
$DIMEXO
 40
0.0625
  9
$DIMDLI
 40
0.4443307087
  9
$DIMRND
 40
0.0
  9
$DIMDLE
 40
0.0
  9
$DIMEXE
 40
0.125
  9
$DIMTP
 40
0.01
  9
$DIMTM
 40
0.01
  9
$DIMTXT
 40
2.0
  9
$DIMCEN
 40
0.1052362205
  9
$DIMTSZ
 40
0.0
  9
$DIMTOL
 70
     1
  9
$DIMLIM
 70
     0
  9
$DIMTIH
 70
     1
  9
$DIMTOH
 70
     1
  9
$DIMSE1
 70
     0
  9
$DIMSE2
 70
     0
  9
$DIMTAD
 70
     0
  9
$DIMZIN
 70
     0
  9
$DIMBLK
  1

  9
$DIMASO
 70
     1
  9
$DIMSHO
 70
     1
  9
$DIMPOST
  1
\X
  9
$DIMAPOST
  1

  9
$DIMALT
 70
     1
  9
$DIMALTD
 70
     2
  9
$DIMALTF
 40
25.3999999999999986
  9
$DIMLFAC
 40
1.0
  9
$DIMTOFL
 70
     0
  9
$DIMTVP
 40
0.0
  9
$DIMTIX
 70
     0
  9
$DIMSOXD
 70
     0
  9
$DIMSAH
 70
     0
  9
$DIMBLK1
  1

  9
$DIMBLK2
  1

  9
$DIMSTYLE
  2
STANDARD
  9
$DIMCLRD
 70
     0
  9
$DIMCLRE
 70
     0
  9
$DIMCLRT
 70
     0
  9
$DIMTFAC
 40
1.0
  9
$DIMGAP
 40
0.09
  9
$LUNITS
 70
     2
  9
$LUPREC
 70
     4
  9
$SKETCHINC
 40
0.1
  9
$FILLETRAD
 40
0.0
  9
$AUNITS
 70
     0
  9
$AUPREC
 70
     0
  9
$MENU
  1
.
  9
$ELEVATION
 40
0.0
  9
$PELEVATION
 40
0.0
  9
$THICKNESS
 40
0.0
  9
$LIMCHECK
 70
     0
  9
$BLIPMODE
 70
     0
  9
$CHAMFERA
 40
0.0
  9
$CHAMFERB
 40
0.0
  9
$SKPOLY
 70
     0
  9
$TDCREATE
 40
2458060.468368056230247
  9
$TDUPDATE
 40
2459508.3926851851865649
  9
$TDINDWG
 40
0.6834561343
  9
$TDUSRTIMER
 40
0.6834561343
  9
$USRTIMER
 70
     1
  9
$ANGBASE
 50
0.0
  9
$ANGDIR
 70
     0
  9
$PDMODE
 70
     0
  9
$PDSIZE
 40
0.3125
  9
$PLINEWID
 40
0.0
  9
$COORDS
 70
     1
  9
$SPLFRAME
 70
     0
  9
$SPLINETYPE
 70
     6
  9
$SPLINESEGS
 70
     8
  9
$ATTDIA
 70
     1
  9
$ATTREQ
 70
     1
  9
$HANDLING
 70
     1
  9
$HANDSEED
  5
41467
  9
$SURFTAB1
 70
     6
  9
$SURFTAB2
 70
     6
  9
$SURFTYPE
 70
     6
  9
$SURFU
 70
     6
  9
$SURFV
 70
     6
  9
$UCSNAME
  2

  9
$UCSORG
 10
0.0
 20
0.0
 30
0.0
  9
$UCSXDIR
 10
1.0
 20
0.0
 30
0.0
  9
$UCSYDIR
 10
0.0
 20
1.0
 30
0.0
  9
$PUCSNAME
  2

  9
$PUCSORG
 10
0.0
 20
0.0
 30
0.0
  9
$PUCSXDIR
 10
1.0
 20
0.0
 30
0.0
  9
$PUCSYDIR
 10
0.0
 20
1.0
 30
0.0
  9
$USERI1
 70
     0
  9
$USERI2
 70
     0
  9
$USERI3
 70
     0
  9
$USERI4
 70
     0
  9
$USERI5
 70
     0
  9
$USERR1
 40
0.0
  9
$USERR2
 40
0.0
  9
$USERR3
 40
0.0
  9
$USERR4
 40
0.0
  9
$USERR5
 40
0.0
  9
$WORLDVIEW
 70
     1
  9
$SHADEDGE
 70
     3
  9
$SHADEDIF
 70
    70
  9
$TILEMODE
 70
     1
  9
$MAXACTVP
 70
    64
  9
$PLIMCHECK
 70
     0
  9
$PEXTMIN
 10
1.0000000000000000E+20
 20
1.0000000000000000E+20
 30
1.0000000000000000E+20
  9
$PEXTMAX
 10
-1.0000000000000000E+20
 20
-1.0000000000000000E+20
 30
-1.0000000000000000E+20
  9
$PLIMMIN
 10
0.0
 20
0.0
  9
$PLIMMAX
 10
12.0
 20
9.0
  9
$UNITMODE
 70
     0
  9
$VISRETAIN
 70
     1
  9
$PLINEGEN
 70
     0
  9
$PSLTSCALE
 70
     1
  0
ENDSEC
  0
SECTION
  2
TABLES
  0
TABLE
  2
VPORT
 70
     1
  0
VPORT
  2
*ACTIVE
 70
     0
 10
0.0
 20
0.0
 11
1.0
 21
1.0
 12
-646.1456452905799779
 22
-28.7517850010950404
 13
0.0
 23
0.0
 14
1.0
 24
1.0
 15
0.0
 25
0.0
 16
0.0
 26
0.0
 36
96.5995694866707311
 17
3303.693115234375
 27
195.2615115758877096
 37
0.0
 40
7.452884917931982
 41
2.7718023255813948
 42
50.0
 43
0.0
 44
0.0
 50
0.0
 51
0.0
 71
     0
 72
   100
 73
     1
 74
     1
 75
     0
 76
     0
 77
     0
 78
     0
  0
ENDTAB
  0
TABLE
  2
LTYPE
 70
     2
  0
LTYPE
  2
CONTINUOUS
 70
     0
  3
Solid line
 72
    65
 73
     0
 40
0.0
  0
LTYPE
  2
PHANTOM2
 70
     0
  3
___ _ _ ___ _ _ ___ _ _ ___ _ _
 72
    65
 73
     6
 40
1.25
 49
0.625
 49
-0.125
 49
0.125
 49
-0.125
 49
0.125
 49
-0.125
  0
ENDTAB
  0
TABLE
  2
LAYER
 70
     2
  0
LAYER
  2
0
 70
     0
 62
   255
  6
CONTINUOUS
  0
LAYER
  2
DEFPOINTS
 70
     0
 62
     7
  6
CONTINUOUS
  0
ENDTAB
  0
TABLE
  2
STYLE
 70
     1
  0
STYLE
  2
STANDARD
 70
     0
 40
0.0
 41
0.8
 50
0.0
 71
     0
 42
0.2
  3
txt
  4

  0
ENDTAB
  0
TABLE
  2
VIEW
 70
     0
  0
ENDTAB
  0
TABLE
  2
UCS
 70
     0
  0
ENDTAB
  0
TABLE
  2
APPID
 70
     9
  0
APPID
  2
ACAD
 70
     0
  0
APPID
  2
ACAD_MLEADERVER
 70
     0
  0
APPID
  2
ACAD_EXEMPT_FROM_CAD_STANDARDS
 70
     0
  0
APPID
  2
ACAD_NAV_VCDISPLAY
 70
     0
  0
APPID
  2
ACAECLAYERSTANDARD
 70
     0
  0
APPID
  2
ACCMTRANSPARENCY
 70
     0
  0
APPID
  2
ACAD_DSTYLE_DIMJAG
 70
     0
  0
APPID
  2
ACAD_DSTYLE_DIMTALN
 70
     0
  0
APPID
  2
ACDBATTR
 70
     0
  0
ENDTAB
  0
TABLE
  2
DIMSTYLE
 70
     1
  0
DIMSTYLE
  2
STANDARD
 70
     0
  3

  4

  5

  6

  7

 40
1.0
 41
0.1875
 42
0.0625
 43
0.38
 44
0.125
 45
0.0
 46
0.0
 47
0.01
 48
0.01
140
0.15625
141
0.09
142
0.0
143
25.3999999999999986
144
1.0
145
0.0
146
1.0
147
0.09
 71
     1
 72
     0
 73
     1
 74
     1
 75
     0
 76
     0
 77
     0
 78
     4
170
     0
171
     2
172
     0
173
     0
174
     0
175
     0
176
     0
177
     0
178
     0
  0
ENDTAB
  0
ENDSEC
  0
SECTION
  2
BLOCKS
  0
BLOCK
  8
0
  2
$MODEL_SPACE
 70
     0
 10
0.0
 20
0.0
 30
0.0
  3
$MODEL_SPACE
  1

  0
ENDBLK
  5
21
  8
0
  0
BLOCK
 67
     1
  8
0
  2
$PAPER_SPACE
 70
     0
 10
0.0
 20
0.0
 30
0.0
  3
$PAPER_SPACE
  1

  0
ENDBLK
  5
1D
 67
     1
  8
0
  0
ENDSEC
  0
SECTION
  2
ENTITIES
  0
ATTDEF
  5
40D56
  8
DEFPOINTS
 10
2652.8007887716448749
 20
170.1978038559196875
 30
0.0
 40
0.001
  1
K-33081T-4
  3

  2
MODELNUMBER
 70
     0
1001
ACDBATTR
1070
     0
1070
     1
  0
ATTDEF
  5
40D57
  8
DEFPOINTS
 10
2652.8007887716448749
 20
170.1961371892529939
 30
0.0
 40
0.001
  1

  3

  2
TRADENAME
 70
     0
1001
ACDBATTR
1070
     0
1070
     1
  0
ATTDEF
  5
40D58
  8
DEFPOINTS
 10
2652.8007887716448749
 20
170.1944705225863004
 30
0.0
 40
0.001
  1
BATH AND SHOWER FAUCET
  3

  2
PRODUCT
 70
     0
1001
ACDBATTR
1070
     0
1070
     1
  0
LINE
  5
41286
  8
0
 10
2663.3597944651419311
 20
170.1922588064032027
 30
0.0
 11
2665.2819074704420927
 21
170.1922588064032027
 31
0.0
  0
LINE
  5
41287
  8
0
 10
2665.2819074704420927
 20
170.1922588064032027
 30
0.0
 11
2665.2758114023417875
 21
169.1921263962030935
 31
0.0
  0
ARC
  5
41288
  8
0
 10
2660.7319840948248384
 20
169.2200602506457869
 30
0.0
 40
4.5439131704687883
 50
352.7962761553343967
 51
359.6477701077835718
  0
ARC
  5
41289
  8
0
 10
2940.9692329230520045
 20
164.8451899795122984
 30
0.0
 40
278.8213673080676926
 50
179.4079548549879917
 51
179.5542377464676065
  0
ARC
  5
4128A
  8
0
 10
2663.0478939551421718
 20
167.0806549929953064
 30
0.0
 40
0.8940481165959672
 50
184.2496660991390911
 51
195.4437527483669044
  0
ARC
  5
4128B
  8
0
 10
2662.786233267579064
 20
167.0639696557200011
 30
0.0
 40
0.6396415317279331
 50
200.2501818124077033
 51
223.5443958000832936
  0
ARC
  5
4128C
  8
0
 10
2663.4004127339158003
 20
167.67849677803909
 30
0.0
 40
1.5083467763302441
 50
224.3921179475293002
 51
248.6503733944927035
  0
ARC
  5
4128D
  8
0
 10
2664.3670455803580808
 20
170.2877556396983039
 30
0.0
 40
4.2907459582797891
 50
249.3130193329832878
 51
269.3831512327699897
  0
ARC
  5
4128E
  8
0
 10
2664.5261186488969543
 20
171.8348257962273919
 30
0.0
 40
5.0954117227818889
 50
252.3061622924014102
 51
267.4640746827553812
  0
ARC
  5
4128F
  8
0
 10
2663.4981982529820925
 20
168.5832409344683924
 30
0.0
 40
1.685253135517782
 50
226.5581977804056919
 51
252.0014557014361003
  0
ARC
  5
41290
  8
0
 10
2662.8068517806341333
 20
167.8223684840554029
 30
0.0
 40
0.6577645763416579
 50
199.3519288464262047
 51
224.7093814794922082
  0
ARC
  5
41291
  8
0
 10
2662.6771017910591581
 20
167.762264399046586
 30
0.0
 40
0.5156110472309666
 50
184.0065796495510995
 51
197.8279256373249098
  0
ARC
  5
41292
  8
0
 10
2662.6684178705631894
 20
167.7424002508361127
 30
0.0
 40
0.5059252113884235
 50
164.4937901000317027
 51
181.8306643144732107
  0
ARC
  5
41293
  8
0
 10
2662.8416395077119887
 20
167.669785688161511
 30
0.0
 40
0.6926590955238183
 50
132.0139703030673957
 51
162.5361270419174957
  0
ARC
  5
41294
  8
0
 10
2663.5171339613079908
 20
166.8952521862233027
 30
0.0
 40
1.720319038368006
 50
109.1020974642083985
 51
131.4636108055690045
  0
ARC
  5
41295
  8
0
 10
2664.0738962303148583
 20
165.4902050849935051
 30
0.0
 40
3.230882110791784
 50
101.3959511757342966
 51
110.2779313493532953
  0
ARC
  5
41296
  8
0
 10
2664.0212989540468698
 20
165.8866715533771981
 30
0.0
 40
2.8319659212218662
 50
93.2875683294932543
 51
101.9377005080569063
  0
ARC
  5
41297
  8
0
 10
2663.8453777834661196
 20
169.2219983518205879
 30
0.0
 40
0.5082012378534788
 50
271.5239206493764073
 51
281.6602860873401823
  0
ARC
  5
41298
  8
0
 10
2664.3208522942309173
 20
168.3812164066187904
 30
0.0
 40
0.5066043436811098
 50
90.0004162785657229
 51
137.3753994442573969
  0
ARC
  5
41299
  8
0
 10
2664.3215858376229335
 20
168.3776973305328966
 30
0.0
 40
0.5541144480187653
 50
37.4989115003158702
 51
142.4867656315898046
  0
ARC
  5
4129A
  8
0
 10
2664.3213344430359939
 20
168.3646360698876094
 30
0.0
 40
0.5795610758748735
 50
37.0611922136572929
 51
142.9316106261113077
  0
LINE
  5
4129B
  8
0
 10
2663.3597944651419311
 20
170.1922588064032027
 30
0.0
 11
2663.365892267342133
 21
169.1921264249031935
 31
0.0
  0
ARC
  5
4129C
  8
0
 10
2667.9097869832698962
 20
169.2200565197184119
 30
0.0
 40
4.5439805544959677
 50
180.352177262190196
 51
187.2021146853309119
  0
LINE
  5
4129D
  8
0
 10
2664.2125845776408823
 20
170.0820225859031041
 30
0.0
 11
2664.4291200107409168
 21
170.0820225859031041
 31
0.0
  0
ARC
  5
4129E
  8
0
 10
2664.4291200107409168
 20
170.0721800662030887
 30
0.0
 40
0.0098425197000012
 50
0.0
 51
90.0
  0
LINE
  5
4129F
  8
0
 10
2664.4389625304420406
 20
170.0721800662030887
 30
0.0
 11
2664.4389625304420406
 21
169.895014711903201
 31
0.0
  0
ARC
  5
412A0
  8
0
 10
2664.4291200107409168
 20
169.895014711903201
 30
0.0
 40
0.0098425197000003
 50
270.0
 51
359.9999999999951115
  0
LINE
  5
412A1
  8
0
 10
2664.4291200107409168
 20
169.8851721922031004
 30
0.0
 11
2664.2125845776408823
 21
169.8851721922031004
 31
0.0
  0
ARC
  5
412A2
  8
0
 10
2664.2125845776408823
 20
169.895014711903201
 30
0.0
 40
0.0098425197000012
 50
180.0
 51
270.0
  0
LINE
  5
412A3
  8
0
 10
2664.2027420579420323
 20
169.895014711903201
 30
0.0
 11
2664.2027420579420323
 21
170.0721800662030887
 31
0.0
  0
ARC
  5
412A4
  8
0
 10
2664.2125845776408823
 20
170.0721800662030887
 30
0.0
 40
0.0098425197000012
 50
90.0
 51
180.0
  0
LINE
  5
412A5
  8
0
 10
2663.7099574868620948
 20
168.7014712744538087
 30
0.0
 11
2663.7113234626358462
 21
168.9623510502565864
 31
0.0
  0
ARC
  5
412A6
  8
0
 10
2663.7310083484048846
 20
168.9622479794954018
 30
0.0
 40
0.0196851556080872
 50
90.000335778977103
 51
179.7000000044461956
  0
LINE
  5
412A7
  8
0
 10
2663.7310082330418481
 20
168.9819331351031053
 30
0.0
 11
2664.9106967699158304
 21
168.981940048607413
 31
0.0
  0
ARC
  5
412A8
  8
0
 10
2664.9106968852761383
 20
168.9622555765407981
 30
0.0
 40
0.0196844720669175
 50
0.2782368677231484
 51
90.000335778977103
  0
ARC
  5
412A9
  8
0
 10
3008.6442713912051659
 20
170.6314903040710931
 30
0.0
 40
343.7179430684731756
 50
180.2782368677231091
 51
180.3217631358050994
  0
LINE
  5
412AA
  8
0
 10
2664.9232144989418885
 20
168.9774392826031999
 30
0.0
 11
2664.9232091299768399
 21
168.7021530002209886
 31
0.0
  0
LINE
  5
412AB
  8
0
 10
2663.7184900895417741
 20
168.9774355715030936
 30
0.0
 11
2663.7184900895417741
 21
168.7024019684805864
 31
0.0
  0
ARC
  5
412AC
  8
0
 10
2663.7223472562941424
 20
168.9207897515489094
 30
0.0
 40
0.0116104708313278
 50
109.4445531888959948
 51
165.2119499130130009
  0
ARC
  5
412AD
  8
0
 10
2664.9182152340649736
 20
168.9198313435531986
 30
0.0
 40
0.0131153103205651
 50
19.465864392835929
 51
67.5933438240331554
  0
ARC
  5
412AE
  8
0
 10
610.7841782644721889
 20
147.6179768045091123
 30
0.0
 40
2055.7931199322620159
 50
0.5405942228095612
 51
0.5604342517286353
  0
ARC
  5
412AF
  8
0
 10
2665.758122776709115
 20
167.053798238808497
 30
0.0
 40
0.7287362431976243
 50
343.1512596652739262
 51
356.9011484037778246
  0
ARC
  5
412B0
  8
0
 10
2665.8554713210041882
 20
167.0639696557200011
 30
0.0
 40
0.6396415317279331
 50
316.4556041999167064
 51
339.7498181875923251
  0
ARC
  5
412B1
  8
0
 10
2665.2412918546669971
 20
167.67849677803909
 30
0.0
 40
1.5083467763302441
 50
291.3496266055072965
 51
315.6078820524706998
  0
ARC
  5
412B2
  8
0
 10
2664.2746590285978527
 20
170.2877555890881922
 30
0.0
 40
4.2907459037357869
 50
270.616843891828978
 51
290.6869806512808054
  0
ARC
  5
412B3
  8
0
 10
2664.1357736541449412
 20
171.753313979246002
 30
0.0
 40
5.011623288790128
 50
271.8855090472330858
 51
287.757188125690675
  0
ARC
  5
412B4
  8
0
 10
2665.1435063356011597
 20
168.5832409344683924
 30
0.0
 40
1.685253135517782
 50
287.9985442985640134
 51
313.4418022195943081
  0
ARC
  5
412B5
  8
0
 10
2665.8348528079491189
 20
167.8223684840554029
 30
0.0
 40
0.6577645763416579
 50
315.2906185205077918
 51
340.6480711535721753
  0
ARC
  5
412B6
  8
0
 10
2665.9646027975231846
 20
167.762264399046586
 30
0.0
 40
0.5156110472309666
 50
342.172074362675005
 51
355.9934203504487868
  0
ARC
  5
412B7
  8
0
 10
2665.9732867180209723
 20
167.7424002508361127
 30
0.0
 40
0.5059252113884235
 50
358.1693356855267893
 51
15.5062098999682707
  0
ARC
  5
412B8
  8
0
 10
2665.8000650808708087
 20
167.669785688161511
 30
0.0
 40
0.6926590955238183
 50
17.463872958082419
 51
47.986029696932583
  0
ARC
  5
412B9
  8
0
 10
2665.1245706272761709
 20
166.8952521862233027
 30
0.0
 40
1.720319038368006
 50
48.5363891944309671
 51
70.8979025357916157
  0
ARC
  5
412BA
  8
0
 10
2664.5678083582688487
 20
165.4902050849935051
 30
0.0
 40
3.230882110791784
 50
69.7220686506466336
 51
78.6040488242657318
  0
ARC
  5
412BB
  8
0
 10
2664.6204056345359277
 20
165.8866715533771981
 30
0.0
 40
2.8319659212218662
 50
78.0622994919431221
 51
86.7124316705067457
  0
ARC
  5
412BC
  8
0
 10
2664.7963260464530322
 20
169.2219876580242044
 30
0.0
 40
0.5081905276634079
 50
258.3395997613122859
 51
268.4761327918415077
  0
ARC
  5
412BD
  8
0
 10
2664.3208527087158473
 20
168.3812164066031016
 30
0.0
 40
0.5066043437000153
 50
42.6246005562034966
 51
90.0004631558926178
  0
LINE
  5
412BE
  8
0
 10
2648.5671153753419276
 20
170.1922645525461917
 30
0.0
 11
2651.1325512960411288
 21
170.1922645525461917
 31
0.0
  0
ARC
  5
412BF
  8
0
 10
2651.1325512960411288
 20
170.1725687096831905
 30
0.0
 40
0.0196958428629301
 50
0.0314275893267846
 51
90.0
  0
LINE
  5
412C0
  8
0
 10
2651.1522471359421615
 20
170.1725795131461894
 30
0.0
 11
2651.1523140806712036
 21
170.0505322874062983
 31
0.0
  0
ARC
  5
412C1
  8
0
 10
2650.9557915801260606
 20
170.0504244918737982
 30
0.0
 40
0.1965225301089538
 50
307.928634168146516
 51
0.0314275893251562
  0
LINE
  5
412C2
  8
0
 10
2651.0765899460420769
 20
169.8954120419462015
 30
0.0
 11
2650.470080647011855
 21
169.4215550443460927
 31
0.0
  0
ARC
  5
412C3
  8
0
 10
2650.4214380575431278
 20
169.4839023847673047
 30
0.0
 40
0.0790777615255354
 50
271.7845806894584939
 51
307.9608945921792724
  0
LINE
  5
412C4
  8
0
 10
2650.4239006792408873
 20
169.4048629777460917
 30
0.0
 11
2649.2821683957408823
 21
169.4048629777460917
 31
0.0
  0
ARC
  5
412C5
  8
0
 10
2649.284704284540112
 20
169.4841050841912988
 30
0.0
 40
0.0792826725449072
 50
232.0874663526979873
 51
268.1670583656770077
  0
LINE
  5
412C6
  8
0
 10
2649.235988427970824
 20
169.4215550443460927
 30
0.0
 11
2648.6223540538289853
 21
169.8944856077636132
 31
0.0
  0
ARC
  5
412C7
  8
0
 10
2648.7758175839339856
 20
170.0641909408599872
 30
0.0
 40
0.2288033110634748
 50
183.4223709372992062
 51
227.8771473471203137
  0
LINE
  5
412C8
  8
0
 10
2648.5474223216410792
 20
170.0505322690461867
 30
0.0
 11
2648.5474223216410792
 21
170.1725795131461894
 31
0.0
  0
ARC
  5
412C9
  8
0
 10
2648.5671026123100091
 20
170.1725842654429925
 30
0.0
 40
0.0196802912417163
 50
89.9628426267843366
 51
180.0138354941165062
  0
LINE
  5
412CA
  8
0
 10
2649.2757659922408493
 20
169.152888727703214
 30
0.0
 11
2649.2363986995410414
 21
169.1135186489032094
 31
0.0
  0
LINE
  5
412CB
  8
0
 10
2649.2363986995410414
 20
169.1135186489032094
 30
0.0
 11
2649.2363986995410414
 21
168.6410777040032087
 31
0.0
  0
LINE
  5
412CC
  8
0
 10
2649.2363986995410414
 20
168.6410777040032087
 30
0.0
 11
2649.2757659922408493
 21
168.6017076253031064
 31
0.0
  0
LINE
  5
412CD
  8
0
 10
2649.2757659922408493
 20
168.6017076253031064
 30
0.0
 11
2650.4174982757422185
 21
168.6017076253031064
 31
0.0
  0
LINE
  5
412CE
  8
0
 10
2650.4174982757422185
 20
168.6017076253031064
 30
0.0
 11
2650.4568683544412124
 21
168.6410777040032087
 31
0.0
  0
LINE
  5
412CF
  8
0
 10
2650.4568683544412124
 20
168.6410777040032087
 30
0.0
 11
2650.4568683544412124
 21
169.1135186489032094
 31
0.0
  0
LINE
  5
412D0
  8
0
 10
2650.4568683544412124
 20
169.1135186489032094
 30
0.0
 11
2650.4174982757422185
 21
169.152888727703214
 31
0.0
  0
LINE
  5
412D1
  8
0
 10
2650.4568683544412124
 20
169.1135186489032094
 30
0.0
 11
2650.4488361159419583
 21
169.1135186489032094
 31
0.0
  0
LINE
  5
412D2
  8
0
 10
2650.233197313841174
 20
169.1135186489032094
 30
0.0
 11
2650.0622709361418856
 21
169.1135186489032094
 31
0.0
  0
LINE
  5
412D3
  8
0
 10
2649.6309933318411822
 20
169.1135186489032094
 30
0.0
 11
2649.4600669541418938
 21
169.1135186489032094
 31
0.0
  0
LINE
  5
412D4
  8
0
 10
2649.2444281520411096
 20
169.1135186489032094
 30
0.0
 11
2649.2363986995410414
 21
169.1135186489032094
 31
0.0
  0
LINE
  5
412D5
  8
0
 10
2649.2363986995410414
 20
168.6410777040032087
 30
0.0
 11
2649.2444281520411096
 21
168.6410777040032087
 31
0.0
  0
LINE
  5
412D6
  8
0
 10
2649.4600669541418938
 20
168.6410777040032087
 30
0.0
 11
2649.6309933318411822
 21
168.6410777040032087
 31
0.0
  0
LINE
  5
412D7
  8
0
 10
2650.0622709361418856
 20
168.6410777040032087
 30
0.0
 11
2650.233197313841174
 21
168.6410777040032087
 31
0.0
  0
LINE
  5
412D8
  8
0
 10
2650.4488361159419583
 20
168.6410777040032087
 30
0.0
 11
2650.4568683544412124
 21
168.6410777040032087
 31
0.0
  0
LINE
  5
412D9
  8
0
 10
2650.233197313841174
 20
169.1135186489032094
 30
0.0
 11
2650.233197313841174
 21
168.6410777040032087
 31
0.0
  0
LINE
  5
412DA
  8
0
 10
2650.4488361159419583
 20
169.1135186489032094
 30
0.0
 11
2650.4488361159419583
 21
168.6410777040032087
 31
0.0
  0
LINE
  5
412DB
  8
0
 10
2650.0622709361418856
 20
169.1135186489032094
 30
0.0
 11
2650.0622709361418856
 21
168.6410777040032087
 31
0.0
  0
LINE
  5
412DC
  8
0
 10
2649.6309933318411822
 20
168.6410777040032087
 30
0.0
 11
2649.6309933318411822
 21
169.1135186489032094
 31
0.0
  0
LINE
  5
412DD
  8
0
 10
2649.4600669541418938
 20
168.6410777040032087
 30
0.0
 11
2649.4600669541418938
 21
169.1135186489032094
 31
0.0
  0
LINE
  5
412DE
  8
0
 10
2649.2444281520411096
 20
168.6410777040032087
 30
0.0
 11
2649.2444281520411096
 21
169.1135186489032094
 31
0.0
  0
ARC
  5
412DF
  8
0
 10
2649.3522475530908196
 20
168.985565893344301
 30
0.0
 40
0.1673228343588804
 50
49.8808330339380319
 51
130.1191669660620107
  0
ARC
  5
412E0
  8
0
 10
2649.8466321339910792
 20
168.5257687926541905
 30
0.0
 40
0.6260590918702246
 50
69.8524816090658049
 51
110.1475183909341951
  0
ARC
  5
412E1
  8
0
 10
2650.3410167110901057
 20
168.9855659038877889
 30
0.0
 40
0.1673228238469566
 50
49.8808494039943469
 51
130.1191682971887076
  0
ARC
  5
412E2
  8
0
 10
2650.3410167148917935
 20
168.7826812805552947
 30
0.0
 40
0.1779792014116683
 50
232.7137302429040062
 51
307.2862697570960222
  0
ARC
  5
412E3
  8
0
 10
2649.8466321339910792
 20
169.2278324612483971
 30
0.0
 40
0.62512497801846
 50
249.8210668540565962
 51
290.1789331459156074
  0
ARC
  5
412E4
  8
0
 10
2649.3522475530908196
 20
168.7690304599869933
 30
0.0
 40
0.1673228346838937
 50
229.880833127705813
 51
310.1191668722941017
  0
LINE
  5
412E5
  8
0
 10
2650.4174982758408987
 20
169.1528887276031128
 30
0.0
 11
2649.2757659921408049
 21
169.1528887276031128
 31
0.0
  0
LINE
  5
412E6
  8
0
 10
2649.3308841024418143
 20
169.398855819293999
 30
0.0
 11
2649.3308841024418143
 21
169.1528887276031128
 31
0.0
  0
LINE
  5
412E7
  8
0
 10
2650.3623801654421186
 20
169.398855819293999
 30
0.0
 11
2650.3623801654421186
 21
169.1528887276031128
 31
0.0
  0
LINE
  5
412E8
  8
0
 10
2649.2971568104421749
 20
167.6884677263448964
 30
0.0
 11
2649.2971568104421749
 21
168.4848977269465991
 31
0.0
  0
ARC
  5
412E9
  8
0
 10
2652.7994433160688459
 20
167.7210548864021007
 30
0.0
 40
0.8212355465144288
 50
90.0038565309719019
 51
123.6012763793038971
  0
ARC
  5
412EA
  8
0
 10
2652.8829937919190343
 20
167.5953073883549109
 30
0.0
 40
0.9722094359117651
 50
123.6012763793038971
 51
156.6463504897637051
  0
ARC
  5
412EB
  8
0
 10
2653.2851558881038727
 20
167.4685759615443033
 30
0.0
 40
1.3923279824710839
 50
158.4190164636069937
 51
179.3327110537578051
  0
ARC
  5
412EC
  8
0
 10
2656.5496779975110258
 20
167.9853543030733931
 30
0.0
 40
4.683581617533763
 50
186.1352696823718986
 51
187.7498591030727084
  0
ARC
  5
412ED
  8
0
 10
2644.0904643724811649
 20
164.8650664280679905
 30
0.0
 40
8.1872398433322111
 50
14.6886526455925193
 51
15.0836420856526505
  0
ARC
  5
412EE
  8
0
 10
2652.7959687924549144
 20
163.465816778248211
 30
0.0
 40
0.6485980465392812
 50
233.1247450268336934
 51
270.3020504410487206
  0
ARC
  5
412EF
  8
0
 10
2652.8410992858471218
 20
163.5259790491315073
 30
0.0
 40
0.7238061596104104
 50
207.7425726115006057
 51
233.1247450268336934
  0
ARC
  5
412F0
  8
0
 10
2652.914690880264061
 20
163.5646852802385922
 30
0.0
 40
0.8069559948186702
 50
181.9032088631419981
 51
207.7425726115006057
  0
ARC
  5
412F1
  8
0
 10
346.1341877881155256
 20
124.2734221995143997
 30
0.0
 40
2306.3082515120349854
 50
0.9754969710090154
 51
1.038924687114426
  0
ARC
  5
412F2
  8
0
 10
2640.2554438809129351
 20
166.0677063895747949
 30
0.0
 40
11.8078787807758392
 50
0.1112127949816318
 51
2.1749399412967199
  0
ARC
  5
412F3
  8
0
 10
2648.851383382505901
 20
166.394163893662693
 30
0.0
 40
3.2057423939810641
 50
2.1749399412967199
 51
9.8229165172866804
  0
ARC
  5
412F4
  8
0
 10
2651.5636703824420692
 20
167.1413303268030859
 30
0.0
 40
0.374149082200048
 50
60.2101519321145489
 51
88.5063109800017997
  0
ARC
  5
412F5
  8
0
 10
2651.5636703824420692
 20
167.1413303268031996
 30
0.0
 40
0.3741490821999786
 50
27.4902498273233391
 51
60.2101519321145489
  0
ARC
  5
412F6
  8
0
 10
2649.8130913687109569
 20
166.3104738287181021
 30
0.0
 40
2.3116817597805408
 50
23.2684722553805408
 51
25.7297392624333412
  0
ARC
  5
412F7
  8
0
 10
2652.7993880322528639
 20
214.5316179749301
 30
0.0
 40
47.0322029693137011
 50
266.3729517183775783
 51
268.5064082056352959
  0
ARC
  5
412F8
  8
0
 10
2652.3578610837389533
 20
207.5662215359853917
 30
0.0
 40
40.0528266649489098
 50
265.6907692926612867
 51
266.3729517183775783
  0
ARC
  5
412F9
  8
0
 10
2649.3673483140619282
 20
167.6944489267598897
 30
0.0
 40
0.0704458795020323
 50
184.851275329113605
 51
254.3261460119879871
  0
ARC
  5
412FA
  8
0
 10
2649.3368706384198958
 20
168.4834547214169049
 30
0.0
 40
0.0397400351998631
 50
150.0704139920945863
 51
179.7941126937220986
  0
LINE
  5
412FB
  8
0
 10
2649.3024303650090587
 20
168.5032824284199933
 30
0.0
 11
2650.454849311099224
 21
168.5032729186123959
 31
0.0
  0
ARC
  5
412FC
  8
0
 10
2650.4875554275317882
 20
168.4861847805518948
 30
0.0
 40
0.0369011451649928
 50
93.8427363038867952
 51
152.4159399619319117
  0
LINE
  5
412FD
  8
0
 10
2650.4850823817419041
 20
168.5230029630031936
 30
0.0
 11
2652.6223352936640367
 21
168.5229654620017072
 31
0.0
  0
LINE
  5
412FE
  8
0
 10
2657.0316607034419576
 20
170.1922645525461917
 30
0.0
 11
2654.4662247827432111
 21
170.1922645525461917
 31
0.0
  0
ARC
  5
412FF
  8
0
 10
2654.4662247827432111
 20
170.1725687096831905
 30
0.0
 40
0.0196958428629301
 50
90.0
 51
179.9685724106732039
  0
LINE
  5
41300
  8
0
 10
2654.4465289428421784
 20
170.1725795131461894
 30
0.0
 11
2654.4464619981131364
 21
170.0505322874062983
 31
0.0
  0
ARC
  5
41301
  8
0
 10
2654.6429844986578246
 20
170.0504244918737982
 30
0.0
 40
0.1965225301089538
 50
179.9685724106747955
 51
232.0713658318535124
  0
LINE
  5
41302
  8
0
 10
2654.5221861327431725
 20
169.8954120419462015
 30
0.0
 11
2655.1286954317720301
 21
169.4215550443460927
 31
0.0
  0
ARC
  5
41303
  8
0
 10
2655.1773380212412121
 20
169.4839023847673047
 30
0.0
 40
0.0790777615255354
 50
232.0391054078206139
 51
268.2154193105413924
  0
LINE
  5
41304
  8
0
 10
2655.1748753995420884
 20
169.4048629777460917
 30
0.0
 11
2656.3166076830420934
 21
169.4048629777460917
 31
0.0
  0
ARC
  5
41305
  8
0
 10
2656.3140717942437732
 20
169.4841050841912988
 30
0.0
 40
0.0792826725449072
 50
271.8329416343229923
 51
307.9125336473019843
  0
LINE
  5
41306
  8
0
 10
2656.3627876508130612
 20
169.4215550443460927
 30
0.0
 11
2656.9764220249539903
 21
169.8944856077636132
 31
0.0
  0
ARC
  5
41307
  8
0
 10
2656.8229279347651755
 20
170.0642137722990128
 30
0.0
 40
0.2288407427875521
 50
312.1246936808464056
 51
356.5724629040275886
  0
LINE
  5
41308
  8
0
 10
2657.0513593293408121
 20
170.0505322690461867
 30
0.0
 11
2657.0513593293408121
 21
170.1725795131461894
 31
0.0
  0
ARC
  5
41309
  8
0
 10
2657.0316695326278023
 20
170.1725747572382943
 30
0.0
 40
0.0196897972874076
 50
0.0138393222204244
 51
90.0256922468691272
  0
LINE
  5
4130A
  8
0
 10
2656.3230100865421264
 20
169.152888727703214
 30
0.0
 11
2656.3623829514408499
 21
169.1135186489032094
 31
0.0
  0
LINE
  5
4130B
  8
0
 10
2656.3623829514408499
 20
169.1135186489032094
 30
0.0
 11
2656.3623829514408499
 21
168.6410777040032087
 31
0.0
  0
LINE
  5
4130C
  8
0
 10
2656.3623829514408499
 20
168.6410777040032087
 30
0.0
 11
2656.3230100865421264
 21
168.6017076253031064
 31
0.0
  0
LINE
  5
4130D
  8
0
 10
2656.3230100865421264
 20
168.6017076253031064
 30
0.0
 11
2655.1812778030421214
 21
168.6017076253031064
 31
0.0
  0
LINE
  5
4130E
  8
0
 10
2655.1812778030421214
 20
168.6017076253031064
 30
0.0
 11
2655.141907724342218
 21
168.6410777040032087
 31
0.0
  0
LINE
  5
4130F
  8
0
 10
2655.141907724342218
 20
168.6410777040032087
 30
0.0
 11
2655.141907724342218
 21
169.1135186489032094
 31
0.0
  0
LINE
  5
41310
  8
0
 10
2655.141907724342218
 20
169.1135186489032094
 30
0.0
 11
2655.1812778030421214
 21
169.152888727703214
 31
0.0
  0
LINE
  5
41311
  8
0
 10
2655.141907724342218
 20
169.1135186489032094
 30
0.0
 11
2655.1499399628410174
 21
169.1135186489032094
 31
0.0
  0
LINE
  5
41312
  8
0
 10
2655.3655787649418016
 20
169.1135186489032094
 30
0.0
 11
2655.5365051426419996
 21
169.1135186489032094
 31
0.0
  0
LINE
  5
41313
  8
0
 10
2655.9677827469417934
 20
169.1135186489032094
 30
0.0
 11
2656.1387091246419914
 21
169.1135186489032094
 31
0.0
  0
LINE
  5
41314
  8
0
 10
2656.3543479267418661
 20
169.1135186489032094
 30
0.0
 11
2656.3623829514408499
 21
169.1135186489032094
 31
0.0
  0
LINE
  5
41315
  8
0
 10
2656.3623829514408499
 20
168.6410777040032087
 30
0.0
 11
2656.3543479267418661
 21
168.6410777040032087
 31
0.0
  0
LINE
  5
41316
  8
0
 10
2656.1387091246419914
 20
168.6410777040032087
 30
0.0
 11
2655.9677827469417934
 21
168.6410777040032087
 31
0.0
  0
LINE
  5
41317
  8
0
 10
2655.5365051426419996
 20
168.6410777040032087
 30
0.0
 11
2655.3655787649418016
 21
168.6410777040032087
 31
0.0
  0
LINE
  5
41318
  8
0
 10
2655.1499399628410174
 20
168.6410777040032087
 30
0.0
 11
2655.141907724342218
 21
168.6410777040032087
 31
0.0
  0
LINE
  5
41319
  8
0
 10
2655.3655787649418016
 20
169.1135186489032094
 30
0.0
 11
2655.3655787649418016
 21
168.6410777040032087
 31
0.0
  0
LINE
  5
4131A
  8
0
 10
2655.1499399628410174
 20
169.1135186489032094
 30
0.0
 11
2655.1499399628410174
 21
168.6410777040032087
 31
0.0
  0
LINE
  5
4131B
  8
0
 10
2655.5365051426419996
 20
169.1135186489032094
 30
0.0
 11
2655.5365051426419996
 21
168.6410777040032087
 31
0.0
  0
LINE
  5
4131C
  8
0
 10
2655.9677827469417934
 20
168.6410777040032087
 30
0.0
 11
2655.9677827469417934
 21
169.1135186489032094
 31
0.0
  0
LINE
  5
4131D
  8
0
 10
2656.1387091246419914
 20
168.6410777040032087
 30
0.0
 11
2656.1387091246419914
 21
169.1135186489032094
 31
0.0
  0
LINE
  5
4131E
  8
0
 10
2656.3543479267418661
 20
168.6410777040032087
 30
0.0
 11
2656.3543479267418661
 21
169.1135186489032094
 31
0.0
  0
ARC
  5
4131F
  8
0
 10
2656.2465285256921561
 20
168.985565893344301
 30
0.0
 40
0.1673228343588804
 50
49.8808330339380319
 51
130.1191669660620107
  0
ARC
  5
41320
  8
0
 10
2655.7521439447918965
 20
168.5257687926541905
 30
0.0
 40
0.6260590918702246
 50
69.8524816090658049
 51
110.1475183909341951
  0
ARC
  5
41321
  8
0
 10
2655.25775936769287
 20
168.9855659038877889
 30
0.0
 40
0.1673228238469566
 50
49.8808317028112924
 51
130.1191505960055963
  0
ARC
  5
41322
  8
0
 10
2655.2577593638911821
 20
168.7826812805552947
 30
0.0
 40
0.1779792014116683
 50
232.7137302429040062
 51
307.2862697570960222
  0
ARC
  5
41323
  8
0
 10
2655.7521439447918965
 20
169.2278324612483971
 30
0.0
 40
0.62512497801846
 50
249.8210668540843926
 51
290.1789331459434038
  0
ARC
  5
41324
  8
0
 10
2656.2465285256921561
 20
168.7690304599869933
 30
0.0
 40
0.1673228346838937
 50
229.880833127705813
 51
310.1191668722941017
  0
LINE
  5
41325
  8
0
 10
2655.181277802942077
 20
169.1528887276031128
 30
0.0
 11
2656.3230100866421708
 21
169.1528887276031128
 31
0.0
  0
LINE
  5
41326
  8
0
 10
2656.2678919763420708
 20
169.398855819293999
 30
0.0
 11
2656.2678919763420708
 21
169.1528887276031128
 31
0.0
  0
LINE
  5
41327
  8
0
 10
2655.2363959133422213
 20
169.398855819293999
 30
0.0
 11
2655.2363959133422213
 21
169.1528887276031128
 31
0.0
  0
LINE
  5
41328
  8
0
 10
2656.301619268342165
 20
167.6884677263448964
 30
0.0
 11
2656.301619268342165
 21
168.4848977269465991
 31
0.0
  0
ARC
  5
41329
  8
0
 10
2652.7993327627150393
 20
167.7210548864021007
 30
0.0
 40
0.8212355465144288
 50
56.3987236206961029
 51
89.9961434690280839
  0
ARC
  5
4132A
  8
0
 10
2652.7157822868648509
 20
167.5953073883549109
 30
0.0
 40
0.9722094359117651
 50
23.3536495102348489
 51
56.3987236206961029
  0
ARC
  5
4132B
  8
0
 10
2652.3134585407560735
 20
167.4685285307961067
 30
0.0
 40
1.3924957463803589
 50
0.6691602729175116
 51
21.5803518765250892
  0
ARC
  5
4132C
  8
0
 10
2649.0212534223328475
 20
167.9889441146083868
 30
0.0
 40
4.7116560345634957
 50
352.2525460761578984
 51
353.8575225224954011
  0
ARC
  5
4132D
  8
0
 10
2654.0351056963418159
 20
167.1413303268030859
 30
0.0
 40
0.374149082200048
 50
91.4936890199982145
 51
119.7898480678854014
  0
ARC
  5
4132E
  8
0
 10
2654.0351056963418159
 20
167.1413303268031996
 30
0.0
 40
0.3741490821999786
 50
119.7898480678854014
 51
152.5097501726766041
  0
ARC
  5
4132F
  8
0
 10
2652.7993880465310212
 20
214.5316179749301
 30
0.0
 40
47.0322029693137011
 50
271.4935917943645904
 51
273.6270482816224217
  0
ARC
  5
41330
  8
0
 10
2653.2409149950449319
 20
207.5662215359853917
 30
0.0
 40
40.0528266649489098
 50
273.6270482816224217
 51
274.3092307073387133
  0
ARC
  5
41331
  8
0
 10
2656.2314277647219569
 20
167.6944489267598897
 30
0.0
 40
0.0704458795020323
 50
285.6738539880120129
 51
355.148724670886395
  0
ARC
  5
41332
  8
0
 10
2656.2619054403630798
 20
168.4834547214169049
 30
0.0
 40
0.0397400351998631
 50
0.2058873062779172
 51
29.9295860079053604
  0
LINE
  5
41333
  8
0
 10
2656.2963457137748264
 20
168.5032824284199933
 30
0.0
 11
2655.1439267676851159
 21
168.5032729186123959
 31
0.0
  0
ARC
  5
41334
  8
0
 10
2655.111220651252097
 20
168.4861847805518948
 30
0.0
 40
0.0369011451649928
 50
27.5840600380680492
 51
86.1572636961132048
  0
LINE
  5
41335
  8
0
 10
2655.1136936970419811
 20
168.5230029630031936
 30
0.0
 11
2652.9764407851189389
 21
168.5229654620017072
 31
0.0
  0
LINE
  5
41336
  8
0
 10
2653.528970808602935
 20
165.7303760204069931
 30
0.0
 11
2662.3224997609331695
 21
168.1283383524497879
 31
0.0
  0
LINE
  5
41337
  8
0
 10
2662.1604332026740849
 20
167.4924321198139978
 30
0.0
 11
2653.518357459796789
 21
165.1357705094391122
 31
0.0
  0
LINE
  5
41338
  8
0
 10
2649.4253722913417732
 20
168.5032824284031108
 30
0.0
 11
2649.4253722913417732
 21
168.5702115623032
 31
0.0
  0
LINE
  5
41339
  8
0
 10
2649.4253722913417732
 20
168.5702115623032
 30
0.0
 11
2649.4379707165421678
 21
168.6017076253031064
 31
0.0
  0
LINE
  5
4133A
  8
0
 10
2650.2552935512421755
 20
168.6017076253031064
 30
0.0
 11
2650.2678919764421153
 21
168.5702115623032
 31
0.0
  0
LINE
  5
4133B
  8
0
 10
2650.2678919764421153
 20
168.5702115623032
 30
0.0
 11
2650.2678919764421153
 21
168.5032744613918112
 31
0.0
  0
LINE
  5
4133C
  8
0
 10
2649.4253722913417732
 20
168.5702115623032
 30
0.0
 11
2650.2678919764421153
 21
168.5702115623032
 31
0.0
  0
LINE
  5
4133D
  8
0
 10
2656.1734670771088531
 20
168.503486268255898
 30
0.0
 11
2656.1734630336491136
 21
168.5704154020336887
 31
0.0
  0
LINE
  5
4133E
  8
0
 10
2656.1734630336491136
 20
168.5704154020336887
 30
0.0
 11
2656.1608627056680234
 21
168.6019107038544007
 31
0.0
  0
LINE
  5
4133F
  8
0
 10
2655.3435398724591323
 20
168.6018613260754933
 30
0.0
 11
2655.3309433500871819
 21
168.5703645020111878
 31
0.0
  0
LINE
  5
41340
  8
0
 10
2655.3309433500871819
 20
168.5703645020111878
 30
0.0
 11
2655.3309473940280441
 21
168.5034274012220123
 31
0.0
  0
LINE
  5
41341
  8
0
 10
2656.1734630336491136
 20
168.5704154020336887
 30
0.0
 11
2655.3309433500871819
 21
168.5703645020111878
 31
0.0
  0
ARC
  5
41342
  8
0
 10
2652.8064448996929059
 20
163.9844842669579918
 30
0.0
 40
0.2698832897414632
 50
208.5347702539085901
 51
268.5010776819552802
  0
ARC
  5
41343
  8
0
 10
2653.0283429612068176
 20
164.1052198061163949
 30
0.0
 40
0.5225012177444627
 50
183.4031355614301901
 51
208.5425066959994069
  0
ARC
  5
41344
  8
0
 10
22739.7356729480816284
 20
358.5340658606644979
 30
0.0
 40
20088.1701484573386551
 50
180.5491573319127099
 51
180.554649991971587
  0
ARC
  5
41345
  8
0
 10
2651.5851093316991864
 20
166.0076945028314128
 30
0.0
 40
0.9031381303155699
 50
359.5033953623218963
 51
18.6338710698686292
  0
ARC
  5
41346
  8
0
 10
2650.7716275129919268
 20
165.6734402799216923
 30
0.0
 40
1.781683646753585
 50
20.4610629438473701
 51
36.3516996922082711
  0
ARC
  5
41347
  8
0
 10
2653.9142788103790735
 20
167.6126002834315045
 30
0.0
 40
2.0154103441676519
 50
191.1263298799746906
 51
197.8261671240902899
  0
ARC
  5
41348
  8
0
 10
2652.9839247719892228
 20
167.5160815732185995
 30
0.0
 40
1.087231983199886
 50
188.5851614810333103
 51
207.2899372540258014
  0
ARC
  5
41349
  8
0
 10
2653.1556106658699719
 20
167.6046570887345126
 30
0.0
 40
1.2804201508149351
 50
207.2899372540258014
 51
216.8748119141507118
  0
ARC
  5
4134A
  8
0
 10
2650.3794689014298456
 20
165.5221786943918971
 30
0.0
 40
2.1899803101072872
 50
33.4562715975439815
 51
36.8748119141506905
  0
ARC
  5
4134B
  8
0
 10
2661.5083117063018108
 20
164.8650664280679905
 30
0.0
 40
8.1872398433322111
 50
164.9163579143489073
 51
165.3113473544073884
  0
ARC
  5
4134C
  8
0
 10
2652.8028072863289708
 20
163.465816778248211
 30
0.0
 40
0.6485980465392812
 50
269.6979495589512794
 51
306.8752549731663066
  0
ARC
  5
4134D
  8
0
 10
2652.7576767929358539
 20
163.5259790491315073
 30
0.0
 40
0.7238061596104104
 50
306.8752549731663066
 51
332.2574273884994227
  0
ARC
  5
4134E
  8
0
 10
2652.6840851985198242
 20
163.5646852802385922
 30
0.0
 40
0.8069559948186702
 50
332.2574273884994227
 51
358.0967911368579735
  0
ARC
  5
4134F
  8
0
 10
4959.4645882906661427
 20
124.2734221995143997
 30
0.0
 40
2306.3082515120349854
 50
178.9610753128856118
 51
179.0245030289908925
  0
ARC
  5
41350
  8
0
 10
2665.3433321978700405
 20
166.0677063895747949
 30
0.0
 40
11.8078787807758392
 50
177.8250600587032864
 51
179.8887872050183034
  0
ARC
  5
41351
  8
0
 10
2656.7473926962779842
 20
166.394163893662693
 30
0.0
 40
3.2057423939810641
 50
170.1770834827133001
 51
177.8250600587032864
  0
ARC
  5
41352
  8
0
 10
2652.7923311790900698
 20
163.9844842669579918
 30
0.0
 40
0.2698832897414632
 50
271.4989223180447198
 51
331.4652297460913815
  0
ARC
  5
41353
  8
0
 10
2652.570325059993138
 20
164.1052640312699964
 30
0.0
 40
0.5226172737231431
 50
331.4588945050031725
 51
356.5927639691959143
  0
ARC
  5
41354
  8
0
 10
-20192.1808157620107522
 20
385.0357389126053818
 30
0.0
 40
22846.3413892206117453
 50
359.4458473427604872
 51
359.4506768900743054
  0
ARC
  5
41355
  8
0
 10
2654.0136667470851535
 20
166.0076945028314128
 30
0.0
 40
0.9031381303155699
 50
161.3661289301313957
 51
180.49660463767799
  0
ARC
  5
41356
  8
0
 10
2654.8271485657910489
 20
165.6734402799216923
 30
0.0
 40
1.781683646753585
 50
143.6483003077916862
 51
159.5389370561541114
  0
ARC
  5
41357
  8
0
 10
2652.4431654129139133
 20
167.6046570887345126
 30
0.0
 40
1.2804201508149351
 50
323.1251880858494019
 51
332.7100627459727207
  0
ARC
  5
41358
  8
0
 10
2655.2193071773540396
 20
165.5221786943918971
 30
0.0
 40
2.1899803101072872
 50
143.1251880858492882
 51
146.5437284024559972
  0
ARC
  5
41359
  8
0
 10
2651.6844972684680215
 20
167.6126002834128883
 30
0.0
 40
2.0154103441008031
 50
342.1738328758519856
 51
348.8736701201709138
  0
ARC
  5
4135A
  8
0
 10
2652.6148513067942076
 20
167.5160815732185995
 30
0.0
 40
1.087231983199886
 50
332.7100627459727207
 51
351.414838518966576
  0
ARC
  5
4135B
  8
0
 10
2644.8613931503268759
 20
171.2887544061254061
 30
0.0
 40
9.6941201277528268
 50
335.2074558791802019
 51
335.794332602673876
  0
LINE
  5
4135E
  8
0
 10
2651.1323948238978119
 20
169.9642131287614859
 30
0.0
 11
2648.570013326831031
 21
169.9642131287614859
 31
0.0
  0
LINE
  5
4135F
  8
0
 10
2654.4663812548860733
 20
169.9642131287614859
 30
0.0
 11
2657.0287627335937941
 21
169.9642131287614859
 31
0.0
  0
ENDSEC
  0
EOF
