  0
SECTION
  2
HEADER
  9
$ACADVER
  1
AC1009
  9
$INSBASE
 10
3249.9928567235269838
 20
54.2767737452499475
 30
0.0
  9
$EXTMIN
 10
3219.3091199892178338
 20
30.6746895906240091
 30
0.0
  9
$EXTMAX
 10
3259.5013233576992207
 20
64.7518756623815648
 30
0.0
  9
$LIMMIN
 10
0.0
 20
0.0
  9
$LIMMAX
 10
11.6929133858000007
 20
8.2677165353999982
  9
$ORTHOMODE
 70
     0
  9
$REGENMODE
 70
     1
  9
$FILLMODE
 70
     1
  9
$QTEXTMODE
 70
     0
  9
$MIRRTEXT
 70
     0
  9
$DRAGMODE
 70
     2
  9
$LTSCALE
 40
0.6431102362
  9
$OSMODE
 70
  4095
  9
$ATTMODE
 70
     1
  9
$TEXTSIZE
 40
0.2
  9
$TRACEWID
 40
0.05
  9
$TEXTSTYLE
  7
STANDARD
  9
$CLAYER
  8
0
  9
$CELTYPE
  6
BYLAYER
  9
$CECOLOR
 62
   256
  9
$DIMSCALE
 40
1.0
  9
$DIMASZ
 40
0.1875
  9
$DIMEXO
 40
0.0625
  9
$DIMDLI
 40
0.4443307087
  9
$DIMRND
 40
0.0
  9
$DIMDLE
 40
0.0
  9
$DIMEXE
 40
0.125
  9
$DIMTP
 40
0.01
  9
$DIMTM
 40
0.01
  9
$DIMTXT
 40
2.0
  9
$DIMCEN
 40
0.1052362205
  9
$DIMTSZ
 40
0.0
  9
$DIMTOL
 70
     1
  9
$DIMLIM
 70
     0
  9
$DIMTIH
 70
     1
  9
$DIMTOH
 70
     1
  9
$DIMSE1
 70
     0
  9
$DIMSE2
 70
     0
  9
$DIMTAD
 70
     0
  9
$DIMZIN
 70
     0
  9
$DIMBLK
  1

  9
$DIMASO
 70
     1
  9
$DIMSHO
 70
     1
  9
$DIMPOST
  1
\X
  9
$DIMAPOST
  1

  9
$DIMALT
 70
     1
  9
$DIMALTD
 70
     2
  9
$DIMALTF
 40
25.3999999999999986
  9
$DIMLFAC
 40
1.0
  9
$DIMTOFL
 70
     0
  9
$DIMTVP
 40
0.0
  9
$DIMTIX
 70
     0
  9
$DIMSOXD
 70
     0
  9
$DIMSAH
 70
     0
  9
$DIMBLK1
  1

  9
$DIMBLK2
  1

  9
$DIMSTYLE
  2
STANDARD
  9
$DIMCLRD
 70
     0
  9
$DIMCLRE
 70
     0
  9
$DIMCLRT
 70
     0
  9
$DIMTFAC
 40
1.0
  9
$DIMGAP
 40
0.09
  9
$LUNITS
 70
     2
  9
$LUPREC
 70
     4
  9
$SKETCHINC
 40
0.1
  9
$FILLETRAD
 40
0.0
  9
$AUNITS
 70
     0
  9
$AUPREC
 70
     0
  9
$MENU
  1
.
  9
$ELEVATION
 40
0.0
  9
$PELEVATION
 40
0.0
  9
$THICKNESS
 40
0.0
  9
$LIMCHECK
 70
     0
  9
$BLIPMODE
 70
     0
  9
$CHAMFERA
 40
0.0
  9
$CHAMFERB
 40
0.0
  9
$SKPOLY
 70
     0
  9
$TDCREATE
 40
2458060.468368056230247
  9
$TDUPDATE
 40
2459957.6232523149810731
  9
$TDINDWG
 40
0.3128890046
  9
$TDUSRTIMER
 40
0.3128890046
  9
$USRTIMER
 70
     1
  9
$ANGBASE
 50
0.0
  9
$ANGDIR
 70
     0
  9
$PDMODE
 70
     0
  9
$PDSIZE
 40
0.3125
  9
$PLINEWID
 40
0.0
  9
$COORDS
 70
     1
  9
$SPLFRAME
 70
     0
  9
$SPLINETYPE
 70
     6
  9
$SPLINESEGS
 70
     8
  9
$ATTDIA
 70
     1
  9
$ATTREQ
 70
     1
  9
$HANDLING
 70
     1
  9
$HANDSEED
  5
6B93
  9
$SURFTAB1
 70
     6
  9
$SURFTAB2
 70
     6
  9
$SURFTYPE
 70
     6
  9
$SURFU
 70
     6
  9
$SURFV
 70
     6
  9
$UCSNAME
  2

  9
$UCSORG
 10
0.0
 20
0.0
 30
0.0
  9
$UCSXDIR
 10
1.0
 20
0.0
 30
0.0
  9
$UCSYDIR
 10
0.0
 20
1.0
 30
0.0
  9
$PUCSNAME
  2

  9
$PUCSORG
 10
0.0
 20
0.0
 30
0.0
  9
$PUCSXDIR
 10
1.0
 20
0.0
 30
0.0
  9
$PUCSYDIR
 10
0.0
 20
1.0
 30
0.0
  9
$USERI1
 70
     0
  9
$USERI2
 70
     0
  9
$USERI3
 70
     0
  9
$USERI4
 70
     0
  9
$USERI5
 70
     0
  9
$USERR1
 40
0.0
  9
$USERR2
 40
0.0
  9
$USERR3
 40
0.0
  9
$USERR4
 40
0.0
  9
$USERR5
 40
0.0
  9
$WORLDVIEW
 70
     1
  9
$SHADEDGE
 70
     3
  9
$SHADEDIF
 70
    70
  9
$TILEMODE
 70
     1
  9
$MAXACTVP
 70
    64
  9
$PLIMCHECK
 70
     0
  9
$PEXTMIN
 10
1.0000000000000000E+20
 20
1.0000000000000000E+20
 30
1.0000000000000000E+20
  9
$PEXTMAX
 10
-1.0000000000000000E+20
 20
-1.0000000000000000E+20
 30
-1.0000000000000000E+20
  9
$PLIMMIN
 10
0.0
 20
0.0
  9
$PLIMMAX
 10
12.0
 20
9.0
  9
$UNITMODE
 70
     0
  9
$VISRETAIN
 70
     1
  9
$PLINEGEN
 70
     0
  9
$PSLTSCALE
 70
     1
  0
ENDSEC
  0
SECTION
  2
TABLES
  0
TABLE
  2
VPORT
 70
     1
  0
VPORT
  2
*ACTIVE
 70
     0
 10
0.0
 20
0.0
 11
1.0
 21
1.0
 12
251.2593435529798001
 22
-10.19683333081794
 13
0.0
 23
0.0
 14
1.0
 24
1.0
 15
0.0
 25
0.0
 16
0.0
 26
0.0
 36
238.8063968625259008
 17
3002.96630859375
 27
54.8220901489257813
 37
0.0
 40
49.5405606286122335
 41
2.7341040462427739
 42
50.0
 43
0.0
 44
0.0
 50
0.0
 51
0.0
 71
     0
 72
   100
 73
     1
 74
     1
 75
     0
 76
     0
 77
     0
 78
     0
  0
ENDTAB
  0
TABLE
  2
LTYPE
 70
     2
  0
LTYPE
  2
CONTINUOUS
 70
     0
  3
Solid line
 72
    65
 73
     0
 40
0.0
  0
LTYPE
  2
PHANTOM2
 70
     0
  3
___ _ _ ___ _ _ ___ _ _ ___ _ _
 72
    65
 73
     6
 40
1.25
 49
0.625
 49
-0.125
 49
0.125
 49
-0.125
 49
0.125
 49
-0.125
  0
ENDTAB
  0
TABLE
  2
LAYER
 70
     2
  0
LAYER
  2
0
 70
     0
 62
   255
  6
CONTINUOUS
  0
LAYER
  2
DEFPOINTS
 70
     0
 62
     7
  6
CONTINUOUS
  0
ENDTAB
  0
TABLE
  2
STYLE
 70
     1
  0
STYLE
  2
STANDARD
 70
     0
 40
0.0
 41
0.8
 50
0.0
 71
     0
 42
0.2
  3
txt
  4

  0
ENDTAB
  0
TABLE
  2
VIEW
 70
     0
  0
ENDTAB
  0
TABLE
  2
UCS
 70
     0
  0
ENDTAB
  0
TABLE
  2
APPID
 70
     9
  0
APPID
  2
ACAD
 70
     0
  0
APPID
  2
ACAD_MLEADERVER
 70
     0
  0
APPID
  2
ACAD_EXEMPT_FROM_CAD_STANDARDS
 70
     0
  0
APPID
  2
ACAD_NAV_VCDISPLAY
 70
     0
  0
APPID
  2
ACAECLAYERSTANDARD
 70
     0
  0
APPID
  2
ACCMTRANSPARENCY
 70
     0
  0
APPID
  2
ACAD_DSTYLE_DIMJAG
 70
     0
  0
APPID
  2
ACAD_DSTYLE_DIMTALN
 70
     0
  0
APPID
  2
ACDBATTR
 70
     0
  0
ENDTAB
  0
TABLE
  2
DIMSTYLE
 70
     1
  0
DIMSTYLE
  2
STANDARD
 70
     0
  3

  4

  5

  6

  7

 40
1.0
 41
0.1875
 42
0.0625
 43
0.38
 44
0.125
 45
0.0
 46
0.0
 47
0.01
 48
0.01
140
0.15625
141
0.09
142
0.0
143
25.3999999999999986
144
1.0
145
0.0
146
1.0
147
0.09
 71
     1
 72
     0
 73
     1
 74
     1
 75
     0
 76
     0
 77
     0
 78
     4
170
     0
171
     2
172
     0
173
     0
174
     0
175
     0
176
     0
177
     0
178
     0
  0
ENDTAB
  0
ENDSEC
  0
SECTION
  2
BLOCKS
  0
BLOCK
  8
0
  2
$MODEL_SPACE
 70
     0
 10
0.0
 20
0.0
 30
0.0
  3
$MODEL_SPACE
  1

  0
ENDBLK
  5
21
  8
0
  0
BLOCK
 67
     1
  8
0
  2
$PAPER_SPACE
 70
     0
 10
0.0
 20
0.0
 30
0.0
  3
$PAPER_SPACE
  1

  0
ENDBLK
  5
1D
 67
     1
  8
0
  0
BLOCK
  8
0
  2
_FILLED
 70
     0
 10
0.0
 20
0.0
 30
0.0
  3
_FILLED
  1

  0
SOLID
  5
5CF5
  8
0
  6
BYBLOCK
 62
     0
 10
0.0
 20
0.0
 30
0.0
 11
-1.0
 21
0.1666666667
 31
0.0
 12
-1.0
 22
-0.1666666667
 32
0.0
 13
-1.0
 23
-0.1666666667
 33
0.0
  0
ENDBLK
  5
5CF6
  8
0
  6
BYBLOCK
 62
     0
  0
ENDSEC
  0
SECTION
  2
ENTITIES
  0
ATTDEF
  5
3930
  8
DEFPOINTS
 10
3249.9847057752158435
 20
54.2807988551778067
 30
0.0
 40
0.001
  1
K-33088T-4
  3

  2
MODELNUMBER
 70
     0
1001
ACDBATTR
1070
     0
1070
     1
  0
ATTDEF
  5
3931
  8
DEFPOINTS
 10
3249.9847057752158435
 20
54.2791321885111415
 30
0.0
 40
0.001
  1
ACCLIV
  3

  2
TRADENAME
 70
     0
1001
ACDBATTR
1070
     0
1070
     1
  0
ATTDEF
  5
3932
  8
DEFPOINTS
 10
3249.9847057752158435
 20
54.2774655218444835
 30
0.0
 40
0.001
  1
SHOWER COLUMN
  3

  2
PRODUCT
 70
     0
1001
ACDBATTR
1070
     0
1070
     1
  0
LINE
  5
6848
  8
0
 10
3249.5007307392770599
 20
52.1901600311402873
 30
0.0
 11
3249.5007307392770599
 21
53.8830729578499614
 31
0.0
  0
LINE
  5
6849
  8
0
 10
3249.5991559360768406
 20
35.6744115405499613
 30
0.0
 11
3249.5991559360768406
 21
51.4224430366499519
 31
0.0
  0
LINE
  5
684A
  8
0
 10
3251.2330142038758822
 20
54.2767737452499475
 30
0.0
 11
3248.7526992431758117
 21
54.2767737452499475
 31
0.0
  0
LINE
  5
684B
  8
0
 10
3248.319613416375887
 20
54.2767737452499475
 30
0.0
 11
3245.7605882195771301
 21
54.2767737452499475
 31
0.0
  0
LINE
  5
684C
  8
0
 10
3245.7408882195768456
 20
54.1350656564590693
 30
0.0
 11
3245.7408882195768456
 21
54.2570737452499472
 31
0.0
  0
LINE
  5
684D
  8
0
 10
3248.339313416377081
 20
54.2570737452499472
 30
0.0
 11
3248.339313416377081
 21
54.1350656564590693
 31
0.0
  0
ARC
  5
684E
  8
0
 10
3248.319613416375887
 20
54.2570737452499614
 30
0.0
 40
0.0197
 50
359.9999999999583906
 51
90.0000000000260485
  0
ARC
  5
684F
  8
0
 10
3245.7605882195771301
 20
54.2570737452499827
 30
0.0
 40
0.0197
 50
89.9999999999739515
 51
180.0000000000825935
  0
LINE
  5
6850
  8
0
 10
3246.4715181625401783
 20
53.489372170449947
 30
0.0
 11
3247.6086834734128388
 21
53.489372170449947
 31
0.0
  0
LINE
  5
6851
  8
0
 10
3245.8165644750670253
 20
53.9799063390880107
 30
0.0
 11
3246.4230656044251191
 21
53.5060557241467478
 31
0.0
  0
ARC
  5
6852
  8
0
 10
3245.9377882195772145
 20
54.1350656564590622
 30
0.0
 40
0.1969
 50
179.9999999999959073
 51
231.9999999933370987
  0
ARC
  5
6853
  8
0
 10
3246.4715181625401783
 20
53.5680721704499234
 30
0.0
 40
0.0787
 50
231.999999993310297
 51
270.0
  0
LINE
  5
6854
  8
0
 10
3248.2636371608859918
 20
53.9799063390880107
 30
0.0
 11
3247.657136031527898
 21
53.5060557241467478
 31
0.0
  0
ARC
  5
6855
  8
0
 10
3248.1424134163758026
 20
54.1350656564590622
 30
0.0
 40
0.1969
 50
308.0000000066622761
 51
0.0000000000040711
  0
ARC
  5
6856
  8
0
 10
3247.6086834734128388
 20
53.5680721704499376
 30
0.0
 40
0.0787
 50
270.0
 51
308.0000000066879124
  0
LINE
  5
6857
  8
0
 10
3246.4692346762758461
 20
53.2374036665499517
 30
0.0
 11
3247.610966959677171
 21
53.2374036665499517
 31
0.0
  0
LINE
  5
6858
  8
0
 10
3246.4692346762758461
 20
52.6862225641499577
 30
0.0
 11
3247.610966959677171
 21
52.6862225641499577
 31
0.0
  0
LINE
  5
6859
  8
0
 10
3246.4298645974768078
 20
53.1980335878499631
 30
0.0
 11
3246.4298645974768078
 21
52.7255926429499624
 31
0.0
  0
LINE
  5
685A
  8
0
 10
3247.6503370384771188
 20
52.7255926429499624
 30
0.0
 11
3247.6503370384771188
 21
53.1980335878499773
 31
0.0
  0
LINE
  5
685B
  8
0
 10
3247.610966959677171
 20
53.2374036665499517
 30
0.0
 11
3247.6503370384771188
 21
53.1980335878499773
 31
0.0
  0
LINE
  5
685C
  8
0
 10
3246.4692346762758461
 20
53.2374036665499517
 30
0.0
 11
3246.4298645974768078
 21
53.1980335878499631
 31
0.0
  0
LINE
  5
685D
  8
0
 10
3246.4298645974768078
 20
52.7255926429499624
 30
0.0
 11
3246.4692346762758461
 21
52.6862225641499577
 31
0.0
  0
LINE
  5
685E
  8
0
 10
3247.6503370384771188
 20
52.7255926429499624
 30
0.0
 11
3247.610966959677171
 21
52.6862225641499577
 31
0.0
  0
LINE
  5
685F
  8
0
 10
3246.4378968359769715
 20
53.1980335878499631
 30
0.0
 11
3246.4378968359769715
 21
52.7255926429499624
 31
0.0
  0
LINE
  5
6860
  8
0
 10
3246.6535356381759811
 20
53.1980335878499631
 30
0.0
 11
3246.6535356381759811
 21
52.7255926429499624
 31
0.0
  0
LINE
  5
6861
  8
0
 10
3246.8244620157770441
 20
53.1980335878506025
 30
0.0
 11
3246.8244620157770441
 21
52.7255926429499624
 31
0.0
  0
LINE
  5
6862
  8
0
 10
3247.2557396201768825
 20
53.1980335878506025
 30
0.0
 11
3247.2557396201768825
 21
52.7255926429499624
 31
0.0
  0
LINE
  5
6863
  8
0
 10
3247.426665997777036
 20
53.1980335878506025
 30
0.0
 11
3247.426665997777036
 21
52.7255926429499624
 31
0.0
  0
LINE
  5
6864
  8
0
 10
3247.6423047999769551
 20
53.1980335878499417
 30
0.0
 11
3247.6423047999769551
 21
52.7255926429499624
 31
0.0
  0
LINE
  5
6865
  8
0
 10
3246.6535356381759811
 20
53.1980335878499631
 30
0.0
 11
3246.8244620157770441
 21
53.1980335878499631
 31
0.0
  0
LINE
  5
6866
  8
0
 10
3247.2557396201768825
 20
53.1980335878499631
 30
0.0
 11
3247.426665997777036
 21
53.1980335878499631
 31
0.0
  0
LINE
  5
6867
  8
0
 10
3247.6423047999769551
 20
53.1980335878499631
 30
0.0
 11
3247.6503370384771188
 21
53.1980335878499631
 31
0.0
  0
LINE
  5
6868
  8
0
 10
3246.4298645974768078
 20
52.7255926429499624
 30
0.0
 11
3246.4378968359769715
 21
52.7255926429499624
 31
0.0
  0
LINE
  5
6869
  8
0
 10
3246.6535356381759811
 20
52.7255926429499624
 30
0.0
 11
3246.8244620157770441
 21
52.7255926429499624
 31
0.0
  0
LINE
  5
686A
  8
0
 10
3247.2557396201768825
 20
52.7255926429499624
 30
0.0
 11
3247.426665997777036
 21
52.7255926429499624
 31
0.0
  0
LINE
  5
686B
  8
0
 10
3247.6423047999769551
 20
52.7255926429499624
 30
0.0
 11
3247.6503370384771188
 21
52.7255926429499624
 31
0.0
  0
ARC
  5
686C
  8
0
 10
3246.5457162370771584
 20
53.0700808317290367
 30
0.0
 40
0.1673228348209035
 50
49.8808331448470668
 51
130.1191668551292082
  0
ARC
  5
686D
  8
0
 10
3247.0401008179760538
 20
52.6271674453071512
 30
0.0
 40
0.6102362212427995
 50
69.3064587928696341
 51
110.6935412071302949
  0
ARC
  5
686E
  8
0
 10
3247.5344853988772229
 20
53.0700808317280277
 30
0.0
 40
0.1673228348219149
 50
49.8808331449792419
 51
130.1191668546800884
  0
ARC
  5
686F
  8
0
 10
3246.5457162370771584
 20
52.8535453986457426
 30
0.0
 40
0.1673228344957803
 50
229.8808330510454141
 51
310.1191669489550122
  0
ARC
  5
6870
  8
0
 10
3247.0401008179760538
 20
53.2964587839333532
 30
0.0
 40
0.6102362197833885
 50
249.3064587410945876
 51
290.693541258905384
  0
ARC
  5
6871
  8
0
 10
3247.5344853988772229
 20
52.8535453985108603
 30
0.0
 40
0.1673228343926407
 50
229.880833021293995
 51
310.1191669787064029
  0
LINE
  5
6872
  8
0
 10
3246.4378968359769715
 20
53.1980335878499773
 30
0.0
 11
3246.4298645974768078
 21
53.1980335878499773
 31
0.0
  0
LINE
  5
6873
  8
0
 10
3246.5243527864759017
 20
53.489372170449947
 30
0.0
 11
3246.5243527864759017
 21
53.2374036665499517
 31
0.0
  0
LINE
  5
6874
  8
0
 10
3247.5558488494771154
 20
53.4893721704499683
 30
0.0
 11
3247.5558488494771154
 21
53.2374036665499517
 31
0.0
  0
LINE
  5
6875
  8
0
 10
3246.4958989226338417
 20
52.5877973218499406
 30
0.0
 11
3247.6234942344872252
 21
52.5877973630004334
 31
0.0
  0
LINE
  5
6876
  8
0
 10
3246.6314394006758448
 20
52.6862225641499577
 30
0.0
 11
3246.6188409754768145
 21
52.6547265011499519
 31
0.0
  0
LINE
  5
6877
  8
0
 10
3246.6188409754768145
 20
52.6547265011499519
 30
0.0
 11
3246.6188409754768145
 21
52.5877973263365703
 31
0.0
  0
LINE
  5
6878
  8
0
 10
3247.4487622352758081
 20
52.6862225641499577
 30
0.0
 11
3247.4613606604771121
 21
52.6547265011499732
 31
0.0
  0
LINE
  5
6879
  8
0
 10
3247.4613606604771121
 20
52.6547265011499732
 30
0.0
 11
3247.4613606604771121
 21
52.5877973570835024
 31
0.0
  0
LINE
  5
687A
  8
0
 10
3246.4906239561269103
 20
52.5724182346449069
 30
0.0
 11
3246.4906239561269103
 21
51.7726686314131115
 31
0.0
  0
ARC
  5
687B
  8
0
 10
3246.5343997140657848
 20
52.5659975116086926
 30
0.0
 40
0.044244125796158
 50
150.4807146841054077
 51
171.655751529032699
  0
LINE
  5
687C
  8
0
 10
3246.549315546184971
 20
51.7098161246709367
 30
0.0
 11
3247.0135182628609982
 21
51.6779959841052516
 31
0.0
  0
ARC
  5
687D
  8
0
 10
3246.5536239561270122
 20
51.7726686314130902
 30
0.0
 40
0.063
 50
179.9999999999870113
 51
266.0786265361743972
  0
LINE
  5
687E
  8
0
 10
3247.0542481429188229
 20
52.1856983612479013
 30
0.0
 11
3247.6854256640722269
 21
52.1901045076357519
 31
0.0
  0
ARC
  5
687F
  8
0
 10
3247.0545082863191055
 20
52.1541033718542408
 30
0.0
 40
0.0315960603457689
 50
90.471745119912427
 51
179.8263557444774108
  0
LINE
  5
6880
  8
0
 10
3247.0542481429188229
 20
50.6591877119520007
 30
0.0
 11
3247.6854256037008781
 21
50.6547815659856013
 31
0.0
  0
ARC
  5
6881
  8
0
 10
3247.0545082863191055
 20
50.6907827013456966
 30
0.0
 40
0.0315960603457863
 50
180.1736442555738051
 51
269.5282548800615245
  0
LINE
  5
6882
  8
0
 10
3247.6921402726820816
 20
50.6585216379738483
 30
0.0
 11
3247.7129979632759387
 21
50.6926406927556101
 31
0.0
  0
LINE
  5
6883
  8
0
 10
3247.6921350962570614
 20
52.1863730144514975
 30
0.0
 11
3247.7129979632759387
 21
52.1522453805443007
 31
0.0
  0
ARC
  5
6884
  8
0
 10
3247.6854801132608372
 20
52.1823046976838896
 30
0.0
 40
0.0078
 50
31.438232300378619
 51
90.3999659095238144
  0
ARC
  5
6885
  8
0
 10
3247.6854800528899432
 20
50.6625813759375205
 30
0.0
 40
0.0078
 50
269.6000340907626764
 51
328.6355974715966113
  0
ARC
  5
6886
  8
0
 10
3246.0183563962718836
 20
51.1030040877784373
 30
0.0
 40
1.9931676625575621
 50
20.6408363482227593
 51
31.7638176627606406
  0
ARC
  5
6887
  8
0
 10
3246.8549361775499165
 20
51.4114890452436271
 30
0.0
 40
1.1015630849033959
 50
0.5697611231005234
 51
20.9642980108795989
  0
ARC
  5
6888
  8
0
 10
3246.0183563962718836
 20
51.7418819855214807
 30
0.0
 40
1.9931676625575621
 50
328.2361823372390859
 51
339.3591636517767824
  0
ARC
  5
6889
  8
0
 10
3246.8549361775499165
 20
51.433397028056298
 30
0.0
 40
1.1015630849033959
 50
339.0357019891208097
 51
359.4302388768999208
  0
LINE
  5
688A
  8
0
 10
3247.6519818183642201
 20
52.6074824067499591
 30
0.0
 11
3249.5007307392770599
 21
52.6074824067499591
 31
0.0
  0
ARC
  5
688B
  8
0
 10
3247.6565982022530079
 20
52.5703460242331175
 30
0.0
 40
0.0374222114077071
 50
97.0860266731200738
 51
152.2032551050137101
  0
LINE
  5
688C
  8
0
 10
3248.9362425502758924
 20
52.6074824067499591
 30
0.0
 11
3248.9362425502758924
 21
52.6271674460499668
 31
0.0
  0
LINE
  5
688D
  8
0
 10
3248.9362425502758924
 20
52.6271674460499668
 30
0.0
 11
3249.1724630226758563
 21
52.6271674460499312
 31
0.0
  0
LINE
  5
688E
  8
0
 10
3249.1724630226758563
 20
52.6271674460499312
 30
0.0
 11
3249.1724630226758563
 21
52.6074824067499591
 31
0.0
  0
LINE
  5
688F
  8
0
 10
3248.7821995514759692
 20
53.8830729578499614
 30
0.0
 11
3251.203513895577089
 21
53.8830729578499614
 31
0.0
  0
LINE
  5
6890
  8
0
 10
3248.7625063021728238
 20
53.9022572719682387
 30
0.0
 11
3248.7526992431758117
 21
54.2767737452499475
 31
0.0
  0
ARC
  5
6891
  8
0
 10
3248.7821995514759692
 20
53.9027729578499617
 30
0.0
 40
0.0197
 50
181.5000000001676028
 51
269.9999999999739089
  0
LINE
  5
6892
  8
0
 10
3247.7187416721899353
 20
52.1901594921097001
 30
0.0
 11
3249.6778960935771465
 21
52.1901600847307208
 31
0.0
  0
LINE
  5
6893
  8
0
 10
3247.7129068705307873
 20
52.1824278317764083
 30
0.0
 11
3247.7191712209328216
 21
52.1726236846308993
 31
0.0
  0
ARC
  5
6894
  8
0
 10
3247.7219247458551763
 20
52.1816898566591121
 30
0.0
 40
0.0090480209231664
 50
110.5973147998644066
 51
175.3216420417369932
  0
LINE
  5
6895
  8
0
 10
3247.7129979632759387
 20
52.182285265249952
 30
0.0
 11
3247.7129979632759387
 21
52.1522453805442794
 31
0.0
  0
LINE
  5
6896
  8
0
 10
3247.7187416462961664
 20
50.654726590921527
 30
0.0
 11
3249.5991559360768406
 21
50.6547265275284531
 31
0.0
  0
ARC
  5
6897
  8
0
 10
3245.7048127734310583
 20
50.8738352607949125
 30
0.0
 40
2.3967668482597131
 50
25.5241148745245496
 51
32.8125184361493609
  0
ARC
  5
6898
  8
0
 10
3246.901506664837143
 20
51.4091709933353584
 30
0.0
 40
1.0866819315634539
 50
0.6997916793874324
 51
27.2408719190452011
  0
LINE
  5
6899
  8
0
 10
3247.7129068705307873
 20
50.6624582415235167
 30
0.0
 11
3247.7191712209328216
 21
50.6722623886690187
 31
0.0
  0
ARC
  5
689A
  8
0
 10
3247.7219247458551763
 20
50.6631962166408201
 30
0.0
 40
0.0090480209231664
 50
184.678357958262211
 51
249.402510036084891
  0
LINE
  5
689B
  8
0
 10
3247.7129979632759387
 20
50.6626008080499801
 30
0.0
 11
3247.7129979632759387
 21
50.6926406927556528
 31
0.0
  0
ARC
  5
689C
  8
0
 10
3245.7048127734310583
 20
51.9710508125050197
 30
0.0
 40
2.3967668482597131
 50
327.1874815638507243
 51
334.4758851254762249
  0
ARC
  5
689D
  8
0
 10
3246.901506664837143
 20
51.4357150799645666
 30
0.0
 40
1.0866819315634539
 50
332.759128080955179
 51
359.3002083206122279
  0
LINE
  5
689E
  8
0
 10
3249.5007307392770599
 20
52.5248052413501227
 30
0.0
 11
3250.4849827077769078
 21
52.5248052413498385
 31
0.0
  0
LINE
  5
689F
  8
0
 10
3249.6778960935771465
 20
52.5248052413500588
 30
0.0
 11
3249.6778960935771465
 21
52.0133222117797516
 31
0.0
  0
ARC
  5
68A0
  8
0
 10
3249.9928567235269838
 20
51.422443036649959
 30
0.0
 40
0.3937007873999789
 50
0.0
 51
180.0
  0
ARC
  5
68A1
  8
0
 10
3249.9928567235269838
 20
51.422443036649959
 30
0.0
 40
0.4527559023999914
 50
330.4081549118928933
 51
209.5918450881084993
  0
ARC
  5
68A2
  8
0
 10
3249.9928567235269838
 20
51.422443036649959
 30
0.0
 40
0.649606299199982
 50
307.3052009720024103
 51
232.6947990279977034
  0
LINE
  5
68A3
  8
0
 10
3249.3826205029758967
 20
51.6416463579500231
 30
0.0
 11
3249.3826205029758967
 21
51.2032397152499925
 31
0.0
  0
ARC
  5
68A4
  8
0
 10
3249.4023055423767801
 20
51.2032397152499925
 30
0.0
 40
0.0196850394004533
 50
180.0
 51
200.3583521847997133
  0
ARC
  5
68A5
  8
0
 10
3249.4023055423758706
 20
51.6416463579500231
 30
0.0
 40
0.0196850393995378
 50
159.6404975003950142
 51
180.0
  0
ARC
  5
68A6
  8
0
 10
3249.6384528904900435
 20
52.0133552219307305
 30
0.0
 40
0.0394432168996239
 50
302.0178863638734015
 51
359.9520489512208883
  0
LINE
  5
68A7
  8
0
 10
3246.6188409754768145
 20
52.6547265011499519
 30
0.0
 11
3247.4613606604771121
 21
52.6547265011499519
 31
0.0
  0
ARC
  5
68A8
  8
0
 10
3250.2503495363189359
 20
48.517199812981211
 30
0.0
 40
0.8381395998530003
 50
182.0431095040430023
 51
219.017724939982088
  0
LINE
  5
68A9
  8
0
 10
3249.362652336777046
 20
50.0545142907499567
 30
0.0
 11
3249.4127427538292068
 21
48.4873189367060178
 31
0.0
  0
ARC
  5
68AA
  8
0
 10
3245.7674651386441838
 20
49.9252536523747779
 30
0.0
 40
3.5975101531819602
 50
2.0591139980279629
 51
11.6990815744718901
  0
ARC
  5
68AB
  8
0
 10
3250.0734691904458487
 20
47.6409739039337978
 30
0.0
 40
0.7720830122238052
 50
181.6063752571159
 51
232.0967942479134933
  0
LINE
  5
68AC
  8
0
 10
3249.262325854826031
 20
49.8985084938623089
 30
0.0
 11
3249.3016896052768061
 21
47.6193302055499572
 31
0.0
  0
LINE
  5
68AD
  8
0
 10
3249.262325854826031
 20
49.8985084938623089
 30
0.0
 11
3249.2471970144879378
 21
50.654726539393792
 31
0.0
  0
ARC
  5
68AE
  8
0
 10
3249.9928567234769616
 20
35.6744115405499613
 30
0.0
 40
0.3937007874000002
 50
180.0
 51
0.0
  0
ARC
  5
68AF
  8
0
 10
3249.9928567234769616
 20
35.6744115405499613
 30
0.0
 40
0.8070866142000001
 50
119.1964044084397045
 51
60.8035955834157704
  0
ARC
  5
68B0
  8
0
 10
3249.9928567234769616
 20
35.6744115405499613
 30
0.0
 40
0.7130220522000004
 50
123.5151829804486994
 51
56.484817009922061
  0
ARC
  5
68B1
  8
0
 10
3249.9888192947560128
 20
35.6742523305841672
 30
0.0
 40
4.9995627399601661
 50
94.4701372052413149
 51
177.743551384663391
  0
ARC
  5
68B2
  8
0
 10
3249.9888192947560128
 20
35.6742523305841672
 30
0.0
 40
4.9995627399601661
 50
182.256448615336609
 51
270.0462695771190056
  0
ARC
  5
68B3
  8
0
 10
3249.9928567234769616
 20
35.6744115405500821
 30
0.0
 40
4.940944881899858
 50
94.5702456483471821
 51
270.000000000573209
  0
ARC
  5
68B4
  8
0
 10
3249.9928567234769616
 20
35.6744115405499329
 30
0.0
 40
4.9505173159999538
 50
94.5613897807852766
 51
270.000000000573209
  0
ARC
  5
68B5
  8
0
 10
3250.0710394871630342
 20
51.6902768780478468
 30
0.0
 40
0.9612080012723933
 50
126.3933178176068992
 51
148.663916062722592
  0
LINE
  5
68B6
  8
0
 10
3250.4849827077769078
 20
52.1901600311402873
 30
0.0
 11
3250.4849827077769078
 21
53.8830729578499614
 31
0.0
  0
LINE
  5
68B7
  8
0
 10
3250.3865575109771271
 20
35.6744115405499613
 30
0.0
 11
3250.3865575109771271
 21
51.4224430366499519
 31
0.0
  0
LINE
  5
68B8
  8
0
 10
3251.6661000306758069
 20
54.2767737452499475
 30
0.0
 11
3254.2251252274768376
 21
54.2767737452499475
 31
0.0
  0
LINE
  5
68B9
  8
0
 10
3254.2448252274771221
 20
54.1350656564590693
 30
0.0
 11
3254.2448252274771221
 21
54.2570737452499472
 31
0.0
  0
LINE
  5
68BA
  8
0
 10
3251.6464000306759772
 20
54.2570737452499472
 30
0.0
 11
3251.6464000306759772
 21
54.1350656564590693
 31
0.0
  0
ARC
  5
68BB
  8
0
 10
3251.6661000306758069
 20
54.2570737452499614
 30
0.0
 40
0.0197
 50
89.9999999999739515
 51
180.0000000000410978
  0
ARC
  5
68BC
  8
0
 10
3254.2251252274768376
 20
54.2570737452499827
 30
0.0
 40
0.0197
 50
359.9999999999174065
 51
90.0000000000260485
  0
LINE
  5
68BD
  8
0
 10
3253.5141952845128799
 20
53.489372170449947
 30
0.0
 11
3252.3770299736402194
 21
53.489372170449947
 31
0.0
  0
LINE
  5
68BE
  8
0
 10
3254.1691489719860328
 20
53.9799063390880107
 30
0.0
 11
3253.5626478426279391
 21
53.5060557241467478
 31
0.0
  0
ARC
  5
68BF
  8
0
 10
3254.047925227477208
 20
54.1350656564590622
 30
0.0
 40
0.1969
 50
308.0000000066627877
 51
0.0000000000040711
  0
ARC
  5
68C0
  8
0
 10
3253.5141952845128799
 20
53.5680721704499234
 30
0.0
 40
0.0787
 50
270.0
 51
308.0000000066896746
  0
LINE
  5
68C1
  8
0
 10
3251.7220762861670664
 20
53.9799063390880107
 30
0.0
 11
3252.3285774155251602
 21
53.5060557241467478
 31
0.0
  0
ARC
  5
68C2
  8
0
 10
3251.8433000306768008
 20
54.1350656564590622
 30
0.0
 40
0.1969
 50
179.9999999999959073
 51
231.9999999933376102
  0
ARC
  5
68C3
  8
0
 10
3252.3770299736402194
 20
53.5680721704499376
 30
0.0
 40
0.0787
 50
231.9999999933120876
 51
270.0
  0
LINE
  5
68C4
  8
0
 10
3253.516478770777212
 20
53.2374036665499517
 30
0.0
 11
3252.3747464873758872
 21
53.2374036665499517
 31
0.0
  0
LINE
  5
68C5
  8
0
 10
3253.516478770777212
 20
52.6862225641499577
 30
0.0
 11
3252.3747464873758872
 21
52.6862225641499577
 31
0.0
  0
LINE
  5
68C6
  8
0
 10
3253.5558488495771599
 20
53.1980335878499631
 30
0.0
 11
3253.5558488495771599
 21
52.7255926429499624
 31
0.0
  0
LINE
  5
68C7
  8
0
 10
3252.3353764085759394
 20
52.7255926429499624
 30
0.0
 11
3252.3353764085759394
 21
53.1980335878499773
 31
0.0
  0
LINE
  5
68C8
  8
0
 10
3252.3747464873758872
 20
53.2374036665499517
 30
0.0
 11
3252.3353764085759394
 21
53.1980335878499773
 31
0.0
  0
LINE
  5
68C9
  8
0
 10
3253.516478770777212
 20
53.2374036665499517
 30
0.0
 11
3253.5558488495771599
 21
53.1980335878499631
 31
0.0
  0
LINE
  5
68CA
  8
0
 10
3253.5558488495771599
 20
52.7255926429499624
 30
0.0
 11
3253.516478770777212
 21
52.6862225641499577
 31
0.0
  0
LINE
  5
68CB
  8
0
 10
3252.3353764085759394
 20
52.7255926429499624
 30
0.0
 11
3252.3747464873758872
 21
52.6862225641499577
 31
0.0
  0
LINE
  5
68CC
  8
0
 10
3253.5478166110769962
 20
53.1980335878499631
 30
0.0
 11
3253.5478166110769962
 21
52.7255926429499624
 31
0.0
  0
LINE
  5
68CD
  8
0
 10
3253.332177808877077
 20
53.1980335878499631
 30
0.0
 11
3253.332177808877077
 21
52.7255926429499624
 31
0.0
  0
LINE
  5
68CE
  8
0
 10
3253.161251431276014
 20
53.1980335878506025
 30
0.0
 11
3253.161251431276014
 21
52.7255926429499624
 31
0.0
  0
LINE
  5
68CF
  8
0
 10
3252.7299738268770852
 20
53.1980335878506025
 30
0.0
 11
3252.7299738268770852
 21
52.7255926429499624
 31
0.0
  0
LINE
  5
68D0
  8
0
 10
3252.5590474492769317
 20
53.1980335878506025
 30
0.0
 11
3252.5590474492769317
 21
52.7255926429499624
 31
0.0
  0
LINE
  5
68D1
  8
0
 10
3252.3434086470770126
 20
53.1980335878499417
 30
0.0
 11
3252.3434086470770126
 21
52.7255926429499624
 31
0.0
  0
LINE
  5
68D2
  8
0
 10
3253.332177808877077
 20
53.1980335878499631
 30
0.0
 11
3253.161251431276014
 21
53.1980335878499631
 31
0.0
  0
LINE
  5
68D3
  8
0
 10
3252.7299738268770852
 20
53.1980335878499631
 30
0.0
 11
3252.5590474492769317
 21
53.1980335878499631
 31
0.0
  0
LINE
  5
68D4
  8
0
 10
3252.3434086470770126
 20
53.1980335878499631
 30
0.0
 11
3252.3353764085759394
 21
53.1980335878499631
 31
0.0
  0
LINE
  5
68D5
  8
0
 10
3253.5558488495771599
 20
52.7255926429499624
 30
0.0
 11
3253.5478166110769962
 21
52.7255926429499624
 31
0.0
  0
LINE
  5
68D6
  8
0
 10
3253.332177808877077
 20
52.7255926429499624
 30
0.0
 11
3253.161251431276014
 21
52.7255926429499624
 31
0.0
  0
LINE
  5
68D7
  8
0
 10
3252.7299738268770852
 20
52.7255926429499624
 30
0.0
 11
3252.5590474492769317
 21
52.7255926429499624
 31
0.0
  0
LINE
  5
68D8
  8
0
 10
3252.3434086470770126
 20
52.7255926429499624
 30
0.0
 11
3252.3353764085759394
 21
52.7255926429499624
 31
0.0
  0
ARC
  5
68D9
  8
0
 10
3253.4399972099768092
 20
53.0700808317290367
 30
0.0
 40
0.1673228348209035
 50
49.8808331448709197
 51
130.1191668551529119
  0
ARC
  5
68DA
  8
0
 10
3252.9456126290770044
 20
52.6271674453071512
 30
0.0
 40
0.6102362212427995
 50
69.3064587928696341
 51
110.6935412071302949
  0
ARC
  5
68DB
  8
0
 10
3252.4512280481758353
 20
53.0700808317280277
 30
0.0
 40
0.1673228348219149
 50
49.8808331453198832
 51
130.1191668550206941
  0
ARC
  5
68DC
  8
0
 10
3253.4399972099768092
 20
52.8535453986457426
 30
0.0
 40
0.1673228344957803
 50
229.8808330510449025
 51
310.1191669489546143
  0
ARC
  5
68DD
  8
0
 10
3252.9456126290770044
 20
53.2964587839333532
 30
0.0
 40
0.6102362197833885
 50
249.3064587410945876
 51
290.693541258905384
  0
ARC
  5
68DE
  8
0
 10
3252.4512280481758353
 20
52.8535453985108603
 30
0.0
 40
0.1673228343926407
 50
229.8808330212935971
 51
310.119166978706005
  0
LINE
  5
68DF
  8
0
 10
3253.5478166110769962
 20
53.1980335878499773
 30
0.0
 11
3253.5558488495771599
 21
53.1980335878499773
 31
0.0
  0
LINE
  5
68E0
  8
0
 10
3253.4613606605771565
 20
53.489372170449947
 30
0.0
 11
3253.4613606605771565
 21
53.2374036665499517
 31
0.0
  0
LINE
  5
68E1
  8
0
 10
3252.4298645975759428
 20
53.4893721704499683
 30
0.0
 11
3252.4298645975759428
 21
53.2374036665499517
 31
0.0
  0
LINE
  5
68E2
  8
0
 10
3253.489814524420126
 20
52.5877973218499406
 30
0.0
 11
3252.3622192125671972
 21
52.5877973630004334
 31
0.0
  0
LINE
  5
68E3
  8
0
 10
3253.3542740463772134
 20
52.6862225641499577
 30
0.0
 11
3253.3668724715771532
 21
52.6547265011499519
 31
0.0
  0
LINE
  5
68E4
  8
0
 10
3253.3668724715771532
 20
52.6547265011499519
 30
0.0
 11
3253.3668724715771532
 21
52.5877973263365703
 31
0.0
  0
LINE
  5
68E5
  8
0
 10
3252.5369512117758859
 20
52.6862225641499577
 30
0.0
 11
3252.5243527865759461
 21
52.6547265011499732
 31
0.0
  0
LINE
  5
68E6
  8
0
 10
3252.5243527865759461
 20
52.6547265011499732
 30
0.0
 11
3252.5243527865759461
 21
52.5877973570835024
 31
0.0
  0
LINE
  5
68E7
  8
0
 10
3253.4950894909270573
 20
52.5724182346449069
 30
0.0
 11
3253.4950894909270573
 21
51.7726686314131115
 31
0.0
  0
ARC
  5
68E8
  8
0
 10
3253.4513137329881829
 20
52.5659975116086926
 30
0.0
 40
0.044244125796158
 50
8.3442484709672957
 51
29.51928531589461
  0
ARC
  5
68E9
  8
0
 10
3253.4320894909269555
 20
51.7726686314130902
 30
0.0
 40
0.063
 50
339.7139662080419953
 51
0.0000000000130276
  0
LINE
  5
68EA
  8
0
 10
3252.3337316286888381
 20
52.6074824067499591
 30
0.0
 11
3250.4849827077769078
 21
52.6074824067499591
 31
0.0
  0
ARC
  5
68EB
  8
0
 10
3252.3291152448000503
 20
52.5703460242331175
 30
0.0
 40
0.0374222114077071
 50
27.7967448949862614
 51
82.9139733268799262
  0
LINE
  5
68EC
  8
0
 10
3251.0494708967771658
 20
52.6074824067499591
 30
0.0
 11
3251.0494708967771658
 21
52.6271674460499668
 31
0.0
  0
LINE
  5
68ED
  8
0
 10
3251.0494708967771658
 20
52.6271674460499668
 30
0.0
 11
3250.8132504243758376
 21
52.6271674460499312
 31
0.0
  0
LINE
  5
68EE
  8
0
 10
3250.8132504243758376
 20
52.6271674460499312
 30
0.0
 11
3250.8132504243758376
 21
52.6074824067499591
 31
0.0
  0
LINE
  5
68EF
  8
0
 10
3251.2232071448797797
 20
53.9022572719682387
 30
0.0
 11
3251.2330142038758822
 21
54.2767737452499475
 31
0.0
  0
ARC
  5
68F0
  8
0
 10
3251.203513895577089
 20
53.9027729578499617
 30
0.0
 40
0.0197
 50
270.0000000000259774
 51
358.4999999998324256
  0
LINE
  5
68F1
  8
0
 10
3253.4558718045332171
 20
52.1901591324815328
 30
0.0
 11
3251.9177100412348409
 21
52.190159597757237
 31
0.0
  0
LINE
  5
68F2
  8
0
 10
3251.8744307696460965
 20
52.1901596108487027
 30
0.0
 11
3250.3078173534768212
 21
52.1901600847307208
 31
0.0
  0
LINE
  5
68F3
  8
0
 10
3250.8108214038679762
 20
50.6547265418313515
 30
0.0
 11
3250.3865575109771271
 21
50.6547265275284531
 31
0.0
  0
LINE
  5
68F4
  8
0
 10
3250.3078173534768212
 20
52.5248052413500588
 30
0.0
 11
3250.3078173534768212
 21
52.0133222117797516
 31
0.0
  0
LINE
  5
68F5
  8
0
 10
3250.6030929440771615
 20
51.6416463579500231
 30
0.0
 11
3250.6030929440771615
 21
51.2032397152499925
 31
0.0
  0
ARC
  5
68F6
  8
0
 10
3250.5834079046758234
 20
51.2032397152499925
 30
0.0
 40
0.0196850394004533
 50
339.6416478152003151
 51
0.0
  0
ARC
  5
68F7
  8
0
 10
3250.5834079046771876
 20
51.6416463579500231
 30
0.0
 40
0.0196850393995378
 50
0.0
 51
20.3595024996050107
  0
ARC
  5
68F8
  8
0
 10
3250.3472605565630147
 20
52.0133552219307305
 30
0.0
 40
0.0394432168996239
 50
180.0479510487791117
 51
237.9821136361265985
  0
LINE
  5
68F9
  8
0
 10
3253.3668724715771532
 20
52.6547265011499519
 30
0.0
 11
3252.5243527865759461
 21
52.6547265011499519
 31
0.0
  0
ARC
  5
68FA
  8
0
 10
3249.7353639107332128
 20
48.517199812981211
 30
0.0
 40
0.8381395998530003
 50
320.9822750600177983
 51
357.9568904959569977
  0
LINE
  5
68FB
  8
0
 10
3250.6230611102769217
 20
50.0545142907499567
 30
0.0
 11
3250.5729706932238514
 21
48.4873189367060178
 31
0.0
  0
ARC
  5
68FC
  8
0
 10
3254.2182483084088744
 20
49.9252536523747779
 30
0.0
 40
3.5975101531819602
 50
168.3009184255280957
 51
177.9408860019719896
  0
ARC
  5
68FD
  8
0
 10
3249.9122442566072095
 20
47.6409739039337978
 30
0.0
 40
0.7720830122238052
 50
307.9032057520864782
 51
358.3936247428841284
  0
LINE
  5
68FE
  8
0
 10
3250.7233875922270272
 20
49.8985084938623089
 30
0.0
 11
3250.6840238417771616
 21
47.6193302055499572
 31
0.0
  0
LINE
  5
68FF
  8
0
 10
3250.7233875922270272
 20
49.8985084938623089
 30
0.0
 11
3250.7385164325660298
 21
50.654726539393792
 31
0.0
  0
ARC
  5
6900
  8
0
 10
3249.9968941522970454
 20
35.6742523305841814
 30
0.0
 40
4.9995627399601634
 50
269.9537304228809944
 51
357.7435513846655226
  0
ARC
  5
6901
  8
0
 10
3249.9968941522970454
 20
35.6742523305841814
 30
0.0
 40
4.9995627399601634
 50
2.2564486153345631
 51
85.5298627947586709
  0
ARC
  5
6902
  8
0
 10
3249.9928567235760966
 20
35.6744115405500821
 30
0.0
 40
4.940944881899858
 50
269.999999999426791
 51
85.4297543516528037
  0
ARC
  5
6903
  8
0
 10
3249.9928567235760966
 20
35.6744115405499329
 30
0.0
 40
4.9505173159999538
 50
269.999999999426791
 51
85.4386102192147376
  0
ARC
  5
6904
  8
0
 10
3249.914673959890024
 20
51.6902768780478468
 30
0.0
 40
0.9612080012723933
 50
31.3360839372773512
 51
53.6066821823930511
  0
LINE
  5
6905
  8
0
 10
3251.8862307660770057
 20
52.1783596108487231
 30
0.0
 11
3251.8862307660770057
 21
51.6528616410287
 31
0.0
  0
LINE
  5
6906
  8
0
 10
3251.9059100376671267
 20
52.1783594671302211
 30
0.0
 11
3251.9059157999508898
 21
51.6578319741692269
 31
0.0
  0
ARC
  5
6907
  8
0
 10
3251.874430766075875
 20
52.1783596108487018
 30
0.0
 40
0.0118
 50
0.0000000000688018
 51
89.9999826686659645
  0
ARC
  5
6908
  8
0
 10
3251.9177100376659837
 20
52.1783595977572503
 30
0.0
 40
0.0118
 50
89.999982668692013
 51
180.0006342692763894
  0
ARC
  5
6909
  8
0
 10
3253.4558717961840557
 20
52.162559132481519
 30
0.0
 40
0.0276
 50
4.758161219623263
 51
89.999982668692013
  0
LINE
  5
690A
  8
0
 10
3253.4560403128689359
 20
51.7746233879499513
 30
0.0
 11
3253.3328698863610953
 21
51.7746233879499513
 31
0.0
  0
ARC
  5
690B
  8
0
 10
3253.4560403128689359
 20
51.8022233879499723
 30
0.0
 40
0.0276
 50
270.0
 51
352.0744276932870775
  0
LINE
  5
690C
  8
0
 10
3251.8980417819489048
 20
51.6558637121951989
 30
0.0
 11
3251.8980418361647935
 21
52.1129388864731098
 31
0.0
  0
ARC
  5
690D
  8
0
 10
3251.9099790278951332
 20
52.1111162391703289
 30
0.0
 40
0.012075536823684
 50
109.6887390164909988
 51
171.3187594220472079
  0
ARC
  5
690E
  8
0
 10
3251.8814644731141925
 20
52.0856940472238392
 30
0.0
 40
0.0177411745551591
 50
20.8685099498370903
 51
74.4156263741682835
  0
ARC
  5
690F
  8
0
 10
3251.8822972656771526
 20
52.0791048770499927
 30
0.0
 40
0.0157457195999361
 50
0.6934145677619316
 51
75.5334970429472605
  0
ARC
  5
6910
  8
0
 10
3252.4909100746999684
 20
52.2892074837936676
 30
0.0
 40
0.5342609860473706
 50
272.1947909950085887
 51
281.3605531433855163
  0
ARC
  5
6911
  8
0
 10
3252.6882622282200828
 20
48.7509208978555009
 30
0.0
 40
3.0096204646465079
 50
93.3695230401476266
 51
104.3891201638297019
  0
ARC
  5
6912
  8
0
 10
3252.5244278172172017
 20
49.1667449491181401
 30
0.0
 40
2.566723920074045
 50
103.1532437474071031
 51
119.3018763367292934
  0
ARC
  5
6913
  8
0
 10
3251.6743482823540035
 20
50.5840023269961065
 30
0.0
 40
0.9160041960940489
 50
116.3173286163682008
 51
151.8316746168995053
  0
ARC
  5
6914
  8
0
 10
3251.289578099856044
 20
50.7925892516007167
 30
0.0
 40
0.4783434475957781
 50
152.1008067164619888
 51
201.2221757885519082
  0
ARC
  5
6915
  8
0
 10
3251.5138730698431573
 20
50.8937563260017214
 30
0.0
 40
0.7241673462251251
 50
202.2598695100680004
 51
234.621714238827991
  0
ARC
  5
6916
  8
0
 10
3252.3034629104959095
 20
51.9205752982899185
 30
0.0
 40
2.0191336897884971
 50
233.2228938428997935
 51
255.1547102491215924
  0
ARC
  5
6917
  8
0
 10
3252.9385927483099294
 20
54.0174416557126023
 30
0.0
 40
4.2094343421549141
 50
254.1107762807212112
 51
270.4126318503052744
  0
LINE
  5
6918
  8
0
 10
3250.8120906867848134
 20
50.7639846328154078
 30
0.0
 11
3250.8044547316158059
 21
50.106692334936362
 31
0.0
  0
ARC
  5
6919
  8
0
 10
3251.3255857728768206
 20
50.0591659745101509
 30
0.0
 40
0.5218289853264669
 50
182.9636864707462962
 51
208.7837103740461089
  0
ARC
  5
691A
  8
0
 10
3251.7007648772701032
 20
50.2983576345469672
 30
0.0
 40
0.9662590866962368
 50
210.5028296697348082
 51
238.795683878088596
  0
ARC
  5
691B
  8
0
 10
3252.5933863635868875
 20
51.8137990047388826
 30
0.0
 40
2.7249999352375709
 50
239.251017171431414
 51
260.3920109957311979
  0
ARC
  5
691C
  8
0
 10
3252.9605400553928121
 20
53.537073315497949
 30
0.0
 40
4.4859983681866709
 50
259.4419973363202985
 51
270.1068756245294935
  0
ARC
  5
691D
  8
0
 10
3251.8074707718988066
 20
50.5325228939467621
 30
0.0
 40
1.1898270087869089
 50
204.6581901484819923
 51
219.0499972909273936
  0
ARC
  5
691E
  8
0
 10
3251.5208805986339939
 20
51.7954031172085223
 30
0.0
 40
2.1440140904418059
 50
103.1644987120039048
 51
118.8918700158827022
  0
ARC
  5
691F
  8
0
 10
3251.137332172520928
 20
53.5430464711249599
 30
0.0
 40
0.3410365378282739
 50
1.584466043841678
 51
85.5892129124789562
  0
ARC
  5
6920
  8
0
 10
3252.1204367053860551
 20
50.2968834889536609
 30
0.0
 40
3.1814793210097858
 50
102.0834611630614006
 51
120.9342823245553973
  0
ARC
  5
6921
  8
0
 10
3251.0187775576309832
 20
53.5538401524258418
 30
0.0
 40
0.4594627809223116
 50
322.518031700992708
 51
359.8299306078628206
  0
ARC
  5
6922
  8
0
 10
3252.2212116319269626
 20
52.4509278989530117
 30
0.0
 40
1.1746576894629741
 50
135.5003207876436022
 51
158.543425286642389
  0
ARC
  5
6923
  8
0
 10
3252.5317206028071269
 20
52.4269590273932025
 30
0.0
 40
1.4752409458113009
 50
162.0906605867440931
 51
172.9711707683223096
  0
ARC
  5
6924
  8
0
 10
3252.8077186458522192
 20
52.3608148304262215
 30
0.0
 40
2.3294852156123089
 50
161.7908013808857959
 51
173.9215942216320911
  0
ARC
  5
6925
  8
0
 10
3253.446905774852894
 20
52.2892074837936676
 30
0.0
 40
0.5342609860473706
 50
258.6394468566144837
 51
267.8052090049912977
  0
ARC
  5
6926
  8
0
 10
3253.2495536213341438
 20
48.7509208978555009
 30
0.0
 40
3.0096204646465079
 50
75.6108798361702696
 51
86.6304769598523734
  0
ARC
  5
6927
  8
0
 10
3253.4133880323370249
 20
49.1667449491181401
 30
0.0
 40
2.566723920074045
 50
60.6981236632706995
 51
76.8467562525928969
  0
ARC
  5
6928
  8
0
 10
3254.2634675671988589
 20
50.5840023269961065
 30
0.0
 40
0.9160041960940489
 50
28.1683253831004592
 51
63.6826713836317921
  0
ARC
  5
6929
  8
0
 10
3254.6482377496968184
 20
50.7925892516007167
 30
0.0
 40
0.4783434475957781
 50
338.7778242114479781
 51
27.8991932835379899
  0
ARC
  5
692A
  8
0
 10
3254.4239427797110693
 20
50.8937563260017214
 30
0.0
 40
0.7241673462251251
 50
305.3782857611719805
 51
337.740130489932028
  0
ARC
  5
692B
  8
0
 10
3253.6343529390569529
 20
51.9205752982899185
 30
0.0
 40
2.0191336897884971
 50
284.8452897508784076
 51
306.7771061571002065
  0
ARC
  5
692C
  8
0
 10
3252.9992231012429329
 20
54.0174416557126023
 30
0.0
 40
4.2094343421549141
 50
269.5873681496947256
 51
285.8892237192787888
  0
LINE
  5
692D
  8
0
 10
3255.1257251627689584
 20
50.7639846328154078
 30
0.0
 11
3255.1333611179379659
 21
50.1066923349362909
 31
0.0
  0
ARC
  5
692E
  8
0
 10
3254.6122300766760418
 20
50.0591659745101509
 30
0.0
 40
0.5218289853264669
 50
331.2162896259537774
 51
357.0363135292520269
  0
ARC
  5
692F
  8
0
 10
3254.2370509722832139
 20
50.2983576345469672
 30
0.0
 40
0.9662590866962368
 50
301.204316121911404
 51
329.4971703302650781
  0
ARC
  5
6930
  8
0
 10
3253.3444294859659749
 20
51.8137990047388826
 30
0.0
 40
2.7249999352375709
 50
279.6079890042688021
 51
300.7489828285685007
  0
ARC
  5
6931
  8
0
 10
3252.9772757941609598
 20
53.537073315497949
 30
0.0
 40
4.4859983681866709
 50
269.8931243754705065
 51
280.5580026636797015
  0
ARC
  5
6932
  8
0
 10
3252.9769828210000924
 20
51.4104761539131516
 30
0.0
 40
0.5205906564899015
 50
90.8887520776308548
 51
137.015628785405994
  0
ARC
  5
6933
  8
0
 10
3252.9608330285532247
 20
51.4104761539131516
 30
0.0
 40
0.5205906564899015
 50
42.9843712145940131
 51
89.1112479223691452
  0
LINE
  5
6934
  8
0
 10
3249.5401008179769633
 20
52.5248052413501227
 30
0.0
 11
3249.5401008179769633
 21
52.1901600430492678
 31
0.0
  0
LINE
  5
6935
  8
0
 10
3250.44561262897696
 20
52.5248052413498527
 30
0.0
 11
3250.44561262897696
 21
52.1901600430492891
 31
0.0
  0
ARC
  5
6936
  8
0
 10
3251.6727956835889017
 20
51.9826854172509769
 30
0.0
 40
1.8197216676087951
 50
359.9872974718214778
 51
5.7452137741819058
  0
ARC
  5
6937
  8
0
 10
3251.6222443424057928
 20
51.9831013931707915
 30
0.0
 40
1.870273143571396
 50
354.3329839945728281
 51
359.9748973930250031
  0
ARC
  5
6938
  8
0
 10
3272.1237152225608042
 20
51.4211478194136902
 30
0.0
 40
25.1115046942865305
 50
178.327192486200687
 51
179.9970447616688034
  0
ARC
  5
6939
  8
0
 10
3272.1237366440150254
 20
51.4237385670709983
 30
0.0
 40
25.1115261157572114
 50
180.0029559503882979
 51
181.6728068015115127
  0
LINE
  5
693A
  8
0
 10
3247.0229123710769272
 20
52.15419912874885
 30
0.0
 11
3247.0229123710769272
 21
50.6906869444500572
 31
0.0
  0
LINE
  5
693B
  8
0
 10
3253.4833766782257953
 20
52.1648485568316929
 30
0.0
 11
3253.4833766782257953
 21
51.7984177173081477
 31
0.0
  0
LINE
  5
693C
  8
0
 10
3244.9931331595657866
 20
35.8710965062019369
 30
0.0
 11
3244.9931331595657866
 21
35.4774081549664118
 31
0.0
  0
LINE
  5
693D
  8
0
 10
3254.9925802874868168
 20
35.8710965062017593
 30
0.0
 11
3254.9925802874868168
 21
35.4774081549665965
 31
0.0
  0
LINE
  5
693E
  8
0
 10
3255.1333611179379659
 20
50.1066923349362909
 30
0.0
 11
3255.1333611179379659
 21
50.0321858381074378
 31
0.0
  0
LINE
  5
693F
  8
0
 10
3250.8044547316158059
 20
50.032185838107452
 30
0.0
 11
3250.8044547316158059
 21
50.106692334936362
 31
0.0
  0
LINE
  5
6941
  8
0
 10
3245.8165454119039168
 20
53.9799212347499591
 30
0.0
 11
3248.2636562240500098
 21
53.9799212347499591
 31
0.0
  0
LINE
  5
6942
  8
0
 10
3251.7220572230030484
 20
53.9799212347499591
 30
0.0
 11
3254.1691680351500509
 21
53.9799212347499591
 31
0.0
  0
ARC
  5
6943
  8
0
 10
3249.9928567234769616
 20
35.6744115405499613
 30
0.0
 40
0.413385870199997
 50
162.2471910364592986
 51
17.7528089180839395
  0
ARC
  5
6944
  8
0
 10
3249.9928567234769616
 20
35.6744115405499613
 30
0.0
 40
0.474408036
 50
146.0862066763345126
 51
33.9137933020273223
  0
ARC
  5
6945
  8
0
 10
3249.9928567234769616
 20
35.6744115405499613
 30
0.0
 40
0.5334645669000011
 50
137.5619504254021876
 51
42.4380495586675224
  0
ARC
  5
6946
  8
0
 10
3249.9928567234769616
 20
35.6744115405499613
 30
0.0
 40
0.7874015748000005
 50
119.9999999999999005
 51
59.9999999916039073
  0
ARC
  5
6947
  8
0
 10
3249.9928567234769616
 20
35.6744115405499613
 30
0.0
 40
0.7480314936000028
 50
121.7568639759280984
 51
58.2431360150630582
  0
ENDSEC
  0
EOF
