  0
SECTION
  2
HEADER
  9
$ACADVER
  1
AC1009
  9
$INSBASE
 10
4041.230599294538024
 20
99.9341055009744963
 30
0.0
  9
$EXTMIN
 10
4017.1804862209392013
 20
94.5832626175232463
 30
-0.0015258207003583
  9
$EXTMAX
 10
4041.5389895421540132
 20
148.3036951532135106
 30
0.0000000349246037
  9
$LIMMIN
 10
0.0
 20
0.0
  9
$LIMMAX
 10
11.6929133858000007
 20
8.2677165353999982
  9
$ORTHOMODE
 70
     1
  9
$REGENMODE
 70
     1
  9
$FILLMODE
 70
     1
  9
$QTEXTMODE
 70
     0
  9
$MIRRTEXT
 70
     0
  9
$DRAGMODE
 70
     2
  9
$LTSCALE
 40
0.6431102362
  9
$OSMODE
 70
  4095
  9
$ATTMODE
 70
     1
  9
$TEXTSIZE
 40
0.2
  9
$TRACEWID
 40
0.05
  9
$TEXTSTYLE
  7
STANDARD
  9
$CLAYER
  8
0
  9
$CELTYPE
  6
BYLAYER
  9
$CECOLOR
 62
   256
  9
$DIMSCALE
 40
1.0
  9
$DIMASZ
 40
0.1875
  9
$DIMEXO
 40
0.0625
  9
$DIMDLI
 40
0.4443307087
  9
$DIMRND
 40
0.0
  9
$DIMDLE
 40
0.0
  9
$DIMEXE
 40
0.125
  9
$DIMTP
 40
0.01
  9
$DIMTM
 40
0.01
  9
$DIMTXT
 40
2.0
  9
$DIMCEN
 40
0.1052362205
  9
$DIMTSZ
 40
0.0
  9
$DIMTOL
 70
     1
  9
$DIMLIM
 70
     0
  9
$DIMTIH
 70
     1
  9
$DIMTOH
 70
     1
  9
$DIMSE1
 70
     0
  9
$DIMSE2
 70
     0
  9
$DIMTAD
 70
     0
  9
$DIMZIN
 70
     0
  9
$DIMBLK
  1

  9
$DIMASO
 70
     1
  9
$DIMSHO
 70
     1
  9
$DIMPOST
  1
\X
  9
$DIMAPOST
  1

  9
$DIMALT
 70
     1
  9
$DIMALTD
 70
     2
  9
$DIMALTF
 40
25.3999999999999986
  9
$DIMLFAC
 40
1.0
  9
$DIMTOFL
 70
     0
  9
$DIMTVP
 40
0.0
  9
$DIMTIX
 70
     0
  9
$DIMSOXD
 70
     0
  9
$DIMSAH
 70
     0
  9
$DIMBLK1
  1

  9
$DIMBLK2
  1

  9
$DIMSTYLE
  2
STANDARD
  9
$DIMCLRD
 70
     0
  9
$DIMCLRE
 70
     0
  9
$DIMCLRT
 70
     0
  9
$DIMTFAC
 40
1.0
  9
$DIMGAP
 40
0.09
  9
$LUNITS
 70
     2
  9
$LUPREC
 70
     4
  9
$SKETCHINC
 40
0.1
  9
$FILLETRAD
 40
0.0
  9
$AUNITS
 70
     0
  9
$AUPREC
 70
     0
  9
$MENU
  1
.
  9
$ELEVATION
 40
0.0
  9
$PELEVATION
 40
0.0
  9
$THICKNESS
 40
0.0
  9
$LIMCHECK
 70
     0
  9
$BLIPMODE
 70
     0
  9
$CHAMFERA
 40
0.0
  9
$CHAMFERB
 40
0.0
  9
$SKPOLY
 70
     0
  9
$TDCREATE
 40
2458060.468368056230247
  9
$TDUPDATE
 40
2459463.3948611109517515
  9
$TDINDWG
 40
0.3438149306
  9
$TDUSRTIMER
 40
0.3438149306
  9
$USRTIMER
 70
     1
  9
$ANGBASE
 50
0.0
  9
$ANGDIR
 70
     0
  9
$PDMODE
 70
     0
  9
$PDSIZE
 40
0.3125
  9
$PLINEWID
 40
0.0
  9
$COORDS
 70
     1
  9
$SPLFRAME
 70
     0
  9
$SPLINETYPE
 70
     6
  9
$SPLINESEGS
 70
     8
  9
$ATTDIA
 70
     1
  9
$ATTREQ
 70
     1
  9
$HANDLING
 70
     1
  9
$HANDSEED
  5
139C0
  9
$SURFTAB1
 70
     6
  9
$SURFTAB2
 70
     6
  9
$SURFTYPE
 70
     6
  9
$SURFU
 70
     6
  9
$SURFV
 70
     6
  9
$UCSNAME
  2

  9
$UCSORG
 10
0.0
 20
0.0
 30
0.0
  9
$UCSXDIR
 10
1.0
 20
0.0
 30
0.0
  9
$UCSYDIR
 10
0.0
 20
1.0
 30
0.0
  9
$PUCSNAME
  2

  9
$PUCSORG
 10
0.0
 20
0.0
 30
0.0
  9
$PUCSXDIR
 10
1.0
 20
0.0
 30
0.0
  9
$PUCSYDIR
 10
0.0
 20
1.0
 30
0.0
  9
$USERI1
 70
     0
  9
$USERI2
 70
     0
  9
$USERI3
 70
     0
  9
$USERI4
 70
     0
  9
$USERI5
 70
     0
  9
$USERR1
 40
0.0
  9
$USERR2
 40
0.0
  9
$USERR3
 40
0.0
  9
$USERR4
 40
0.0
  9
$USERR5
 40
0.0
  9
$WORLDVIEW
 70
     1
  9
$SHADEDGE
 70
     3
  9
$SHADEDIF
 70
    70
  9
$TILEMODE
 70
     1
  9
$MAXACTVP
 70
    64
  9
$PLIMCHECK
 70
     0
  9
$PEXTMIN
 10
1.0000000000000000E+20
 20
1.0000000000000000E+20
 30
1.0000000000000000E+20
  9
$PEXTMAX
 10
-1.0000000000000000E+20
 20
-1.0000000000000000E+20
 30
-1.0000000000000000E+20
  9
$PLIMMIN
 10
0.0
 20
0.0
  9
$PLIMMAX
 10
12.0
 20
9.0
  9
$UNITMODE
 70
     0
  9
$VISRETAIN
 70
     1
  9
$PLINEGEN
 70
     0
  9
$PSLTSCALE
 70
     1
  0
ENDSEC
  0
SECTION
  2
TABLES
  0
TABLE
  2
VPORT
 70
     1
  0
VPORT
  2
*ACTIVE
 70
     0
 10
0.0
 20
0.0
 11
1.0
 21
1.0
 12
-235.6466097747033928
 22
17.1394665867844012
 13
0.0
 23
0.0
 14
1.0
 24
1.0
 15
0.0
 25
0.0
 16
0.0
 26
0.0
 36
122.0237731519760018
 17
4265.00634765625
 27
104.3040122985839986
 37
0.0
 40
54.188244720326189
 41
2.7718023255813948
 42
50.0
 43
0.0
 44
0.0
 50
0.0
 51
0.0
 71
     0
 72
   100
 73
     1
 74
     1
 75
     0
 76
     0
 77
     0
 78
     0
  0
ENDTAB
  0
TABLE
  2
LTYPE
 70
     2
  0
LTYPE
  2
CONTINUOUS
 70
     0
  3
Solid line
 72
    65
 73
     0
 40
0.0
  0
LTYPE
  2
PHANTOM2
 70
     0
  3
___ _ _ ___ _ _ ___ _ _ ___ _ _
 72
    65
 73
     6
 40
1.25
 49
0.625
 49
-0.125
 49
0.125
 49
-0.125
 49
0.125
 49
-0.125
  0
ENDTAB
  0
TABLE
  2
LAYER
 70
     2
  0
LAYER
  2
0
 70
     0
 62
   255
  6
CONTINUOUS
  0
LAYER
  2
DEFPOINTS
 70
     0
 62
     7
  6
CONTINUOUS
  0
ENDTAB
  0
TABLE
  2
STYLE
 70
     1
  0
STYLE
  2
STANDARD
 70
     0
 40
0.0
 41
0.8
 50
0.0
 71
     0
 42
0.2
  3
txt
  4

  0
ENDTAB
  0
TABLE
  2
VIEW
 70
     0
  0
ENDTAB
  0
TABLE
  2
UCS
 70
     0
  0
ENDTAB
  0
TABLE
  2
APPID
 70
     9
  0
APPID
  2
ACAD
 70
     0
  0
APPID
  2
ACAD_MLEADERVER
 70
     0
  0
APPID
  2
ACAD_EXEMPT_FROM_CAD_STANDARDS
 70
     0
  0
APPID
  2
ACAD_NAV_VCDISPLAY
 70
     0
  0
APPID
  2
ACAECLAYERSTANDARD
 70
     0
  0
APPID
  2
ACCMTRANSPARENCY
 70
     0
  0
APPID
  2
ACAD_DSTYLE_DIMJAG
 70
     0
  0
APPID
  2
ACAD_DSTYLE_DIMTALN
 70
     0
  0
APPID
  2
ACDBATTR
 70
     0
  0
ENDTAB
  0
TABLE
  2
DIMSTYLE
 70
     1
  0
DIMSTYLE
  2
STANDARD
 70
     0
  3

  4

  5

  6

  7

 40
1.0
 41
0.1875
 42
0.0625
 43
0.38
 44
0.125
 45
0.0
 46
0.0
 47
0.01
 48
0.01
140
0.15625
141
0.09
142
0.0
143
25.3999999999999986
144
1.0
145
0.0
146
1.0
147
0.09
 71
     1
 72
     0
 73
     1
 74
     1
 75
     0
 76
     0
 77
     0
 78
     4
170
     0
171
     2
172
     0
173
     0
174
     0
175
     0
176
     0
177
     0
178
     0
  0
ENDTAB
  0
ENDSEC
  0
SECTION
  2
BLOCKS
  0
BLOCK
  8
0
  2
$MODEL_SPACE
 70
     0
 10
0.0
 20
0.0
 30
0.0
  3
$MODEL_SPACE
  1

  0
ENDBLK
  5
21
  8
0
  0
BLOCK
 67
     1
  8
0
  2
$PAPER_SPACE
 70
     0
 10
0.0
 20
0.0
 30
0.0
  3
$PAPER_SPACE
  1

  0
ENDBLK
  5
1D
 67
     1
  8
0
  0
ENDSEC
  0
SECTION
  2
ENTITIES
  0
ATTDEF
  5
1264F
  8
DEFPOINTS
 10
4041.2315464099951896
 20
99.9399841552961732
 30
0.0
 40
0.001
  1
K-33091T-9
  3

  2
MODELNUMBER
 70
     0
1001
ACDBATTR
1070
     0
1070
     1
  0
ATTDEF
  5
12650
  8
DEFPOINTS
 10
4041.2315464099951896
 20
99.9383174886295222
 30
0.0
 40
0.001
  1

  3

  2
TRADENAME
 70
     0
1001
ACDBATTR
1070
     0
1070
     1
  0
ATTDEF
  5
12651
  8
DEFPOINTS
 10
4041.2315464099951896
 20
99.9366508219628571
 30
0.0
 40
0.001
  1
BATH AND SHOWER FAUCET
  3

  2
PRODUCT
 70
     0
1001
ACDBATTR
1070
     0
1070
     1
  0
LINE
  5
12F6D
  8
0
 10
4021.9235126803391722
 20
145.145722736628386
 30
0.0
 11
4022.7109142551380501
 21
145.1457227366283007
 31
0.0
  0
LINE
  5
12F6E
  8
0
 10
4022.7109142551380501
 20
145.1457227366283007
 30
0.0
 11
4022.7109142551380501
 21
145.933124311428287
 31
0.0
  0
ARC
  5
12F6F
  8
0
 10
4024.285717404738989
 20
145.933124311428287
 30
0.0
 40
1.574803149599997
 50
90.0
 51
180.0
  0
LINE
  5
12F70
  8
0
 10
4024.285717404738989
 20
147.507927461028288
 30
0.0
 11
4036.0967410267380728
 21
147.507927461028288
 31
0.0
  0
ARC
  5
12F71
  8
0
 10
4036.0967410267380728
 20
145.933124311428287
 30
0.0
 40
1.5748031496000039
 50
0.0000000000008142
 51
90.0
  0
LINE
  5
12F72
  8
0
 10
4037.6715441763390118
 20
145.933124311428287
 30
0.0
 11
4037.6715441763390118
 21
135.7992660436283074
 31
0.0
  0
LINE
  5
12F73
  8
0
 10
4037.4353239942379332
 20
135.7992660436283074
 30
0.0
 11
4038.6951659333381031
 21
135.7992660436283074
 31
0.0
  0
ARC
  5
12F74
  8
0
 10
4038.6951659333381031
 20
135.7795807139262081
 30
0.0
 40
0.0196853297021456
 50
0.0008452394508711
 51
90.0
  0
LINE
  5
12F75
  8
0
 10
4038.7148512630378718
 20
135.7795810043284064
 30
0.0
 11
4038.7148570709950945
 21
135.3858802169712021
 31
0.0
  0
ARC
  5
12F76
  8
0
 10
4038.6951723210040655
 20
135.3858799265775872
 30
0.0
 40
0.0196847499935832
 50
269.9822525898393906
 51
0.0008452394606418
  0
ARC
  5
12F77
  8
0
 10
4038.0652400368321651
 20
-1898.2888810526490033
 30
0.0
 40
2033.6551737902289005
 50
89.9822525898394048
 51
90.017747410160581
  0
ARC
  5
12F78
  8
0
 10
4037.4353077575210591
 20
135.3858642760264104
 30
0.0
 40
0.0196690994416551
 50
179.9535643965492113
 51
270.0177474101606094
  0
LINE
  5
12F79
  8
0
 10
4037.4156386645390739
 20
135.3858802169283138
 30
0.0
 11
4037.4156386645390739
 21
135.7795810043284064
 31
0.0
  0
ARC
  5
12F7A
  8
0
 10
4037.4353237037971667
 20
135.7795810043720053
 30
0.0
 40
0.0196850392584978
 50
89.9991546335280646
 51
180.000000127013692
  0
LINE
  5
12F7B
  8
0
 10
4038.4589457511378896
 20
135.7992660436283074
 30
0.0
 11
4038.4589457511378896
 21
145.933124311428287
 31
0.0
  0
ARC
  5
12F7C
  8
0
 10
4036.0967410267380728
 20
145.933124311428287
 30
0.0
 40
2.3622047244000011
 50
0.0
 51
90.0
  0
LINE
  5
12F7D
  8
0
 10
4036.0967410267380728
 20
148.295329035828388
 30
0.0
 11
4024.285717404738989
 21
148.295329035828388
 31
0.0
  0
ARC
  5
12F7E
  8
0
 10
4024.285717404738989
 20
145.933124311428287
 30
0.0
 40
2.3622047244000011
 50
90.0
 51
180.0
  0
LINE
  5
12F7F
  8
0
 10
4021.9235126803391722
 20
145.933124311428287
 30
0.0
 11
4021.9235126803391722
 21
145.145722736628386
 31
0.0
  0
LINE
  5
12F80
  8
0
 10
4021.9530402393370423
 20
145.145722736628386
 30
0.0
 11
4021.9530402393370423
 21
145.0276125098284012
 31
0.0
  0
LINE
  5
12F81
  8
0
 10
4021.9530402393370423
 20
145.0276125098284012
 30
0.0
 11
4022.6813866960378618
 21
145.0276125098284012
 31
0.0
  0
LINE
  5
12F82
  8
0
 10
4022.6813866960378618
 20
145.0276125098284012
 30
0.0
 11
4022.6813866960378618
 21
145.1457227366283007
 31
0.0
  0
LINE
  5
12F83
  8
0
 10
4022.6813866960378618
 20
145.0276125098284012
 30
0.0
 11
4022.7305993318391302
 21
144.9783998753283072
 31
0.0
  0
LINE
  5
12F84
  8
0
 10
4022.7305993318391302
 20
144.9783998753283072
 30
0.0
 11
4022.7305993318391302
 21
144.940171555528309
 31
0.0
  0
LINE
  5
12F85
  8
0
 10
4022.789653890237787
 20
144.940171555528309
 30
0.0
 11
4021.8447730452389806
 21
144.940171555528309
 31
0.0
  0
LINE
  5
12F86
  8
0
 10
4021.8447730452389806
 20
144.940171555528309
 30
0.0
 11
4021.8447725228388663
 21
144.6252109255283074
 31
0.0
  0
LINE
  5
12F87
  8
0
 10
4021.8447725228388663
 20
144.6252109255283074
 30
0.0
 11
4021.8841426015378602
 21
144.6252109255283074
 31
0.0
  0
LINE
  5
12F88
  8
0
 10
4021.8841426015378602
 20
144.6252109255283074
 30
0.0
 11
4021.8841426015378602
 21
144.124656830928302
 31
0.0
  0
LINE
  5
12F89
  8
0
 10
4021.8841426015378602
 20
144.124656830928302
 30
0.0
 11
4021.9499303999109543
 21
144.1007120306283014
 31
0.0
  0
ARC
  5
12F8A
  8
0
 10
4021.9431977200379151
 20
144.0822141446383
 30
0.0
 40
0.0196850391001871
 50
359.9999993889621805
 51
70.0000000658889689
  0
LINE
  5
12F8B
  8
0
 10
4021.9628827591382105
 20
144.0822141444284057
 30
0.0
 11
4021.9628827586739135
 21
144.0385967577954887
 31
0.0
  0
LINE
  5
12F8C
  8
0
 10
4021.9628827581691439
 20
143.9913526448179084
 30
0.0
 11
4021.9628827577780612
 21
143.9546675969284024
 31
0.0
  0
ARC
  5
12F8D
  8
0
 10
4021.9431977142630785
 20
143.9546675971382967
 30
0.0
 40
0.0196850435155192
 50
316.4847364781011834
 51
359.9999993889720145
  0
ARC
  5
12F8E
  8
0
 10
4022.3172138731702034
 20
143.5995501027821888
 30
0.0
 40
0.4960634629502814
 50
136.4847364781012118
 51
158.8228682231103903
  0
LINE
  5
12F8F
  8
0
 10
4021.6630690839378985
 20
143.7787542326283869
 30
0.0
 11
4022.9713583190391546
 21
143.7787542326283869
 31
0.0
  0
ARC
  5
12F90
  8
0
 10
4022.317203982960109
 20
143.5995438134621054
 30
0.0
 40
0.4960743777193454
 50
21.1774224012562513
 51
43.515005810728141
  0
ARC
  5
12F91
  8
0
 10
4022.691230801437996
 20
143.9546682298270071
 30
0.0
 40
0.0196866251102135
 50
180.0018419826540139
 51
223.5150058107485052
  0
LINE
  5
12F92
  8
0
 10
4022.6715441763390118
 20
143.9546675969284024
 30
0.0
 11
4022.6715429963937822
 21
143.9913703242424958
 31
0.0
  0
LINE
  5
12F93
  8
0
 10
4022.6715414794271055
 20
144.038556353957091
 30
0.0
 11
4022.671540075887151
 21
144.0822141443624105
 31
0.0
  0
ARC
  5
12F94
  8
0
 10
4022.6912220818121568
 20
144.0822147771125969
 30
0.0
 40
0.0196820059347825
 50
109.9811149779358033
 51
180.0018419826540139
  0
LINE
  5
12F95
  8
0
 10
4022.6844965357590809
 20
144.1007120306356057
 30
0.0
 11
4022.7502941085008388
 21
144.1246358312779989
 31
0.0
  0
LINE
  5
12F96
  8
0
 10
4022.7502941085008388
 20
144.1246358312779989
 30
0.0
 11
4022.7502941085008388
 21
144.6252109255283074
 31
0.0
  0
LINE
  5
12F97
  8
0
 10
4022.7502941085008388
 20
144.6252109255283074
 30
0.0
 11
4022.7896542354378653
 21
144.6252109255283074
 31
0.0
  0
LINE
  5
12F98
  8
0
 10
4022.7896542354378653
 20
144.6252109255283074
 30
0.0
 11
4022.7896542354378653
 21
144.940171555528309
 31
0.0
  0
LINE
  5
12F99
  8
0
 10
4021.9530402393370423
 20
145.0276125098284012
 30
0.0
 11
4021.9038276035380477
 21
144.9783998753283072
 31
0.0
  0
LINE
  5
12F9A
  8
0
 10
4021.9038276035380477
 20
144.9783998753283072
 30
0.0
 11
4021.9038276035380477
 21
144.940171555528309
 31
0.0
  0
LINE
  5
12F9B
  8
0
 10
4021.9038276035380477
 20
144.9783998753283072
 30
0.0
 11
4022.7305993318391302
 21
144.9783998753283072
 31
0.0
  0
LINE
  5
12F9C
  8
0
 10
4021.9628827577780612
 20
143.9546675969284024
 30
0.0
 11
4022.6715441763390118
 21
143.9546675969284024
 31
0.0
  0
LINE
  5
12F9D
  8
0
 10
4021.9628827590381661
 20
144.0822141444284057
 30
0.0
 11
4022.671540075887151
 21
144.0822141444284057
 31
0.0
  0
CIRCLE
  5
12F9E
  8
0
 10
4022.317213467737929
 20
144.01497470512831
 30
0.0
 40
0.0236220472
  0
ARC
  5
12F9F
  8
0
 10
4023.0250866093610966
 20
144.0149747050782878
 30
0.0
 40
0.3543307114330019
 50
176.1774462997134094
 51
183.8225537002857948
  0
ARC
  5
12FA0
  8
0
 10
4021.6092197522211791
 20
144.0149747050782878
 30
0.0
 40
0.3544510170770285
 50
356.1787456554449136
 51
3.821254344554275
  0
LINE
  5
12FA1
  8
0
 10
4021.8841426015378602
 20
144.152769980728408
 30
0.0
 11
4022.7502941085008388
 21
144.152769980728408
 31
0.0
  0
ARC
  5
12FA2
  8
0
 10
4037.4353237199920841
 20
135.3465101295250861
 30
0.0
 40
0.0196850554536877
 50
90.0498494791306285
 51
179.9999749592383012
  0
LINE
  5
12FA3
  8
0
 10
4037.4156386645390739
 20
135.3465101381283091
 30
0.0
 11
4037.4156381397419864
 21
134.1457227366284997
 31
0.0
  0
ARC
  5
12FA4
  8
0
 10
4037.4353231714958383
 20
134.1457227280251914
 30
0.0
 40
0.0196850317536691
 50
179.9999749592408023
 51
269.9821361531438129
  0
LINE
  5
12FA5
  8
0
 10
4037.4353170340377801
 20
134.1260376972284121
 30
0.0
 11
4038.6951662236378979
 21
134.1260376972284121
 31
0.0
  0
ARC
  5
12FA6
  8
0
 10
4038.6951662236378979
 20
134.145722736628386
 30
0.0
 40
0.019685039400013
 50
269.9999999999739089
 51
359.9999999999583906
  0
LINE
  5
12FA7
  8
0
 10
4038.7148512630378718
 20
134.145722736628386
 30
0.0
 11
4038.7148512630387813
 21
134.3917857287283084
 31
0.0
  0
ARC
  5
12FA8
  8
0
 10
4038.7542213417391395
 20
134.3917857287283084
 30
0.0
 40
0.0393700787000313
 50
90.0000000003126672
 51
179.9999999999633076
  0
LINE
  5
12FA9
  8
0
 10
4038.7542213417391395
 20
134.4311558074284108
 30
0.0
 11
4039.4786307905378635
 21
134.4311558074323898
 31
0.0
  0
LINE
  5
12FAA
  8
0
 10
4039.4786307905378635
 20
134.2539904531284094
 30
0.0
 11
4039.4786307905378635
 21
135.2382424216283141
 31
0.0
  0
LINE
  5
12FAB
  8
0
 10
4039.4786307905378635
 20
135.2382424216283141
 30
0.0
 11
4040.8368985071379029
 21
135.2382424216283141
 31
0.0
  0
LINE
  5
12FAC
  8
0
 10
4040.8368985071379029
 20
135.9567779862283032
 30
0.0
 11
4040.8368985071379029
 21
133.5357709134293884
 31
0.0
  0
ARC
  5
12FAD
  8
0
 10
4040.8566269041248233
 20
133.5357974774422871
 30
0.0
 40
0.019728414871376
 50
180.0771479255471093
 51
268.4013162610273753
  0
LINE
  5
12FAE
  8
0
 10
4040.8560765074989831
 20
133.516076741733599
 30
0.0
 11
4041.230599294538024
 21
133.5059589570147125
 31
0.0
  0
LINE
  5
12FAF
  8
0
 10
4041.230599294538024
 20
133.5059589570147125
 30
0.0
 11
4041.230599294538024
 21
135.9862739177283117
 31
0.0
  0
LINE
  5
12FB0
  8
0
 10
4041.230599294538024
 20
135.9862739177283117
 30
0.0
 11
4040.8560682522379466
 21
135.976466477228314
 31
0.0
  0
ARC
  5
12FB1
  8
0
 10
4040.8565835465669807
 20
135.9567881807321044
 30
0.0
 40
0.0196850420684902
 50
91.5000000001721503
 51
180.0296723809425998
  0
LINE
  5
12FB2
  8
0
 10
4040.8368985070687813
 20
134.2539904531284094
 30
0.0
 11
4039.4786307905378635
 21
134.2539904531284094
 31
0.0
  0
LINE
  5
12FB3
  8
0
 10
4039.4786307905378635
 20
135.0610770673283128
 30
0.0
 11
4038.7542213417527819
 21
135.0610770672284104
 31
0.0
  0
ARC
  5
12FB4
  8
0
 10
4038.7542213417468702
 20
135.1004471460377943
 30
0.0
 40
0.0393700788094762
 50
180.0000001184978089
 51
270.0000000078946982
  0
LINE
  5
12FB5
  8
0
 10
4038.7148512629378274
 20
135.1004471459563945
 30
0.0
 11
4038.7148512624289651
 21
135.3465101381283091
 31
0.0
  0
ARC
  5
12FB6
  8
0
 10
4038.6951662205210596
 20
135.3465101380876092
 30
0.0
 40
0.0196850419086019
 50
0.0000001184896563
 51
89.9713099150125117
  0
ARC
  5
12FB7
  8
0
 10
4039.4693258370489275
 20
134.6379853187478943
 30
0.0
 40
0.8308917299602109
 50
149.3893085945447865
 51
160.8981528162283894
  0
ARC
  5
12FB8
  8
0
 10
4039.1658953651958655
 20
134.7430684959009
 30
0.0
 40
0.5097803390548848
 50
160.8981528162283894
 51
179.6574304517185965
  0
ARC
  5
12FB9
  8
0
 10
4039.1412801160267918
 20
134.743215671405693
 30
0.0
 40
0.4851646499051164
 50
179.6574304517185965
 51
202.5154587156631862
  0
ARC
  5
12FBA
  8
0
 10
4039.8138725375470131
 20
135.022025202421986
 30
0.0
 40
1.2132548366766751
 50
202.5154587156631862
 51
209.1443629051501887
  0
LINE
  5
12FBB
  8
0
 10
4038.5573709480390789
 20
124.2451163809917034
 30
0.0
 11
4038.5573709480390789
 21
123.9878572194643027
 31
0.0
  0
LINE
  5
12FBC
  8
0
 10
4038.5573709480390789
 20
122.8094367118798971
 30
0.0
 11
4038.5573709480390789
 21
118.9251173065476053
 31
0.0
  0
LINE
  5
12FBD
  8
0
 10
4038.5573709480390789
 20
116.4890365666166048
 30
0.0
 11
4038.5573709480390789
 21
104.8307621066282991
 31
0.0
  0
LINE
  5
12FBE
  8
0
 10
4039.4431977197377819
 20
104.8307621066282991
 30
0.0
 11
4038.0652449637382233
 21
104.8307621066282991
 31
0.0
  0
LINE
  5
12FBF
  8
0
 10
4038.0573708417377929
 20
104.8307621066282991
 30
0.0
 11
4037.5731189795378668
 21
104.8307621066282991
 31
0.0
  0
LINE
  5
12FC0
  8
0
 10
4037.5731189795378668
 20
104.8307621066282991
 30
0.0
 11
4037.5731189795378668
 21
122.8094367118798971
 31
0.0
  0
LINE
  5
12FC1
  8
0
 10
4037.5731189795378668
 20
131.4492308555028046
 30
0.0
 11
4037.5731189795378668
 21
134.1260376972284121
 31
0.0
  0
ARC
  5
12FC2
  8
0
 10
4037.5928040189378407
 20
104.8110770673282985
 30
0.0
 40
0.0196850394000041
 50
90.0
 51
179.9999999999893987
  0
ARC
  5
12FC3
  8
0
 10
4036.1299741007369448
 20
133.1966936800043868
 30
0.0
 40
0.0562587235171294
 50
100.5230737186113998
 51
173.1058798147016944
  0
LINE
  5
12FC4
  8
0
 10
4036.0741221466150819
 20
133.2034466935938894
 30
0.0
 11
4036.0726552569631167
 21
133.1425374621261142
 31
0.0
  0
ARC
  5
12FC5
  8
0
 10
4035.4499270412638907
 20
133.0617136471236108
 30
0.0
 40
0.6279513673044991
 50
7.1013547583566581
 51
7.3950724117282647
  0
ARC
  5
12FC6
  8
0
 10
4034.6288010334938008
 20
132.4725654592816113
 30
0.0
 40
1.590748807168975
 50
19.7439934434349986
 51
24.7815807407246815
  0
ARC
  5
12FC7
  8
0
 10
4024.6065213561078053
 20
129.6628285408640124
 30
0.0
 40
11.9959302124848808
 50
13.6814584269985406
 51
16.2018041817433307
  0
ARC
  5
12FC8
  8
0
 10
4206.9295795387415637
 20
176.811350208323887
 30
0.0
 40
176.3260596285423105
 50
194.5546074978904869
 51
195.2873273163216936
  0
LINE
  5
12FC9
  8
0
 10
4036.0844544430719907
 20
133.1140909215147019
 30
0.0
 11
4036.0770800877658075
 21
133.1120110273504906
 31
0.0
  0
ARC
  5
12FCA
  8
0
 10
4036.0803666431152124
 20
133.1003584022776067
 30
0.0
 40
0.0121072340837934
 50
105.7507979465325008
 51
178.3918012119532079
  0
ARC
  5
12FCB
  8
0
 10
4042.2394471931002045
 20
133.0311143572218953
 30
0.0
 40
6.1715753026163798
 50
179.3539827190867868
 51
182.3785648970157922
  0
ARC
  5
12FCC
  8
0
 10
4036.0428849200279728
 20
132.802188320147593
 30
0.0
 40
0.029232022283842
 50
286.8942669051111807
 51
0.1227256257819777
  0
ARC
  5
12FCD
  8
0
 10
4036.2145454118281123
 20
132.0816338596152946
 30
0.0
 40
0.7115445102019275
 50
103.2565517368971939
 51
105.9631431246278055
  0
ARC
  5
12FCE
  8
0
 10
4036.0261263845391113
 20
132.7391523989014956
 30
0.0
 40
0.0275637642161204
 50
105.2910744865334038
 51
182.5905122762960957
  0
LINE
  5
12FCF
  8
0
 10
4035.998590788619822
 20
132.7379065838503038
 30
0.0
 11
4036.0027350803079571
 21
132.6570204979209109
 31
0.0
  0
ARC
  5
12FD0
  8
0
 10
4036.0295355719040344
 20
132.6581166375036958
 30
0.0
 40
0.0268228982731179
 50
182.3420908885738072
 51
222.9610874145776052
  0
LINE
  5
12FD1
  8
0
 10
4036.0815848256988829
 20
132.7424415212061035
 30
0.0
 11
4036.0777377365129723
 21
132.7894424700529044
 31
0.0
  0
ARC
  5
12FD2
  8
0
 10
4036.0710357342891257
 20
132.7885693793072051
 30
0.0
 40
0.0067586330911885
 50
7.4223001951838841
 51
18.4344820101500311
  0
ARC
  5
12FD3
  8
0
 10
4036.077329838940841
 20
132.7906609890588925
 30
0.0
 40
0.0001262406443196
 50
21.1774789287025698
 51
130.372522686403812
  0
ARC
  5
12FD4
  8
0
 10
4036.0809701470629989
 20
132.7896550358487104
 30
0.0
 40
0.0038818265117665
 50
163.5056767541506986
 51
175.1068054563702105
  0
ARC
  5
12FD5
  8
0
 10
4036.1887509564749053
 20
132.7824279153713007
 30
0.0
 40
0.1119040297063099
 50
176.1271734988015112
 51
178.6835878343468096
  0
ARC
  5
12FD6
  8
0
 10
4036.0495411446900107
 20
132.7893748751143903
 30
0.0
 40
0.0276833864938626
 50
328.6749030353540206
 51
350.9046979854165897
  0
ARC
  5
12FD7
  8
0
 10
4036.0500325148459524
 20
132.7886037034517983
 30
0.0
 40
0.0268657430330035
 50
284.6976877129455943
 51
329.5350388549549052
  0
ARC
  5
12FD8
  8
0
 10
4037.1850679838439646
 20
128.5389965196353899
 30
0.0
 40
4.3717100622661018
 50
104.9557350501433035
 51
105.3921152649848949
  0
ARC
  5
12FD9
  8
0
 10
4036.0321689484608214
 20
132.7270682104798993
 30
0.0
 40
0.0278500279697462
 50
105.5271109148535942
 51
177.1571307450263077
  0
ARC
  5
12FDA
  8
0
 10
4037.7620784312321121
 20
132.7807695058943978
 30
0.0
 40
1.7585037358680209
 50
181.7049486228968931
 51
184.3445929340896896
  0
ARC
  5
12FDB
  8
0
 10
4036.0641543595847907
 20
132.6527870346453994
 30
0.0
 40
0.0557725699795989
 50
185.3834662158936055
 51
193.4264731544400888
  0
ARC
  5
12FDC
  8
0
 10
4036.036311955500878
 20
132.6461984295031016
 30
0.0
 40
0.0271613370348496
 50
193.5454516759369028
 51
258.2000784817435033
  0
ARC
  5
12FDD
  8
0
 10
4036.0949930598790161
 20
132.6298043534237934
 30
0.0
 40
0.0288497653745199
 50
105.6914890596218015
 51
178.1115044420010918
  0
ARC
  5
12FDE
  8
0
 10
4036.4048613769277836
 20
132.628185998764792
 30
0.0
 40
0.3387121559742853
 50
179.5654153832003885
 51
193.1563033385237134
  0
ARC
  5
12FDF
  8
0
 10
4036.11087248360991
 20
132.5578294719580015
 30
0.0
 40
0.0364608544415268
 50
190.6482032389590131
 51
229.2699959636628932
  0
ARC
  5
12FE0
  8
0
 10
4036.1046257461939604
 20
132.552508410675614
 30
0.0
 40
0.028380687819503
 50
231.8181240852267138
 51
284.8565786313203034
  0
LINE
  5
12FE1
  8
0
 10
4036.1119016570919484
 20
132.5250760427514081
 30
0.0
 11
4036.1240514079481727
 21
132.5283960189161974
 31
0.0
  0
ARC
  5
12FE2
  8
0
 10
4036.1310699492578351
 20
132.5027110368353931
 30
0.0
 40
0.0266266450502977
 50
37.5159109503675481
 51
105.2832406027916932
  0
ARC
  5
12FE3
  8
0
 10
4036.2613165808620579
 20
132.5496878080265901
 30
0.0
 40
0.1133796081179487
 50
195.7425544469485033
 51
198.1498060749526076
  0
ARC
  5
12FE4
  8
0
 10
4036.1861041532329182
 20
132.5239282444678963
 30
0.0
 40
0.0339014157958176
 50
196.3765725485158953
 51
211.2175632035194042
  0
ARC
  5
12FE5
  8
0
 10
4036.1593310712241873
 20
132.5076641605228076
 30
0.0
 40
0.0025756425444233
 50
210.4849187224718889
 51
253.8279429973657102
  0
ARC
  5
12FE6
  8
0
 10
4036.1586313193338356
 20
132.5064378888060048
 30
0.0
 40
0.001247576188695
 50
269.190618962114911
 51
328.812970827970787
  0
ARC
  5
12FE7
  8
0
 10
4036.0543738613660025
 20
132.527531267970204
 30
0.0
 40
0.107544884951919
 50
348.3377124047714801
 51
6.0127124339931148
  0
ARC
  5
12FE8
  8
0
 10
4035.3464619865380882
 20
132.4877765741414066
 30
0.0
 40
0.816460775516502
 50
3.5826978315825388
 51
8.0910290992073932
  0
ARC
  5
12FE9
  8
0
 10
4035.3356350992380612
 20
132.4951926692820052
 30
0.0
 40
0.8261836757836341
 50
7.47615273600272
 51
12.8780246830847194
  0
ARC
  5
12FEA
  8
0
 10
4036.0484874107401083
 20
132.6577360005497042
 30
0.0
 40
0.095035813160708
 50
13.1330485414495399
 51
21.3607417057102111
  0
ARC
  5
12FEB
  8
0
 10
4036.1286707610870508
 20
132.6890920126170101
 30
0.0
 40
0.0089395356118636
 50
21.3854406291038792
 51
41.2046538343348985
  0
ARC
  5
12FEC
  8
0
 10
4036.1347597916228551
 20
132.6944332882943911
 30
0.0
 40
0.0008398483887376
 50
40.6986261386485424
 51
158.9938394680009992
  0
ARC
  5
12FED
  8
0
 10
4036.1507644122011698
 20
132.6880804505670142
 30
0.0
 40
0.0180591598114464
 50
158.3799457579860928
 51
178.7430848954356861
  0
ARC
  5
12FEE
  8
0
 10
4036.1044941454788386
 20
132.6876785274698989
 30
0.0
 40
0.0282267363066946
 50
342.3827863226189834
 51
1.620151936368998
  0
ARC
  5
12FEF
  8
0
 10
4036.1070116866330864
 20
132.6911985937377949
 30
0.0
 40
0.0272059380440405
 50
285.465187832601373
 51
333.6790974168143862
  0
ARC
  5
12FF0
  8
0
 10
4273.1980513870639697
 20
-734.9914871762474604
 30
0.0
 40
899.4645419614304274
 50
105.2827861313619024
 51
105.2845739686639064
  0
ARC
  5
12FF1
  8
0
 10
4034.3361788889819763
 20
132.5188731468637116
 30
0.0
 40
1.7783458119335489
 50
4.6628843852546531
 51
7.4787718256218918
  0
ARC
  5
12FF2
  8
0
 10
4035.9354122801742051
 20
132.7288134582285863
 30
0.0
 40
0.1653912639559042
 50
7.4787718256227
 51
12.9990261706230292
  0
ARC
  5
12FF3
  8
0
 10
4036.0876465207647925
 20
132.7639567766265998
 30
0.0
 40
0.0091532505396114
 50
12.9990261705833596
 51
24.6434509646901709
  0
ARC
  5
12FF4
  8
0
 10
4036.094011258358023
 20
132.7668766215757046
 30
0.0
 40
0.0021507239121424
 50
24.643450964609741
 51
45.4091007430876417
  0
ARC
  5
12FF5
  8
0
 10
4036.0953627415037772
 20
132.7682475434455114
 30
0.0
 40
0.0002256437925675
 50
45.4091007431981808
 51
171.5634995733219057
  0
ARC
  5
12FF6
  8
0
 10
4036.1034631291699952
 20
132.7649704593897866
 30
0.0
 40
0.008957650247258
 50
158.3128944780104916
 51
175.7434462953330865
  0
ARC
  5
12FF7
  8
0
 10
4036.0515190209089269
 20
132.7663089665084897
 30
0.0
 40
0.0430164409448623
 50
347.044160233508876
 51
359.1026981873164914
  0
ARC
  5
12FF8
  8
0
 10
4036.0683295450271544
 20
132.7655429562456959
 30
0.0
 40
0.0266341654000587
 50
299.8466016693122924
 51
340.5282758568541226
  0
ARC
  5
12FF9
  8
0
 10
4035.9556761199200992
 20
133.0929067853898005
 30
0.0
 40
0.3723961648434487
 50
283.7972005006710106
 51
289.7614134467150961
  0
ARC
  5
12FFA
  8
0
 10
4036.0526432963429215
 20
132.703448308315501
 30
0.0
 40
0.028978842977175
 50
106.3463658520210942
 51
182.4514913914700003
  0
ARC
  5
12FFB
  8
0
 10
4036.3948087784619929
 20
132.6923538895242132
 30
0.0
 40
0.371248626830271
 50
178.4788900062324899
 51
191.2964351817878139
  0
ARC
  5
12FFC
  8
0
 10
4036.0585607745179004
 20
132.6251835364419946
 30
0.0
 40
0.0283571332549673
 50
191.2902384297283902
 51
266.4072160115911743
  0
ARC
  5
12FFD
  8
0
 10
4036.0583241976610225
 20
132.6256678070039072
 30
0.0
 40
0.0288268585183355
 50
266.9368322389257173
 51
288.492827223898189
  0
ARC
  5
12FFE
  8
0
 10
4036.0649983181119751
 20
132.6776468730672889
 30
0.0
 40
0.0394425235062684
 50
176.128909649561308
 51
181.0601597729597927
  0
ARC
  5
12FFF
  8
0
 10
4036.0271419692980999
 20
132.6802084707790073
 30
0.0
 40
0.0014996067980263
 50
155.9498134882850024
 51
176.1289096493509021
  0
ARC
  5
13000
  8
0
 10
4036.0268757029939479
 20
132.6798301178201882
 30
0.0
 40
0.0014819119702733
 50
120.9493240135817018
 51
138.1088988551771024
  0
ARC
  5
13001
  8
0
 10
4036.0198357186359317
 20
132.6787035714442027
 30
0.0
 40
0.0067200792233319
 50
11.6685265661852693
 51
20.9014584605415905
  0
ARC
  5
13002
  8
0
 10
4035.8418574194370194
 20
132.6472309916080121
 30
0.0
 40
0.1874570108961617
 50
4.4393326089396892
 51
10.0869576756492094
  0
ARC
  5
13003
  8
0
 10
4035.7530979124189798
 20
132.6334503669710045
 30
0.0
 40
0.2771020438859325
 50
0.3677047987054152
 51
5.8597633910140221
  0
ARC
  5
13004
  8
0
 10
4036.019863806741796
 20
132.6355861937443024
 30
0.0
 40
0.0103366269637038
 50
350.3601228860173933
 51
358.0180291271383908
  0
ARC
  5
13005
  8
0
 10
4036.0285869328617991
 20
132.6341420877176915
 30
0.0
 40
0.0014953092719459
 50
335.6537565823416003
 51
348.941644759084113
  0
ARC
  5
13006
  8
0
 10
4036.029858207018151
 20
132.633559534709093
 30
0.0
 40
0.0000971599187604
 50
273.5750156208126214
 51
339.5869537988239131
  0
ARC
  5
13007
  8
0
 10
4036.0299097606271062
 20
132.6336845076070006
 30
0.0
 40
0.0002265586823141
 50
196.813722440727588
 51
258.4156902888090031
  0
ARC
  5
13008
  8
0
 10
4036.1726304183189313
 20
132.663422329435889
 30
0.0
 40
0.1460115674751647
 50
183.4621048643030008
 51
191.7777792117205138
  0
ARC
  5
13009
  8
0
 10
4036.3168018683759328
 20
132.6829879898108118
 30
0.0
 40
0.2913025890373231
 50
181.1941590467476999
 51
185.5914838987280007
  0
ARC
  5
1300A
  8
0
 10
4036.0698206469601246
 20
132.6072583658595079
 30
0.0
 40
0.0006434877457007
 50
122.6447254407749057
 51
166.856718839808309
  0
ARC
  5
1300B
  8
0
 10
4036.0695182680660764
 20
132.6074780832427962
 30
0.0
 40
0.0003252113269768
 50
33.858028453918088
 51
97.9067674397063286
  0
ARC
  5
1300C
  8
0
 10
4036.0001280556739403
 20
132.5825269829076092
 30
0.0
 40
0.0740552883623963
 50
7.0869687085394206
 51
19.8386144658117409
  0
ARC
  5
1300D
  8
0
 10
4035.8453787933390231
 20
132.5549514818816874
 30
0.0
 40
0.2311724824578564
 50
3.3919607465613191
 51
9.1377377251714726
  0
ARC
  5
1300E
  8
0
 10
4036.0318612230721556
 20
132.5657063476039923
 30
0.0
 40
0.0443814150313929
 50
354.9956121818794941
 51
3.7759703034840051
  0
ARC
  5
1300F
  8
0
 10
4036.0706681155261322
 20
132.5625488272272889
 30
0.0
 40
0.005452289153097
 50
341.1765864764511207
 51
352.4756831578793026
  0
ARC
  5
13010
  8
0
 10
4036.0753885064950737
 20
132.5610479022845141
 30
0.0
 40
0.0005104546400506
 50
281.89248471321838
 51
329.6048728984337117
  0
ARC
  5
13011
  8
0
 10
4036.0756104184920332
 20
132.5610195305742138
 30
0.0
 40
0.0004853696444703
 50
213.952561206256604
 51
256.0853788462708849
  0
ARC
  5
13012
  8
0
 10
4036.1911424116037779
 20
132.5970769416645965
 30
0.0
 40
0.1214931792174521
 50
185.5465479255801995
 51
197.3985551915428118
  0
ARC
  5
13013
  8
0
 10
4036.2389320883789878
 20
132.6069915829683055
 30
0.0
 40
0.1700984105324847
 50
180.9736226151179892
 51
187.3149433322485038
  0
ARC
  5
13014
  8
0
 10
4036.0830664602640354
 20
132.6043258306985138
 30
0.0
 40
0.0142099989970371
 50
167.4865805433475998
 51
180.9055504166057062
  0
ARC
  5
13015
  8
0
 10
4036.0474918359941512
 20
132.7004223110153021
 30
0.0
 40
0.0394425235062684
 50
176.128909649561308
 51
181.0601597729597927
  0
ARC
  5
13016
  8
0
 10
4036.0096354871811855
 20
132.702983908726992
 30
0.0
 40
0.0014996067980263
 50
155.9498134882850024
 51
176.1289096493509021
  0
ARC
  5
13017
  8
0
 10
4036.0093692208770335
 20
132.7026055557682866
 30
0.0
 40
0.0014819119702733
 50
120.9493240135817018
 51
138.1088988551771024
  0
ARC
  5
13018
  8
0
 10
4036.0023292365199268
 20
132.7014790093921874
 30
0.0
 40
0.0067200792233319
 50
11.6685265661852693
 51
20.9014584605415905
  0
ARC
  5
13019
  8
0
 10
4035.824350937320105
 20
132.6700064295559969
 30
0.0
 40
0.1874570108961617
 50
4.4393326089396892
 51
10.0869576756492094
  0
ARC
  5
1301A
  8
0
 10
4035.7355914303020654
 20
132.6562258049189893
 30
0.0
 40
0.2771020438859325
 50
0.3677047987054152
 51
5.8597633910140221
  0
ARC
  5
1301B
  8
0
 10
4036.0023573246248816
 20
132.6583616316924008
 30
0.0
 40
0.0103366269637038
 50
350.3601228860173933
 51
358.0180291271383908
  0
ARC
  5
1301C
  8
0
 10
4036.0110804507448847
 20
132.6569175256657047
 30
0.0
 40
0.0014953092719459
 50
335.6537565823416003
 51
348.941644759084113
  0
ARC
  5
1301D
  8
0
 10
4036.0123517249021461
 20
132.6563349726571062
 30
0.0
 40
0.0000971599187604
 50
273.5750156208126214
 51
339.5869537988239131
  0
ARC
  5
1301E
  8
0
 10
4036.0124032785111012
 20
132.6564599455550137
 30
0.0
 40
0.0002265586823141
 50
196.813722440727588
 51
258.4156902888090031
  0
ARC
  5
1301F
  8
0
 10
4036.1551239362029264
 20
132.6861977673839874
 30
0.0
 40
0.1460115674751647
 50
183.4621048643030008
 51
191.7777792117205138
  0
ARC
  5
13020
  8
0
 10
4036.2992953862590184
 20
132.7057634277587965
 30
0.0
 40
0.2913025890373231
 50
181.1941590467476999
 51
185.5914838987280007
  0
ARC
  5
13021
  8
0
 10
4036.0690212860590691
 20
132.4211497968562128
 30
0.0
 40
0.029232022283842
 50
286.8942669051111807
 51
0.1227256257819777
  0
ARC
  5
13022
  8
0
 10
4036.2406817778569348
 20
131.7005953363238859
 30
0.0
 40
0.7115445102019275
 50
103.2565517368971939
 51
105.9631431246278055
  0
ARC
  5
13023
  8
0
 10
4036.0522627505679338
 20
132.3581138756100017
 30
0.0
 40
0.0275637642161204
 50
105.2910744865334038
 51
182.5905122762960957
  0
LINE
  5
13024
  8
0
 10
4036.0247271546490992
 20
132.3568680605588099
 30
0.0
 11
4036.0288714463381439
 21
132.2759819746293886
 31
0.0
  0
ARC
  5
13025
  8
0
 10
4036.055671937932857
 20
132.2770781142122019
 30
0.0
 40
0.0268228982731179
 50
182.3420908885738072
 51
222.9610874145776052
  0
LINE
  5
13026
  8
0
 10
4036.1077211917281602
 20
132.3614029979146949
 30
0.0
 11
4036.1038741025431591
 21
132.4084039467614105
 31
0.0
  0
ARC
  5
13027
  8
0
 10
4036.0971721003179482
 20
132.4075308560157964
 30
0.0
 40
0.0067586330911885
 50
7.4223001951838841
 51
18.4344820101500311
  0
ARC
  5
13028
  8
0
 10
4036.1034662049710278
 20
132.4096224657675123
 30
0.0
 40
0.0001262406443196
 50
21.1774789287025698
 51
130.372522686403812
  0
ARC
  5
13029
  8
0
 10
4036.1071065130918214
 20
132.4086165125573018
 30
0.0
 40
0.0038818265117665
 50
163.5056767541506986
 51
175.1068054563702105
  0
ARC
  5
1302A
  8
0
 10
4036.214887322505092
 20
132.4013893920798068
 30
0.0
 40
0.1119040297063099
 50
176.1271734988015112
 51
178.6835878343468096
  0
ARC
  5
1302B
  8
0
 10
4036.0756775107188332
 20
132.4083363518228964
 30
0.0
 40
0.0276833864938626
 50
328.6749030353540206
 51
350.9046979854165897
  0
ARC
  5
1302C
  8
0
 10
4036.0761688808747749
 20
132.4075651801603044
 30
0.0
 40
0.0268657430330035
 50
284.6976877129455943
 51
329.5350388549549052
  0
ARC
  5
1302D
  8
0
 10
4037.2112043498727871
 20
128.157957996343896
 30
0.0
 40
4.3717100622661018
 50
104.9557350501433035
 51
105.3921152649848949
  0
ARC
  5
1302E
  8
0
 10
4036.0583053144900987
 20
132.3460296871884054
 30
0.0
 40
0.0278500279697462
 50
105.5271109148535942
 51
177.1571307450263077
  0
ARC
  5
1302F
  8
0
 10
4037.7882147972618441
 20
132.3997309826029039
 30
0.0
 40
1.7585037358680209
 50
181.7049486228968931
 51
184.3445929340896896
  0
ARC
  5
13030
  8
0
 10
4036.0902907256149774
 20
132.2717485113539055
 30
0.0
 40
0.0557725699795989
 50
185.3834662158936055
 51
193.4264731544400888
  0
ARC
  5
13031
  8
0
 10
4036.0624483215310647
 20
132.2651599062116077
 30
0.0
 40
0.0271613370348496
 50
193.5454516759369028
 51
258.2000784817435033
  0
ARC
  5
13032
  8
0
 10
4036.1211294259069291
 20
132.2487658301322995
 30
0.0
 40
0.0288497653745199
 50
105.6914890596218015
 51
178.1115044420010918
  0
ARC
  5
13033
  8
0
 10
4036.4309977429579703
 20
132.2471474754732981
 30
0.0
 40
0.3387121559742853
 50
179.5654153832003885
 51
193.1563033385237134
  0
ARC
  5
13034
  8
0
 10
4036.1370088496400967
 20
132.1767909486665076
 30
0.0
 40
0.0364608544415268
 50
190.6482032389590131
 51
229.2699959636628932
  0
ARC
  5
13035
  8
0
 10
4036.1307621122241471
 20
132.1714698873840916
 30
0.0
 40
0.028380687819503
 50
231.8181240852267138
 51
284.8565786313203034
  0
LINE
  5
13036
  8
0
 10
4036.1380380231221352
 20
132.1440375194599142
 30
0.0
 11
4036.1501877739760857
 21
132.1473574956247035
 31
0.0
  0
ARC
  5
13037
  8
0
 10
4036.1572063152880219
 20
132.1216725135438992
 30
0.0
 40
0.0266266450502977
 50
37.5159109503675481
 51
105.2832406027916932
  0
ARC
  5
13038
  8
0
 10
4036.2874529468931541
 20
132.1686492847350962
 30
0.0
 40
0.1133796081179487
 50
195.7425544469485033
 51
198.1498060749526076
  0
ARC
  5
13039
  8
0
 10
4036.2122405192631049
 20
132.1428897211764024
 30
0.0
 40
0.0339014157958176
 50
196.3765725485158953
 51
211.2175632035194042
  0
ARC
  5
1303A
  8
0
 10
4036.1854674372530098
 20
132.1266256372313137
 30
0.0
 40
0.0025756425444233
 50
210.4849187224718889
 51
253.8279429973657102
  0
ARC
  5
1303B
  8
0
 10
4036.1847676853640223
 20
132.1253993655145109
 30
0.0
 40
0.001247576188695
 50
269.190618962114911
 51
328.812970827970787
  0
ARC
  5
1303C
  8
0
 10
4036.0805102273961893
 20
132.1464927446787101
 30
0.0
 40
0.107544884951919
 50
348.3377124047714801
 51
6.0127124339931148
  0
ARC
  5
1303D
  8
0
 10
4035.3725983525678203
 20
132.1067380508499127
 30
0.0
 40
0.816460775516502
 50
3.5826978315825388
 51
8.0910290992073932
  0
ARC
  5
1303E
  8
0
 10
4035.3617714652677932
 20
132.1141541459905113
 30
0.0
 40
0.8261836757836341
 50
7.47615273600272
 51
12.8780246830847194
  0
ARC
  5
1303F
  8
0
 10
4036.0746237767689308
 20
132.2766974772582103
 30
0.0
 40
0.095035813160708
 50
13.1330485414495399
 51
21.3607417057102111
  0
ARC
  5
13040
  8
0
 10
4036.1548071271158733
 20
132.3080534893254878
 30
0.0
 40
0.0089395356118636
 50
21.3854406291038792
 51
41.2046538343348985
  0
ARC
  5
13041
  8
0
 10
4036.1608961576521324
 20
132.3133947650028972
 30
0.0
 40
0.0008398483887376
 50
40.6986261386485424
 51
158.9938394680009992
  0
ARC
  5
13042
  8
0
 10
4036.1769007782299923
 20
132.3070419272756055
 30
0.0
 40
0.0180591598114464
 50
158.3799457579860928
 51
178.7430848954356861
  0
ARC
  5
13043
  8
0
 10
4036.1306305115090254
 20
132.306640004178405
 30
0.0
 40
0.0282267363066946
 50
342.3827863226189834
 51
1.620151936368998
  0
ARC
  5
13044
  8
0
 10
4036.1331480526619089
 20
132.310160070446301
 30
0.0
 40
0.0272059380440405
 50
285.465187832601373
 51
333.6790974168143862
  0
ARC
  5
13045
  8
0
 10
4273.2241877530941565
 20
-735.3725256995390964
 30
0.0
 40
899.4645419614304274
 50
105.2827861313619024
 51
105.2845739686639064
  0
ARC
  5
13046
  8
0
 10
4034.3623152550121631
 20
132.1378346235721892
 30
0.0
 40
1.7783458119335489
 50
4.6628843852546531
 51
7.4787718256218918
  0
ARC
  5
13047
  8
0
 10
4035.9615486462048466
 20
132.3477749349370924
 30
0.0
 40
0.1653912639559042
 50
7.4787718256227
 51
12.9990261706230292
  0
ARC
  5
13048
  8
0
 10
4036.1137828867949793
 20
132.3829182533351059
 30
0.0
 40
0.0091532505396114
 50
12.9990261705833596
 51
24.6434509646901709
  0
ARC
  5
13049
  8
0
 10
4036.1201476243891193
 20
132.3858380982842107
 30
0.0
 40
0.0021507239121424
 50
24.643450964609741
 51
45.4091007430876417
  0
ARC
  5
1304A
  8
0
 10
4036.1214991075348735
 20
132.3872090201539891
 30
0.0
 40
0.0002256437925675
 50
45.4091007431981808
 51
171.5634995733219057
  0
ARC
  5
1304B
  8
0
 10
4036.129599495200182
 20
132.3839319360982927
 30
0.0
 40
0.008957650247258
 50
158.3128944780104916
 51
175.7434462953330865
  0
ARC
  5
1304C
  8
0
 10
4036.0776553869391137
 20
132.3852704432169958
 30
0.0
 40
0.0430164409448623
 50
347.044160233508876
 51
359.1026981873164914
  0
ARC
  5
1304D
  8
0
 10
4036.0944659110568864
 20
132.384504432954202
 30
0.0
 40
0.0266341654000587
 50
299.8466016693122924
 51
340.5282758568541226
  0
ARC
  5
1304E
  8
0
 10
4035.9818124859498312
 20
132.7118682620983066
 30
0.0
 40
0.3723961648434487
 50
283.7972005006710106
 51
289.7614134467150961
  0
ARC
  5
1304F
  8
0
 10
4036.0787796623731083
 20
132.3224097850240071
 30
0.0
 40
0.028978842977175
 50
106.3463658520210942
 51
182.4514913914700003
  0
ARC
  5
13050
  8
0
 10
4036.4209451444921797
 20
132.3113153662326908
 30
0.0
 40
0.371248626830271
 50
178.4788900062324899
 51
191.2964351817878139
  0
ARC
  5
13051
  8
0
 10
4036.0846971405471777
 20
132.2441450131505007
 30
0.0
 40
0.0283571332549673
 50
191.2902384297283902
 51
266.4072160115911743
  0
ARC
  5
13052
  8
0
 10
4036.084460563689845
 20
132.2446292837124133
 30
0.0
 40
0.0288268585183355
 50
266.9368322389257173
 51
288.492827223898189
  0
ARC
  5
13053
  8
0
 10
4036.0911346841407976
 20
132.296608349775795
 30
0.0
 40
0.0394425235062684
 50
176.128909649561308
 51
181.0601597729597927
  0
ARC
  5
13054
  8
0
 10
4036.0532783353269224
 20
132.2991699474875134
 30
0.0
 40
0.0014996067980263
 50
155.9498134882850024
 51
176.1289096493509021
  0
ARC
  5
13055
  8
0
 10
4036.0530120690232252
 20
132.2987915945286943
 30
0.0
 40
0.0014819119702733
 50
120.9493240135817018
 51
138.1088988551771024
  0
ARC
  5
13056
  8
0
 10
4036.045972084667028
 20
132.2976650481527088
 30
0.0
 40
0.0067200792233319
 50
11.6685265661852693
 51
20.9014584605415905
  0
ARC
  5
13057
  8
0
 10
4035.8679937854658419
 20
132.2661924683164898
 30
0.0
 40
0.1874570108961617
 50
4.4393326089396892
 51
10.0869576756492094
  0
ARC
  5
13058
  8
0
 10
4035.7792342784491666
 20
132.2524118436795106
 30
0.0
 40
0.2771020438859325
 50
0.3677047987054152
 51
5.8597633910140221
  0
ARC
  5
13059
  8
0
 10
4036.0460001727701638
 20
132.2545476704528937
 30
0.0
 40
0.0103366269637038
 50
350.3601228860173933
 51
358.0180291271383908
  0
ARC
  5
1305A
  8
0
 10
4036.0547232988910764
 20
132.2531035644261124
 30
0.0
 40
0.0014953092719459
 50
335.6537565823416003
 51
348.941644759084113
  0
ARC
  5
1305B
  8
0
 10
4036.055994573047883
 20
132.2525210114175991
 30
0.0
 40
0.0000971599187604
 50
273.5750156208126214
 51
339.5869537988239131
  0
ARC
  5
1305C
  8
0
 10
4036.0560461266559287
 20
132.2526459843155067
 30
0.0
 40
0.0002265586823141
 50
196.813722440727588
 51
258.4156902888090031
  0
ARC
  5
1305D
  8
0
 10
4036.1987667843491181
 20
132.2823838061443951
 30
0.0
 40
0.1460115674751647
 50
183.4621048643030008
 51
191.7777792117205138
  0
ARC
  5
1305E
  8
0
 10
4036.3429382344061196
 20
132.3019494665192894
 30
0.0
 40
0.2913025890373231
 50
181.1941590467476999
 51
185.5914838987280007
  0
ARC
  5
1305F
  8
0
 10
4036.0959570129898566
 20
132.226219842568014
 30
0.0
 40
0.0006434877457007
 50
122.6447254407749057
 51
166.856718839808309
  0
ARC
  5
13060
  8
0
 10
4036.0956546340939894
 20
132.2264395599513023
 30
0.0
 40
0.0003252113269768
 50
33.858028453918088
 51
97.9067674397063286
  0
ARC
  5
13061
  8
0
 10
4036.0262644217050365
 20
132.2014884596160869
 30
0.0
 40
0.0740552883623963
 50
7.0869687085394206
 51
19.8386144658117409
  0
ARC
  5
13062
  8
0
 10
4035.8715151593678456
 20
132.1739129585903072
 30
0.0
 40
0.2311724824578564
 50
3.3919607465613191
 51
9.1377377251714726
  0
ARC
  5
13063
  8
0
 10
4036.0579975891018876
 20
132.1846678243124984
 30
0.0
 40
0.0443814150313929
 50
354.9956121818794941
 51
3.7759703034840051
  0
ARC
  5
13064
  8
0
 10
4036.0968044815549547
 20
132.181510303935795
 30
0.0
 40
0.005452289153097
 50
341.1765864764511207
 51
352.4756831578793026
  0
ARC
  5
13065
  8
0
 10
4036.1015248725248057
 20
132.1800093789929917
 30
0.0
 40
0.0005104546400506
 50
281.89248471321838
 51
329.6048728984337117
  0
ARC
  5
13066
  8
0
 10
4036.1017467845199462
 20
132.1799810072826915
 30
0.0
 40
0.0004853696444703
 50
213.952561206256604
 51
256.0853788462708849
  0
ARC
  5
13067
  8
0
 10
4036.2172787776339646
 20
132.2160384183731026
 30
0.0
 40
0.1214931792174521
 50
185.5465479255801995
 51
197.3985551915428118
  0
ARC
  5
13068
  8
0
 10
4036.2650684544100841
 20
132.2259530596768116
 30
0.0
 40
0.1700984105324847
 50
180.9736226151179892
 51
187.3149433322485038
  0
ARC
  5
13069
  8
0
 10
4036.1092028262951317
 20
132.2232873074071051
 30
0.0
 40
0.0142099989970371
 50
167.4865805433475998
 51
180.9055504166057062
  0
ARC
  5
1306A
  8
0
 10
4036.0736282020238832
 20
132.3193837877238934
 30
0.0
 40
0.0394425235062684
 50
176.128909649561308
 51
181.0601597729597927
  0
ARC
  5
1306B
  8
0
 10
4036.035771853210008
 20
132.3219453854354981
 30
0.0
 40
0.0014996067980263
 50
155.9498134882850024
 51
176.1289096493509021
  0
ARC
  5
1306C
  8
0
 10
4036.0355055869072203
 20
132.3215670324767927
 30
0.0
 40
0.0014819119702733
 50
120.9493240135817018
 51
138.1088988551771024
  0
ARC
  5
1306D
  8
0
 10
4036.0284656025501135
 20
132.3204404861008072
 30
0.0
 40
0.0067200792233319
 50
11.6685265661852693
 51
20.9014584605415905
  0
ARC
  5
1306E
  8
0
 10
4035.850487303349837
 20
132.288967906264503
 30
0.0
 40
0.1874570108961617
 50
4.4393326089396892
 51
10.0869576756492094
  0
ARC
  5
1306F
  8
0
 10
4035.7617277963331617
 20
132.2751872816276091
 30
0.0
 40
0.2771020438859325
 50
0.3677047987054152
 51
5.8597633910140221
  0
ARC
  5
13070
  8
0
 10
4036.0284936906541589
 20
132.2773231084009069
 30
0.0
 40
0.0103366269637038
 50
350.3601228860173933
 51
358.0180291271383908
  0
ARC
  5
13071
  8
0
 10
4036.0372168167750715
 20
132.2758790023742108
 30
0.0
 40
0.0014953092719459
 50
335.6537565823416003
 51
348.941644759084113
  0
ARC
  5
13072
  8
0
 10
4036.0384880909309686
 20
132.2752964493656123
 30
0.0
 40
0.0000971599187604
 50
273.5750156208126214
 51
339.5869537988239131
  0
ARC
  5
13073
  8
0
 10
4036.0385396445399238
 20
132.2754214222634914
 30
0.0
 40
0.0002265586823141
 50
196.813722440727588
 51
258.4156902888090031
  0
ARC
  5
13074
  8
0
 10
4036.1812603022331132
 20
132.3051592440924935
 30
0.0
 40
0.1460115674751647
 50
183.4621048643030008
 51
191.7777792117205138
  0
ARC
  5
13075
  8
0
 10
4036.3254317522892052
 20
132.3247249044673026
 30
0.0
 40
0.2913025890373231
 50
181.1941590467476999
 51
185.5914838987280007
  0
ARC
  5
13076
  8
0
 10
4042.8332713489821799
 20
133.0330837249302078
 30
0.0
 40
6.7648716053416909
 50
184.2637473010647966
 51
185.2639071656267902
  0
ARC
  5
13077
  8
0
 10
4036.1923459199738318
 20
132.2770842694602891
 30
0.0
 40
0.0291738746702902
 50
108.373047936565797
 51
145.6910703585745921
  0
ARC
  5
13078
  8
0
 10
4036.2614034248617827
 20
132.0691632489863991
 30
0.0
 40
0.2482631024662955
 50
102.4530395154468039
 51
108.373047936565797
  0
ARC
  5
13079
  8
0
 10
4036.202941800501776
 20
132.3338932299452892
 30
0.0
 40
0.022845223376235
 50
282.453039515472824
 51
335.9206704521843108
  0
ARC
  5
1307A
  8
0
 10
4036.2864780613440416
 20
132.3261295578305123
 30
0.0
 40
0.0626983368343306
 50
167.0027949815855948
 51
181.4231704135503946
  0
ARC
  5
1307B
  8
0
 10
4036.2305982761740779
 20
132.3391125983399093
 30
0.0
 40
0.0053308463892255
 50
125.181525745549493
 51
167.8934930570505912
  0
ARC
  5
1307C
  8
0
 10
4036.2281023744549202
 20
132.3403851412294898
 30
0.0
 40
0.0031377618615895
 50
47.7796185169460088
 51
100.5697238597144008
  0
ARC
  5
1307D
  8
0
 10
4036.1708397997681459
 20
132.2994402875474975
 30
0.0
 40
0.0734649367630501
 50
16.1938396776038402
 51
36.0838811811914297
  0
ARC
  5
1307E
  8
0
 10
4035.7418303481581461
 20
132.155041155215514
 30
0.0
 40
0.526068140103591
 50
10.8170269382182305
 51
18.2662981742672486
  0
ARC
  5
1307F
  8
0
 10
4035.8275145600950964
 20
132.1626741762175072
 30
0.0
 40
0.440557512719505
 50
1.864432058799901
 51
11.9333725109697095
  0
ARC
  5
13080
  8
0
 10
4036.2030386340338737
 20
132.175451318023903
 30
0.0
 40
0.0648188955787125
 50
346.6543476312974121
 51
1.375785065046442
  0
ARC
  5
13081
  8
0
 10
4036.2586651993970008
 20
132.1623190053925896
 30
0.0
 40
0.0076634973174546
 50
313.0479136216592906
 51
346.1883480866484888
  0
ARC
  5
13082
  8
0
 10
4036.2624658277350136
 20
132.1591551399282025
 30
0.0
 40
0.0028254115555499
 50
233.9585503346700079
 51
300.4187108111490261
  0
ARC
  5
13083
  8
0
 10
4036.2883496773770275
 20
132.183265106779686
 30
0.0
 40
0.0381506041815214
 50
195.7197633635051091
 51
223.7768879820052064
  0
ARC
  5
13084
  8
0
 10
4036.2353367653440728
 20
132.1537534077889973
 30
0.0
 40
0.0251602153283253
 50
49.6527070974375491
 51
105.360310103533493
  0
ARC
  5
13085
  8
0
 10
3919.2602295531510208
 20
560.1901322006581267
 30
0.0
 40
443.7070983560216746
 50
285.2827369407360152
 51
285.2847518681302859
  0
ARC
  5
13086
  8
0
 10
4036.2062439394580906
 20
132.2020894846480985
 30
0.0
 40
0.0291368991544848
 50
225.1137941897586074
 51
284.6642983724302098
  0
ARC
  5
13087
  8
0
 10
4032.5357547294847791
 20
131.588528691545406
 30
0.0
 40
3.631948312938861
 50
6.9551605220167652
 51
8.7921745478684965
  0
ARC
  5
13088
  8
0
 10
4036.1059433188552248
 20
132.0801506451454941
 30
0.0
 40
0.028301141284894
 50
285.8458662698915873
 51
0.4844581032761618
  0
ARC
  5
13089
  8
0
 10
4036.3962595385241912
 20
131.0573208329057024
 30
0.0
 40
1.0349318210567191
 50
105.845866269891502
 51
107.3931575358391939
  0
ARC
  5
1308A
  8
0
 10
4036.0955100564469831
 20
132.0174153875792911
 30
0.0
 40
0.0288345072325328
 50
107.3931575358388955
 51
185.2257521848775923
  0
ARC
  5
1308B
  8
0
 10
4045.1380820851090903
 20
133.2854159340793956
 30
0.0
 40
9.1598435914773333
 50
187.9736162686143075
 51
188.4768404272336113
  0
ARC
  5
1308C
  8
0
 10
4036.1073728990731979
 20
131.9409354325273114
 30
0.0
 40
0.0296348326117682
 50
191.2247045109656938
 51
220.4501893378624118
  0
ARC
  5
1308D
  8
0
 10
4036.1197242614871357
 20
132.0419573799584896
 30
0.0
 40
0.0246989457506973
 50
348.9581677411820237
 51
8.1101637730121432
  0
ARC
  5
1308E
  8
0
 10
4036.1088343183128018
 20
132.0440824229283976
 30
0.0
 40
0.0357942902679416
 50
333.8918649409160935
 51
348.9581677411820237
  0
ARC
  5
1308F
  8
0
 10
4036.1187404969850832
 20
132.0392276918771017
 30
0.0
 40
0.0247624821901303
 50
282.6346306940752129
 51
333.8918649409146155
  0
ARC
  5
13090
  8
0
 10
4036.1893018047808255
 20
131.7244483648196933
 30
0.0
 40
0.2978284707217929
 50
102.6346306940751987
 51
107.9318508576678965
  0
ARC
  5
13091
  8
0
 10
4036.1067235833238556
 20
131.9796303583032966
 30
0.0
 40
0.0296177094585767
 50
107.931850857668195
 51
187.7288475639327885
  0
ARC
  5
13092
  8
0
 10
4037.033346397789046
 20
132.0801452522264867
 30
0.0
 40
0.9616658887697479
 50
186.2382811526362048
 51
190.7007518940322086
  0
ARC
  5
13093
  8
0
 10
4036.1191775933148165
 20
131.9065735255958884
 30
0.0
 40
0.031175986847225
 50
189.2101854827328964
 51
278.9611805725828049
  0
ARC
  5
13094
  8
0
 10
4034.7802065375549319
 20
136.8345156231320061
 30
0.0
 40
5.1376015458044062
 50
285.1630646477206028
 51
285.3233017411458832
  0
ARC
  5
13095
  8
0
 10
4036.1452805963099308
 20
131.8508430702491978
 30
0.0
 40
0.029646942633321
 50
82.4438460056588553
 51
104.4225862845905937
  0
ARC
  5
13096
  8
0
 10
4035.9967815826489641
 20
131.9989838955972061
 30
0.0
 40
0.1545429009223032
 50
8.7723843434523072
 51
17.4945529189458711
  0
ARC
  5
13097
  8
0
 10
4033.4538901146161152
 20
131.5435780174061904
 30
0.0
 40
2.7378494399415412
 50
7.4123110759925481
 51
10.0755014568215397
  0
ARC
  5
13098
  8
0
 10
4036.4692795271348587
 20
131.777474947454607
 30
0.0
 40
0.1922855691271689
 50
182.1521797525531952
 51
192.9275629575481901
  0
ARC
  5
13099
  8
0
 10
4036.3269756093031901
 20
131.7721271236609937
 30
0.0
 40
0.0498812003389055
 50
155.6626758449712042
 51
182.1521797525531952
  0
ARC
  5
1309A
  8
0
 10
4036.3035294915371196
 20
131.782731844434096
 30
0.0
 40
0.0241483314551546
 50
121.4815323590894991
 51
155.6626758449808108
  0
ARC
  5
1309B
  8
0
 10
4036.3163226402170949
 20
131.761840211085314
 30
0.0
 40
0.0486457802437724
 50
109.7475163074767011
 51
121.4815323590903944
  0
ARC
  5
1309C
  8
0
 10
4036.349478647478918
 20
131.6694804935445973
 30
0.0
 40
0.1467765004171282
 50
100.8194762637463953
 51
109.7475163074767011
  0
ARC
  5
1309D
  8
0
 10
4036.3181753605708764
 20
131.8332755550052013
 30
0.0
 40
0.0199829608741169
 50
280.8194762637203894
 51
330.1637972728073009
  0
ARC
  5
1309E
  8
0
 10
4036.4548742444831078
 20
131.8200990539014867
 30
0.0
 40
0.1194084558152676
 50
171.1711567126232012
 51
178.4477825920685063
  0
ARC
  5
1309F
  8
0
 10
4036.3510900668497925
 20
131.8366786275448987
 30
0.0
 40
0.0143165041127299
 50
141.7270586707851976
 51
172.9883574841011011
  0
ARC
  5
130A0
  8
0
 10
4036.3425040536239976
 20
131.8421113225253976
 30
0.0
 40
0.0043405503251361
 50
59.366038380461319
 51
127.6844226525806931
  0
ARC
  5
130A1
  8
0
 10
4036.3087857784921653
 20
131.8081298142253104
 30
0.0
 40
0.052091114837575
 50
21.2846969014708804
 51
46.3894303673563471
  0
ARC
  5
130A2
  8
0
 10
4036.0074040272138518
 20
131.6771452504470119
 30
0.0
 40
0.3806729476758447
 50
12.3476183260791501
 51
23.1886579360618299
  0
ARC
  5
130A3
  8
0
 10
4036.0246857836450545
 20
131.6721969129602883
 30
0.0
 40
0.3649488006910679
 50
2.1950694656396341
 51
13.6868354331101294
  0
ARC
  5
130A4
  8
0
 10
4036.3219499463230022
 20
131.6834627840557062
 30
0.0
 40
0.0674713840168294
 50
345.016426625959582
 51
2.3038957954280379
  0
ARC
  5
130A5
  8
0
 10
4036.3784065586519318
 20
131.6684657665248039
 30
0.0
 40
0.0090575960197609
 50
309.2931602504041848
 51
344.3250559031636726
  0
ARC
  5
130A6
  8
0
 10
4036.382005434481016
 20
131.6649531043389061
 30
0.0
 40
0.0040984991075019
 50
233.5596661489007033
 51
301.4301075850315215
  0
ARC
  5
130A7
  8
0
 10
4036.4022811120389633
 20
131.6904722212491095
 30
0.0
 40
0.036689599220375
 50
197.7335674825316119
 51
231.7583173738991889
  0
ARC
  5
130A8
  8
0
 10
4036.3552221486947928
 20
131.6588852769401115
 30
0.0
 40
0.0237350483182645
 50
59.3141040720416584
 51
105.255025198710797
  0
ARC
  5
130A9
  8
0
 10
4035.6891025811128202
 20
134.0787377277002008
 30
0.0
 40
2.4861258042780312
 50
284.9571438135603216
 51
285.3920778303066754
  0
ARC
  5
130AA
  8
0
 10
4036.3247620897618617
 20
131.7088900762066999
 30
0.0
 40
0.0326030932808341
 50
203.149910152332609
 51
280.6061189375431013
  0
ARC
  5
130AB
  8
0
 10
4036.4395774841509592
 20
131.766161550337813
 30
0.0
 40
0.1608650286045817
 50
191.3667151304377114
 51
205.8298851902783042
  0
ARC
  5
130AC
  8
0
 10
4036.2863610972271999
 20
131.7552979434217093
 30
0.0
 40
0.0039828946248846
 50
142.8246920528447106
 51
177.2103020450865927
  0
ARC
  5
130AD
  8
0
 10
4036.2839076951881907
 20
131.7569928713026002
 30
0.0
 40
0.0010125160164757
 50
42.219349346639369
 51
135.3349509105742925
  0
ARC
  5
130AE
  8
0
 10
4036.2716450883399375
 20
131.7458333458667994
 30
0.0
 40
0.0175928206111857
 50
19.4263451415530888
 51
42.2987589215684565
  0
ARC
  5
130AF
  8
0
 10
4036.194380723823997
 20
131.7146037006255028
 30
0.0
 40
0.1009151772433139
 50
11.8562942189722094
 51
21.5582205636848308
  0
ARC
  5
130B0
  8
0
 10
4036.2093959790850022
 20
131.7156395799958091
 30
0.0
 40
0.0860323639255562
 50
0.9954906099584253
 51
13.2358173168517492
  0
ARC
  5
130B1
  8
0
 10
4036.2832653439768364
 20
131.716984162007094
 30
0.0
 40
0.0121509411603088
 50
340.4000502759807887
 51
0.707883097914682
  0
ARC
  5
130B2
  8
0
 10
4036.2935094748368101
 20
131.7135131582818985
 30
0.0
 40
0.0013463643492345
 50
259.6041613160668931
 51
333.2956443711452152
  0
ARC
  5
130B3
  8
0
 10
4036.3053796599051566
 20
131.7244488553895962
 30
0.0
 40
0.0172346925866386
 50
197.2007223395056883
 51
225.3451535265454879
  0
ARC
  5
130B4
  8
0
 10
4036.3963469303421334
 20
131.7590714071097011
 30
0.0
 40
0.114538479853049
 50
188.6461206397526951
 51
200.290247558260802
  0
ARC
  5
130B5
  8
0
 10
4036.335206226444825
 20
131.7514691748480971
 30
0.0
 40
0.0529762481019842
 50
175.6451989611558133
 51
190.4585570901820972
  0
ARC
  5
130B6
  8
0
 10
4036.4719374573760433
 20
131.4574478840542895
 30
0.0
 40
0.1922855691271689
 50
182.1521797525531952
 51
192.9275629575481901
  0
ARC
  5
130B7
  8
0
 10
4036.3296335395430106
 20
131.4521000602607046
 30
0.0
 40
0.0498812003389055
 50
155.6626758449712042
 51
182.1521797525531952
  0
ARC
  5
130B8
  8
0
 10
4036.3061874217760305
 20
131.462704781033807
 30
0.0
 40
0.0241483314551546
 50
121.4815323590894991
 51
155.6626758449808108
  0
ARC
  5
130B9
  8
0
 10
4036.3189805704569153
 20
131.4418131476849965
 30
0.0
 40
0.0486457802437724
 50
109.7475163074767011
 51
121.4815323590903944
  0
ARC
  5
130BA
  8
0
 10
4036.3521365777191932
 20
131.3494534301443082
 30
0.0
 40
0.1467765004171282
 50
100.8194762637463953
 51
109.7475163074767011
  0
ARC
  5
130BB
  8
0
 10
4036.3208332908111515
 20
131.5132484916049123
 30
0.0
 40
0.0199829608741169
 50
280.8194762637203894
 51
330.1637972728073009
  0
ARC
  5
130BC
  8
0
 10
4036.4575321747229282
 20
131.5000719905011977
 30
0.0
 40
0.1194084558152676
 50
171.1711567126232012
 51
178.4477825920685063
  0
ARC
  5
130BD
  8
0
 10
4036.3537479970900677
 20
131.5166515641446097
 30
0.0
 40
0.0143165041127299
 50
141.7270586707851976
 51
172.9883574841011011
  0
ARC
  5
130BE
  8
0
 10
4036.3451619838651823
 20
131.5220842591251085
 30
0.0
 40
0.0043405503251361
 50
59.366038380461319
 51
127.6844226525806931
  0
ARC
  5
130BF
  8
0
 10
4036.3114437087319857
 20
131.4881027508249929
 30
0.0
 40
0.052091114837575
 50
21.2846969014708804
 51
46.3894303673563471
  0
ARC
  5
130C0
  8
0
 10
4036.0100619574532175
 20
131.3571181870466944
 30
0.0
 40
0.3806729476758447
 50
12.3476183260791501
 51
23.1886579360618299
  0
ARC
  5
130C1
  8
0
 10
4036.0273437138839654
 20
131.3521698495599992
 30
0.0
 40
0.3649488006910679
 50
2.1950694656396341
 51
13.6868354331101294
  0
ARC
  5
130C2
  8
0
 10
4036.3246078765619131
 20
131.3634357206553886
 30
0.0
 40
0.0674713840168294
 50
345.016426625959582
 51
2.3038957954280379
  0
ARC
  5
130C3
  8
0
 10
4036.381064488892207
 20
131.3484387031244864
 30
0.0
 40
0.0090575960197609
 50
309.2931602504041848
 51
344.3250559031636726
  0
ARC
  5
130C4
  8
0
 10
4036.3846633647199269
 20
131.3449260409385886
 30
0.0
 40
0.0040984991075019
 50
233.5596661489007033
 51
301.4301075850315215
  0
ARC
  5
130C5
  8
0
 10
4036.4049390422778743
 20
131.3704451578489056
 30
0.0
 40
0.036689599220375
 50
197.7335674825316119
 51
231.7583173738991889
  0
ARC
  5
130C6
  8
0
 10
4036.3578800789341585
 20
131.338858213539794
 30
0.0
 40
0.0237350483182645
 50
59.3141040720416584
 51
105.255025198710797
  0
ARC
  5
130C7
  8
0
 10
4035.6917605113540048
 20
133.7587106642999117
 30
0.0
 40
2.4861258042780312
 50
284.9571438135603216
 51
285.3920778303066754
  0
ARC
  5
130C8
  8
0
 10
4036.3274200200021369
 20
131.3888630128064108
 30
0.0
 40
0.0326030932808341
 50
203.149910152332609
 51
280.6061189375431013
  0
ARC
  5
130C9
  8
0
 10
4036.4422354143921439
 20
131.4461344869376092
 30
0.0
 40
0.1608650286045817
 50
191.3667151304377114
 51
205.8298851902783042
  0
ARC
  5
130CA
  8
0
 10
4036.2890190274661109
 20
131.4352708800213065
 30
0.0
 40
0.0039828946248846
 50
142.8246920528447106
 51
177.2103020450865927
  0
ARC
  5
130CB
  8
0
 10
4036.2865656254271016
 20
131.4369658079023111
 30
0.0
 40
0.0010125160164757
 50
42.219349346639369
 51
135.3349509105742925
  0
ARC
  5
130CC
  8
0
 10
4036.2743030185779389
 20
131.4258062824665103
 30
0.0
 40
0.0175928206111857
 50
19.4263451415530888
 51
42.2987589215684565
  0
ARC
  5
130CD
  8
0
 10
4036.1970386540629079
 20
131.3945766372252137
 30
0.0
 40
0.1009151772433139
 50
11.8562942189722094
 51
21.5582205636848308
  0
ARC
  5
130CE
  8
0
 10
4036.2120539093248226
 20
131.3956125165954916
 30
0.0
 40
0.0860323639255562
 50
0.9954906099584253
 51
13.2358173168517492
  0
ARC
  5
130CF
  8
0
 10
4036.2859232742180211
 20
131.3969570986066913
 30
0.0
 40
0.0121509411603088
 50
340.4000502759807887
 51
0.707883097914682
  0
ARC
  5
130D0
  8
0
 10
4036.2961674050761758
 20
131.3934860948816095
 30
0.0
 40
0.0013463643492345
 50
259.6041613160668931
 51
333.2956443711452152
  0
ARC
  5
130D1
  8
0
 10
4036.308037590144977
 20
131.4044217919893924
 30
0.0
 40
0.0172346925866386
 50
197.2007223395056883
 51
225.3451535265454879
  0
ARC
  5
130D2
  8
0
 10
4036.3990048605828633
 20
131.439044343709412
 30
0.0
 40
0.114538479853049
 50
188.6461206397526951
 51
200.290247558260802
  0
ARC
  5
130D3
  8
0
 10
4036.3378641566841907
 20
131.431442111447808
 30
0.0
 40
0.0529762481019842
 50
175.6451989611558133
 51
190.4585570901820972
  0
ARC
  5
130D4
  8
0
 10
4036.595439515581802
 20
131.2773326023738889
 30
0.0
 40
0.1922855691271689
 50
182.1521797525531952
 51
192.9275629575481901
  0
ARC
  5
130D5
  8
0
 10
4036.4531355977478597
 20
131.271984778580304
 30
0.0
 40
0.0498812003389055
 50
155.6626758449712042
 51
182.1521797525531952
  0
ARC
  5
130D6
  8
0
 10
4036.4296894799817892
 20
131.2825894993534916
 30
0.0
 40
0.0241483314551546
 50
121.4815323590894991
 51
155.6626758449808108
  0
ARC
  5
130D7
  8
0
 10
4036.4424826286631287
 20
131.2616978660047096
 30
0.0
 40
0.0486457802437724
 50
109.7475163074767011
 51
121.4815323590903944
  0
ARC
  5
130D8
  8
0
 10
4036.4756386359240423
 20
131.1693381484639929
 30
0.0
 40
0.1467765004171282
 50
100.8194762637463953
 51
109.7475163074767011
  0
ARC
  5
130D9
  8
0
 10
4036.4443353490160007
 20
131.3331332099245969
 30
0.0
 40
0.0199829608741169
 50
280.8194762637203894
 51
330.1637972728073009
  0
ARC
  5
130DA
  8
0
 10
4036.5810342329277773
 20
131.3199567088207971
 30
0.0
 40
0.1194084558152676
 50
171.1711567126232012
 51
178.4477825920685063
  0
ARC
  5
130DB
  8
0
 10
4036.4772500552949168
 20
131.3365362824642091
 30
0.0
 40
0.0143165041127299
 50
141.7270586707851976
 51
172.9883574841011011
  0
ARC
  5
130DC
  8
0
 10
4036.4686640420700314
 20
131.3419689774447932
 30
0.0
 40
0.0043405503251361
 50
59.366038380461319
 51
127.6844226525806931
  0
ARC
  5
130DD
  8
0
 10
4036.4349457669368348
 20
131.307987469144706
 30
0.0
 40
0.052091114837575
 50
21.2846969014708804
 51
46.3894303673563471
  0
ARC
  5
130DE
  8
0
 10
4036.1335640156589761
 20
131.1770029053664075
 30
0.0
 40
0.3806729476758447
 50
12.3476183260791501
 51
23.1886579360618299
  0
ARC
  5
130DF
  8
0
 10
4036.1508457720888146
 20
131.1720545678795986
 30
0.0
 40
0.3649488006910679
 50
2.1950694656396341
 51
13.6868354331101294
  0
ARC
  5
130E0
  8
0
 10
4036.4481099347672171
 20
131.1833204389751018
 30
0.0
 40
0.0674713840168294
 50
345.016426625959582
 51
2.3038957954280379
  0
ARC
  5
130E1
  8
0
 10
4036.5045665470970562
 20
131.1683234214440859
 30
0.0
 40
0.0090575960197609
 50
309.2931602504041848
 51
344.3250559031636726
  0
ARC
  5
130E2
  8
0
 10
4036.5081654229247761
 20
131.1648107592583017
 30
0.0
 40
0.0040984991075019
 50
233.5596661489007033
 51
301.4301075850315215
  0
ARC
  5
130E3
  8
0
 10
4036.5284411004831782
 20
131.1903298761685051
 30
0.0
 40
0.036689599220375
 50
197.7335674825316119
 51
231.7583173738991889
  0
ARC
  5
130E4
  8
0
 10
4036.4813821371390077
 20
131.1587429318593934
 30
0.0
 40
0.0237350483182645
 50
59.3141040720416584
 51
105.255025198710797
  0
ARC
  5
130E5
  8
0
 10
4035.815262569558854
 20
133.5785953826195964
 30
0.0
 40
2.4861258042780312
 50
284.9571438135603216
 51
285.3920778303066754
  0
ARC
  5
130E6
  8
0
 10
4036.450922078206986
 20
131.2087477311260102
 30
0.0
 40
0.0326030932808341
 50
203.149910152332609
 51
280.6061189375431013
  0
ARC
  5
130E7
  8
0
 10
4036.565737472596993
 20
131.2660192052572086
 30
0.0
 40
0.1608650286045817
 50
191.3667151304377114
 51
205.8298851902783042
  0
ARC
  5
130E8
  8
0
 10
4036.41252108567096
 20
131.2551555983409912
 30
0.0
 40
0.0039828946248846
 50
142.8246920528447106
 51
177.2103020450865927
  0
ARC
  5
130E9
  8
0
 10
4036.4100676836319508
 20
131.2568505262219958
 30
0.0
 40
0.0010125160164757
 50
42.219349346639369
 51
135.3349509105742925
  0
ARC
  5
130EA
  8
0
 10
4036.3978050767827881
 20
131.245691000786195
 30
0.0
 40
0.0175928206111857
 50
19.4263451415530888
 51
42.2987589215684565
  0
ARC
  5
130EB
  8
0
 10
4036.3205407122682118
 20
131.2144613555448984
 30
0.0
 40
0.1009151772433139
 50
11.8562942189722094
 51
21.5582205636848308
  0
ARC
  5
130EC
  8
0
 10
4036.3355559675301265
 20
131.215497234915091
 30
0.0
 40
0.0860323639255562
 50
0.9954906099584253
 51
13.2358173168517492
  0
ARC
  5
130ED
  8
0
 10
4036.4094253324228703
 20
131.2168418169264044
 30
0.0
 40
0.0121509411603088
 50
340.4000502759807887
 51
0.707883097914682
  0
ARC
  5
130EE
  8
0
 10
4036.4196694632810249
 20
131.2133708132012941
 30
0.0
 40
0.0013463643492345
 50
259.6041613160668931
 51
333.2956443711452152
  0
ARC
  5
130EF
  8
0
 10
4036.4315396483498262
 20
131.2243065103089918
 30
0.0
 40
0.0172346925866386
 50
197.2007223395056883
 51
225.3451535265454879
  0
ARC
  5
130F0
  8
0
 10
4036.5225069187881672
 20
131.2589290620290967
 30
0.0
 40
0.114538479853049
 50
188.6461206397526951
 51
200.290247558260802
  0
ARC
  5
130F1
  8
0
 10
4036.4613662148890398
 20
131.2513268297674927
 30
0.0
 40
0.0529762481019842
 50
175.6451989611558133
 51
190.4585570901820972
  0
ARC
  5
130F2
  8
0
 10
4036.487600681611184
 20
131.1563189028653937
 30
0.0
 40
0.1922855691271689
 50
182.1521797525531952
 51
192.9275629575481901
  0
ARC
  5
130F3
  8
0
 10
4036.345296763776787
 20
131.1509710790718088
 30
0.0
 40
0.0498812003389055
 50
155.6626758449712042
 51
182.1521797525531952
  0
ARC
  5
130F4
  8
0
 10
4036.3218506460111712
 20
131.1615757998449112
 30
0.0
 40
0.0241483314551546
 50
121.4815323590894991
 51
155.6626758449808108
  0
ARC
  5
130F5
  8
0
 10
4036.334643794692056
 20
131.1406841664961007
 30
0.0
 40
0.0486457802437724
 50
109.7475163074767011
 51
121.4815323590903944
  0
ARC
  5
130F6
  8
0
 10
4036.3677998019538791
 20
131.0483244489554124
 30
0.0
 40
0.1467765004171282
 50
100.8194762637463953
 51
109.7475163074767011
  0
ARC
  5
130F7
  8
0
 10
4036.3364965150458374
 20
131.2121195104159881
 30
0.0
 40
0.0199829608741169
 50
280.8194762637203894
 51
330.1637972728073009
  0
ARC
  5
130F8
  8
0
 10
4036.4731953989571593
 20
131.1989430093121882
 30
0.0
 40
0.1194084558152676
 50
171.1711567126232012
 51
178.4477825920685063
  0
ARC
  5
130F9
  8
0
 10
4036.3694112213252083
 20
131.2155225829557139
 30
0.0
 40
0.0143165041127299
 50
141.7270586707851976
 51
172.9883574841011011
  0
ARC
  5
130FA
  8
0
 10
4036.3608252080989587
 20
131.2209552779362127
 30
0.0
 40
0.0043405503251361
 50
59.366038380461319
 51
127.6844226525806931
  0
ARC
  5
130FB
  8
0
 10
4036.3271069329671263
 20
131.1869737696362108
 30
0.0
 40
0.052091114837575
 50
21.2846969014708804
 51
46.3894303673563471
  0
ARC
  5
130FC
  8
0
 10
4036.0257251816879034
 20
131.0559892058577987
 30
0.0
 40
0.3806729476758447
 50
12.3476183260791501
 51
23.1886579360618299
  0
ARC
  5
130FD
  8
0
 10
4036.0430069381191061
 20
131.0510408683709898
 30
0.0
 40
0.3649488006910679
 50
2.1950694656396341
 51
13.6868354331101294
  0
ARC
  5
130FE
  8
0
 10
4036.3402711007970538
 20
131.0623067394664929
 30
0.0
 40
0.0674713840168294
 50
345.016426625959582
 51
2.3038957954280379
  0
ARC
  5
130FF
  8
0
 10
4036.3967277131268929
 20
131.0473097219355907
 30
0.0
 40
0.0090575960197609
 50
309.2931602504041848
 51
344.3250559031636726
  0
ARC
  5
13100
  8
0
 10
4036.4003265889550676
 20
131.0437970597496928
 30
0.0
 40
0.0040984991075019
 50
233.5596661489007033
 51
301.4301075850315215
  0
ARC
  5
13101
  8
0
 10
4036.4206022665130149
 20
131.0693161766598962
 30
0.0
 40
0.036689599220375
 50
197.7335674825316119
 51
231.7583173738991889
  0
ARC
  5
13102
  8
0
 10
4036.3735433031688444
 20
131.0377292323508982
 30
0.0
 40
0.0237350483182645
 50
59.3141040720416584
 51
105.255025198710797
  0
ARC
  5
13103
  8
0
 10
4035.7074237355891455
 20
133.4575816831109876
 30
0.0
 40
2.4861258042780312
 50
284.9571438135603216
 51
285.3920778303066754
  0
ARC
  5
13104
  8
0
 10
4036.3430832442359133
 20
131.0877340316174866
 30
0.0
 40
0.0326030932808341
 50
203.149910152332609
 51
280.6061189375431013
  0
ARC
  5
13105
  8
0
 10
4036.4578986386259203
 20
131.1450055057485997
 30
0.0
 40
0.1608650286045817
 50
191.3667151304377114
 51
205.8298851902783042
  0
ARC
  5
13106
  8
0
 10
4036.3046822517007968
 20
131.1341418988324108
 30
0.0
 40
0.0039828946248846
 50
142.8246920528447106
 51
177.2103020450865927
  0
ARC
  5
13107
  8
0
 10
4036.3022288496617875
 20
131.1358368267133869
 30
0.0
 40
0.0010125160164757
 50
42.219349346639369
 51
135.3349509105742925
  0
ARC
  5
13108
  8
0
 10
4036.2899662428139891
 20
131.1246773012775861
 30
0.0
 40
0.0175928206111857
 50
19.4263451415530888
 51
42.2987589215684565
  0
ARC
  5
13109
  8
0
 10
4036.2127018782980485
 20
131.0934476560362896
 30
0.0
 40
0.1009151772433139
 50
11.8562942189722094
 51
21.5582205636848308
  0
ARC
  5
1310A
  8
0
 10
4036.2277171335590538
 20
131.0944835354065958
 30
0.0
 40
0.0860323639255562
 50
0.9954906099584253
 51
13.2358173168517492
  0
ARC
  5
1310B
  8
0
 10
4036.3015864984517975
 20
131.0958281174177955
 30
0.0
 40
0.0121509411603088
 50
340.4000502759807887
 51
0.707883097914682
  0
ARC
  5
1310C
  8
0
 10
4036.3118306293108617
 20
131.0923571136927137
 30
0.0
 40
0.0013463643492345
 50
259.6041613160668931
 51
333.2956443711452152
  0
ARC
  5
1310D
  8
0
 10
4036.3237008143810272
 20
131.1032928108004114
 30
0.0
 40
0.0172346925866386
 50
197.2007223395056883
 51
225.3451535265454879
  0
ARC
  5
1310E
  8
0
 10
4036.414668084818004
 20
131.1379153625204879
 30
0.0
 40
0.114538479853049
 50
188.6461206397526951
 51
200.290247558260802
  0
ARC
  5
1310F
  8
0
 10
4036.3535273809197861
 20
131.1303131302589122
 30
0.0
 40
0.0529762481019842
 50
175.6451989611558133
 51
190.4585570901820972
  0
ARC
  5
13110
  8
0
 10
4036.5902253238668891
 20
131.0031550782242107
 30
0.0
 40
0.1922855691271689
 50
182.1521797525531952
 51
192.9275629575481901
  0
ARC
  5
13111
  8
0
 10
4036.4479214060338563
 20
130.9978072544305974
 30
0.0
 40
0.0498812003389055
 50
155.6626758449712042
 51
182.1521797525531952
  0
ARC
  5
13112
  8
0
 10
4036.4244752882668763
 20
131.0084119752036997
 30
0.0
 40
0.0241483314551546
 50
121.4815323590894991
 51
155.6626758449808108
  0
ARC
  5
13113
  8
0
 10
4036.4372684369482158
 20
130.9875203418548892
 30
0.0
 40
0.0486457802437724
 50
109.7475163074767011
 51
121.4815323590903944
  0
ARC
  5
13114
  8
0
 10
4036.4704244442100389
 20
130.8951606243142862
 30
0.0
 40
0.1467765004171282
 50
100.8194762637463953
 51
109.7475163074767011
  0
ARC
  5
13115
  8
0
 10
4036.4391211573019973
 20
131.0589556857748903
 30
0.0
 40
0.0199829608741169
 50
280.8194762637203894
 51
330.1637972728073009
  0
ARC
  5
13116
  8
0
 10
4036.5758200412128645
 20
131.0457791846710904
 30
0.0
 40
0.1194084558152676
 50
171.1711567126232012
 51
178.4477825920685063
  0
ARC
  5
13117
  8
0
 10
4036.4720358635809134
 20
131.0623587583145024
 30
0.0
 40
0.0143165041127299
 50
141.7270586707851976
 51
172.9883574841011011
  0
ARC
  5
13118
  8
0
 10
4036.4634498503551185
 20
131.0677914532950012
 30
0.0
 40
0.0043405503251361
 50
59.366038380461319
 51
127.6844226525806931
  0
ARC
  5
13119
  8
0
 10
4036.4297315752228315
 20
131.0338099449949993
 30
0.0
 40
0.052091114837575
 50
21.2846969014708804
 51
46.3894303673563471
  0
ARC
  5
1311A
  8
0
 10
4036.1283498239440632
 20
130.9028253812165872
 30
0.0
 40
0.3806729476758447
 50
12.3476183260791501
 51
23.1886579360618299
  0
ARC
  5
1311B
  8
0
 10
4036.1456315803748112
 20
130.897877043729892
 30
0.0
 40
0.3649488006910679
 50
2.1950694656396341
 51
13.6868354331101294
  0
ARC
  5
1311C
  8
0
 10
4036.4428957430532137
 20
130.9091429148253951
 30
0.0
 40
0.0674713840168294
 50
345.016426625959582
 51
2.3038957954280379
  0
ARC
  5
1311D
  8
0
 10
4036.4993523553830528
 20
130.8941458972944076
 30
0.0
 40
0.0090575960197609
 50
309.2931602504041848
 51
344.3250559031636726
  0
ARC
  5
1311E
  8
0
 10
4036.5029512312098632
 20
130.8906332351085098
 30
0.0
 40
0.0040984991075019
 50
233.5596661489007033
 51
301.4301075850315215
  0
ARC
  5
1311F
  8
0
 10
4036.5232269087678105
 20
130.9161523520187984
 30
0.0
 40
0.036689599220375
 50
197.7335674825316119
 51
231.7583173738991889
  0
ARC
  5
13120
  8
0
 10
4036.4761679454250043
 20
130.8845654077098004
 30
0.0
 40
0.0237350483182645
 50
59.3141040720416584
 51
105.255025198710797
  0
ARC
  5
13121
  8
0
 10
4035.8100483778439411
 20
133.3044178584698898
 30
0.0
 40
2.4861258042780312
 50
284.9571438135603216
 51
285.3920778303066754
  0
ARC
  5
13122
  8
0
 10
4036.4457078864929827
 20
130.9345702069763036
 30
0.0
 40
0.0326030932808341
 50
203.149910152332609
 51
280.6061189375431013
  0
ARC
  5
13123
  8
0
 10
4036.5605232808820801
 20
130.9918416811075019
 30
0.0
 40
0.1608650286045817
 50
191.3667151304377114
 51
205.8298851902783042
  0
ARC
  5
13124
  8
0
 10
4036.4073068939560471
 20
130.980978074191313
 30
0.0
 40
0.0039828946248846
 50
142.8246920528447106
 51
177.2103020450865927
  0
ARC
  5
13125
  8
0
 10
4036.4048534919188569
 20
130.9826730020722891
 30
0.0
 40
0.0010125160164757
 50
42.219349346639369
 51
135.3349509105742925
  0
ARC
  5
13126
  8
0
 10
4036.3925908850687847
 20
130.9715134766364031
 30
0.0
 40
0.0175928206111857
 50
19.4263451415530888
 51
42.2987589215684565
  0
ARC
  5
13127
  8
0
 10
4036.3153265205528442
 20
130.9402838313951065
 30
0.0
 40
0.1009151772433139
 50
11.8562942189722094
 51
21.5582205636848308
  0
ARC
  5
13128
  8
0
 10
4036.3303417758161231
 20
130.9413197107654128
 30
0.0
 40
0.0860323639255562
 50
0.9954906099584253
 51
13.2358173168517492
  0
ARC
  5
13129
  8
0
 10
4036.4042111407079574
 20
130.9426642927766977
 30
0.0
 40
0.0121509411603088
 50
340.4000502759807887
 51
0.707883097914682
  0
ARC
  5
1312A
  8
0
 10
4036.4144552715670216
 20
130.9391932890515022
 30
0.0
 40
0.0013463643492345
 50
259.6041613160668931
 51
333.2956443711452152
  0
ARC
  5
1312B
  8
0
 10
4036.4263254566358228
 20
130.9501289861593136
 30
0.0
 40
0.0172346925866386
 50
197.2007223395056883
 51
225.3451535265454879
  0
ARC
  5
1312C
  8
0
 10
4036.5172927270741638
 20
130.9847515378793901
 30
0.0
 40
0.114538479853049
 50
188.6461206397526951
 51
200.290247558260802
  0
ARC
  5
1312D
  8
0
 10
4036.4561520231750364
 20
130.977149305617786
 30
0.0
 40
0.0529762481019842
 50
175.6451989611558133
 51
190.4585570901820972
  0
ARC
  5
1312E
  8
0
 10
4036.7294921996040102
 20
130.7785343317441971
 30
0.0
 40
0.1922855691271689
 50
182.1521797525531952
 51
192.9275629575481901
  0
ARC
  5
1312F
  8
0
 10
4036.5871882817709775
 20
130.7731865079506122
 30
0.0
 40
0.0498812003389055
 50
155.6626758449712042
 51
182.1521797525531952
  0
ARC
  5
13130
  8
0
 10
4036.563742164004907
 20
130.7837912287236861
 30
0.0
 40
0.0241483314551546
 50
121.4815323590894991
 51
155.6626758449808108
  0
ARC
  5
13131
  8
0
 10
4036.5765353126848822
 20
130.762899595374904
 30
0.0
 40
0.0486457802437724
 50
109.7475163074767011
 51
121.4815323590903944
  0
ARC
  5
13132
  8
0
 10
4036.6096913199480696
 20
130.670539877834301
 30
0.0
 40
0.1467765004171282
 50
100.8194762637463953
 51
109.7475163074767011
  0
ARC
  5
13133
  8
0
 10
4036.5783880330391185
 20
130.8343349392947914
 30
0.0
 40
0.0199829608741169
 50
280.8194762637203894
 51
330.1637972728073009
  0
ARC
  5
13134
  8
0
 10
4036.7150869169508951
 20
130.8211584381911052
 30
0.0
 40
0.1194084558152676
 50
171.1711567126232012
 51
178.4477825920685063
  0
ARC
  5
13135
  8
0
 10
4036.6113027393180346
 20
130.8377380118344888
 30
0.0
 40
0.0143165041127299
 50
141.7270586707851976
 51
172.9883574841011011
  0
ARC
  5
13136
  8
0
 10
4036.6027167260917849
 20
130.8431707068149876
 30
0.0
 40
0.0043405503251361
 50
59.366038380461319
 51
127.6844226525806931
  0
ARC
  5
13137
  8
0
 10
4036.5689984509599526
 20
130.8091891985150141
 30
0.0
 40
0.052091114837575
 50
21.2846969014708804
 51
46.3894303673563471
  0
ARC
  5
13138
  8
0
 10
4036.2676166996820939
 20
130.678204634736602
 30
0.0
 40
0.3806729476758447
 50
12.3476183260791501
 51
23.1886579360618299
  0
ARC
  5
13139
  8
0
 10
4036.2848984561128418
 20
130.6732562972499068
 30
0.0
 40
0.3649488006910679
 50
2.1950694656396341
 51
13.6868354331101294
  0
ARC
  5
1313A
  8
0
 10
4036.5821626187907896
 20
130.6845221683452962
 30
0.0
 40
0.0674713840168294
 50
345.016426625959582
 51
2.3038957954280379
  0
ARC
  5
1313B
  8
0
 10
4036.6386192311201739
 20
130.669525150814394
 30
0.0
 40
0.0090575960197609
 50
309.2931602504041848
 51
344.3250559031636726
  0
ARC
  5
1313C
  8
0
 10
4036.6422181069478938
 20
130.6660124886284962
 30
0.0
 40
0.0040984991075019
 50
233.5596661489007033
 51
301.4301075850315215
  0
ARC
  5
1313D
  8
0
 10
4036.6624937845072054
 20
130.6915316055386995
 30
0.0
 40
0.036689599220375
 50
197.7335674825316119
 51
231.7583173738991889
  0
ARC
  5
1313E
  8
0
 10
4036.6154348211630349
 20
130.6599446612297015
 30
0.0
 40
0.0237350483182645
 50
59.3141040720416584
 51
105.255025198710797
  0
ARC
  5
1313F
  8
0
 10
4035.9493152535810623
 20
133.0797971119897909
 30
0.0
 40
2.4861258042780312
 50
284.9571438135603216
 51
285.3920778303066754
  0
ARC
  5
13140
  8
0
 10
4036.5849747622301038
 20
130.7099494604962899
 30
0.0
 40
0.0326030932808341
 50
203.149910152332609
 51
280.6061189375431013
  0
ARC
  5
13141
  8
0
 10
4036.6997901566201108
 20
130.767220934627403
 30
0.0
 40
0.1608650286045817
 50
191.3667151304377114
 51
205.8298851902783042
  0
ARC
  5
13142
  8
0
 10
4036.5465737696949873
 20
130.7563573277112141
 30
0.0
 40
0.0039828946248846
 50
142.8246920528447106
 51
177.2103020450865927
  0
ARC
  5
13143
  8
0
 10
4036.544120367655978
 20
130.7580522555921902
 30
0.0
 40
0.0010125160164757
 50
42.219349346639369
 51
135.3349509105742925
  0
ARC
  5
13144
  8
0
 10
4036.5318577608081796
 20
130.7468927301563895
 30
0.0
 40
0.0175928206111857
 50
19.4263451415530888
 51
42.2987589215684565
  0
ARC
  5
13145
  8
0
 10
4036.4545933962917843
 20
130.7156630849150929
 30
0.0
 40
0.1009151772433139
 50
11.8562942189722094
 51
21.5582205636848308
  0
ARC
  5
13146
  8
0
 10
4036.4696086515527895
 20
130.7166989642853991
 30
0.0
 40
0.0860323639255562
 50
0.9954906099584253
 51
13.2358173168517492
  0
ARC
  5
13147
  8
0
 10
4036.543478016445988
 20
130.7180435462965988
 30
0.0
 40
0.0121509411603088
 50
340.4000502759807887
 51
0.707883097914682
  0
ARC
  5
13148
  8
0
 10
4036.5537221473059617
 20
130.7145725425714886
 30
0.0
 40
0.0013463643492345
 50
259.6041613160668931
 51
333.2956443711452152
  0
ARC
  5
13149
  8
0
 10
4036.5655923323729439
 20
130.7255082396793
 30
0.0
 40
0.0172346925866386
 50
197.2007223395056883
 51
225.3451535265454879
  0
ARC
  5
1314A
  8
0
 10
4036.6565596028108303
 20
130.7601307913992912
 30
0.0
 40
0.114538479853049
 50
188.6461206397526951
 51
200.290247558260802
  0
ARC
  5
1314B
  8
0
 10
4036.5954188989130671
 20
130.7525285591376871
 30
0.0
 40
0.0529762481019842
 50
175.6451989611558133
 51
190.4585570901820972
  0
ARC
  5
1314C
  8
0
 10
4036.7224703906517789
 20
130.5136745109562924
 30
0.0
 40
0.1922855691271689
 50
182.1521797525531952
 51
192.9275629575481901
  0
ARC
  5
1314D
  8
0
 10
4036.5801664728201104
 20
130.5083266871627075
 30
0.0
 40
0.0498812003389055
 50
155.6626758449712042
 51
182.1521797525531952
  0
ARC
  5
1314E
  8
0
 10
4036.5567203550531303
 20
130.5189314079358098
 30
0.0
 40
0.0241483314551546
 50
121.4815323590894991
 51
155.6626758449808108
  0
ARC
  5
1314F
  8
0
 10
4036.5695135037340151
 20
130.4980397745869993
 30
0.0
 40
0.0486457802437724
 50
109.7475163074767011
 51
121.4815323590903944
  0
ARC
  5
13150
  8
0
 10
4036.6026695109972025
 20
130.4056800570463963
 30
0.0
 40
0.1467765004171282
 50
100.8194762637463953
 51
109.7475163074767011
  0
ARC
  5
13151
  8
0
 10
4036.5713662240877966
 20
130.5694751185070004
 30
0.0
 40
0.0199829608741169
 50
280.8194762637203894
 51
330.1637972728073009
  0
ARC
  5
13152
  8
0
 10
4036.708065108000028
 20
130.5562986174032005
 30
0.0
 40
0.1194084558152676
 50
171.1711567126232012
 51
178.4477825920685063
  0
ARC
  5
13153
  8
0
 10
4036.604280930368077
 20
130.5728781910466125
 30
0.0
 40
0.0143165041127299
 50
141.7270586707851976
 51
172.9883574841011011
  0
ARC
  5
13154
  8
0
 10
4036.5956949171409178
 20
130.5783108860271113
 30
0.0
 40
0.0043405503251361
 50
59.366038380461319
 51
127.6844226525806931
  0
ARC
  5
13155
  8
0
 10
4036.561976642008176
 20
130.5443293777271094
 30
0.0
 40
0.052091114837575
 50
21.2846969014708804
 51
46.3894303673563471
  0
ARC
  5
13156
  8
0
 10
4036.260594890728953
 20
130.4133448139486973
 30
0.0
 40
0.3806729476758447
 50
12.3476183260791501
 51
23.1886579360618299
  0
ARC
  5
13157
  8
0
 10
4036.2778766471619747
 20
130.4083964764620021
 30
0.0
 40
0.3649488006910679
 50
2.1950694656396341
 51
13.6868354331101294
  0
ARC
  5
13158
  8
0
 10
4036.5751408098399224
 20
130.4196623475575052
 30
0.0
 40
0.0674713840168294
 50
345.016426625959582
 51
2.3038957954280379
  0
ARC
  5
13159
  8
0
 10
4036.6315974221688521
 20
130.4046653300264893
 30
0.0
 40
0.0090575960197609
 50
309.2931602504041848
 51
344.3250559031636726
  0
ARC
  5
1315A
  8
0
 10
4036.6351962979970267
 20
130.4011526678405914
 30
0.0
 40
0.0040984991075019
 50
233.5596661489007033
 51
301.4301075850315215
  0
ARC
  5
1315B
  8
0
 10
4036.6554719755558835
 20
130.4266717847509085
 30
0.0
 40
0.036689599220375
 50
197.7335674825316119
 51
231.7583173738991889
  0
ARC
  5
1315C
  8
0
 10
4036.6084130122130773
 20
130.3950848404417968
 30
0.0
 40
0.0237350483182645
 50
59.3141040720416584
 51
105.255025198710797
  0
ARC
  5
1315D
  8
0
 10
4035.9422934446301952
 20
132.8149372912018862
 30
0.0
 40
2.4861258042780312
 50
284.9571438135603216
 51
285.3920778303066754
  0
ARC
  5
1315E
  8
0
 10
4036.5779529532787819
 20
130.4450896397084136
 30
0.0
 40
0.0326030932808341
 50
203.149910152332609
 51
280.6061189375431013
  0
ARC
  5
1315F
  8
0
 10
4036.6927683476687889
 20
130.502361113839612
 30
0.0
 40
0.1608650286045817
 50
191.3667151304377114
 51
205.8298851902783042
  0
ARC
  5
13160
  8
0
 10
4036.5395519607441202
 20
130.4914975069233947
 30
0.0
 40
0.0039828946248846
 50
142.8246920528447106
 51
177.2103020450865927
  0
ARC
  5
13161
  8
0
 10
4036.5370985587051109
 20
130.493192434804314
 30
0.0
 40
0.0010125160164757
 50
42.219349346639369
 51
135.3349509105742925
  0
ARC
  5
13162
  8
0
 10
4036.5248359518568577
 20
130.4820329093685132
 30
0.0
 40
0.0175928206111857
 50
19.4263451415530888
 51
42.2987589215684565
  0
ARC
  5
13163
  8
0
 10
4036.4475715873400077
 20
130.4508032641273019
 30
0.0
 40
0.1009151772433139
 50
11.8562942189722094
 51
21.5582205636848308
  0
ARC
  5
13164
  8
0
 10
4036.4625868426019224
 20
130.4518391434974944
 30
0.0
 40
0.0860323639255562
 50
0.9954906099584253
 51
13.2358173168517492
  0
ARC
  5
13165
  8
0
 10
4036.5364562074951209
 20
130.4531837255088078
 30
0.0
 40
0.0121509411603088
 50
340.4000502759807887
 51
0.707883097914682
  0
ARC
  5
13166
  8
0
 10
4036.5467003383541851
 20
130.4497127217836123
 30
0.0
 40
0.0013463643492345
 50
259.6041613160668931
 51
333.2956443711452152
  0
ARC
  5
13167
  8
0
 10
4036.5585705234220768
 20
130.4606484188913953
 30
0.0
 40
0.0172346925866386
 50
197.2007223395056883
 51
225.3451535265454879
  0
ARC
  5
13168
  8
0
 10
4036.6495377938590536
 20
130.4952709706113865
 30
0.0
 40
0.114538479853049
 50
188.6461206397526951
 51
200.290247558260802
  0
ARC
  5
13169
  8
0
 10
4036.5883970899622
 20
130.4876687383498961
 30
0.0
 40
0.0529762481019842
 50
175.6451989611558133
 51
190.4585570901820972
  0
ARC
  5
1316A
  8
0
 10
4036.8667185302151665
 20
130.2755806582410116
 30
0.0
 40
0.1922855691271689
 50
182.1521797525531952
 51
192.9275629575481901
  0
ARC
  5
1316B
  8
0
 10
4036.7244146123821338
 20
130.2702328344473131
 30
0.0
 40
0.0498812003389055
 50
155.6626758449712042
 51
182.1521797525531952
  0
ARC
  5
1316C
  8
0
 10
4036.7009684946151538
 20
130.2808375552205007
 30
0.0
 40
0.0241483314551546
 50
121.4815323590894991
 51
155.6626758449808108
  0
ARC
  5
1316D
  8
0
 10
4036.7137616432960385
 20
130.2599459218716902
 30
0.0
 40
0.0486457802437724
 50
109.7475163074767011
 51
121.4815323590903944
  0
ARC
  5
1316E
  8
0
 10
4036.7469176505578616
 20
130.1675862043310019
 30
0.0
 40
0.1467765004171282
 50
100.8194762637463953
 51
109.7475163074767011
  0
ARC
  5
1316F
  8
0
 10
4036.7156143636489105
 20
130.331381265791606
 30
0.0
 40
0.0199829608741169
 50
280.8194762637203894
 51
330.1637972728073009
  0
ARC
  5
13170
  8
0
 10
4036.8523132475611419
 20
130.3182047646878061
 30
0.0
 40
0.1194084558152676
 50
171.1711567126232012
 51
178.4477825920685063
  0
ARC
  5
13171
  8
0
 10
4036.7485290699291909
 20
130.3347843383311897
 30
0.0
 40
0.0143165041127299
 50
141.7270586707851976
 51
172.9883574841011011
  0
ARC
  5
13172
  8
0
 10
4036.7399430567029412
 20
130.3402170333118022
 30
0.0
 40
0.0043405503251361
 50
59.366038380461319
 51
127.6844226525806931
  0
ARC
  5
13173
  8
0
 10
4036.7062247815701994
 20
130.3062355250116866
 30
0.0
 40
0.052091114837575
 50
21.2846969014708804
 51
46.3894303673563471
  0
ARC
  5
13174
  8
0
 10
4036.404843030291886
 20
130.1752509612333881
 30
0.0
 40
0.3806729476758447
 50
12.3476183260791501
 51
23.1886579360618299
  0
ARC
  5
13175
  8
0
 10
4036.4221247867239981
 20
130.1703026237466077
 30
0.0
 40
0.3649488006910679
 50
2.1950694656396341
 51
13.6868354331101294
  0
ARC
  5
13176
  8
0
 10
4036.7193889494010364
 20
130.1815684948421108
 30
0.0
 40
0.0674713840168294
 50
345.016426625959582
 51
2.3038957954280379
  0
ARC
  5
13177
  8
0
 10
4036.7758455617308755
 20
130.1665714773110949
 30
0.0
 40
0.0090575960197609
 50
309.2931602504041848
 51
344.3250559031636726
  0
ARC
  5
13178
  8
0
 10
4036.7794444375581406
 20
130.1630588151253107
 30
0.0
 40
0.0040984991075019
 50
233.5596661489007033
 51
301.4301075850315215
  0
ARC
  5
13179
  8
0
 10
4036.7997201151169975
 20
130.1885779320355141
 30
0.0
 40
0.036689599220375
 50
197.7335674825316119
 51
231.7583173738991889
  0
ARC
  5
1317A
  8
0
 10
4036.7526611517741912
 20
130.1569909877264877
 30
0.0
 40
0.0237350483182645
 50
59.3141040720416584
 51
105.255025198710797
  0
ARC
  5
1317B
  8
0
 10
4036.0865415841922186
 20
132.5768434384866055
 30
0.0
 40
2.4861258042780312
 50
284.9571438135603216
 51
285.3920778303066754
  0
ARC
  5
1317C
  8
0
 10
4036.7222010928408054
 20
130.2069957869929908
 30
0.0
 40
0.0326030932808341
 50
203.149910152332609
 51
280.6061189375431013
  0
ARC
  5
1317D
  8
0
 10
4036.8370164872299029
 20
130.2642672611241892
 30
0.0
 40
0.1608650286045817
 50
191.3667151304377114
 51
205.8298851902783042
  0
ARC
  5
1317E
  8
0
 10
4036.6838001003047793
 20
130.2534036542080003
 30
0.0
 40
0.0039828946248846
 50
142.8246920528447106
 51
177.2103020450865927
  0
ARC
  5
1317F
  8
0
 10
4036.6813466982662248
 20
130.2550985820890048
 30
0.0
 40
0.0010125160164757
 50
42.219349346639369
 51
135.3349509105742925
  0
ARC
  5
13180
  8
0
 10
4036.6690840914179716
 20
130.2439390566530903
 30
0.0
 40
0.0175928206111857
 50
19.4263451415530888
 51
42.2987589215684565
  0
ARC
  5
13181
  8
0
 10
4036.5918197269020311
 20
130.2127094114119075
 30
0.0
 40
0.1009151772433139
 50
11.8562942189722094
 51
21.5582205636848308
  0
ARC
  5
13182
  8
0
 10
4036.6068349821639458
 20
130.2137452907821
 30
0.0
 40
0.0860323639255562
 50
0.9954906099584253
 51
13.2358173168517492
  0
ARC
  5
13183
  8
0
 10
4036.6807043470557801
 20
130.2150898727932997
 30
0.0
 40
0.0121509411603088
 50
340.4000502759807887
 51
0.707883097914682
  0
ARC
  5
13184
  8
0
 10
4036.6909484779148443
 20
130.2116188690681895
 30
0.0
 40
0.0013463643492345
 50
259.6041613160668931
 51
333.2956443711452152
  0
ARC
  5
13185
  8
0
 10
4036.7028186629841002
 20
130.2225545661760009
 30
0.0
 40
0.0172346925866386
 50
197.2007223395056883
 51
225.3451535265454879
  0
ARC
  5
13186
  8
0
 10
4036.7937859334210771
 20
130.2571771178961058
 30
0.0
 40
0.114538479853049
 50
188.6461206397526951
 51
200.290247558260802
  0
ARC
  5
13187
  8
0
 10
4036.7326452295228592
 20
130.2495748856345017
 30
0.0
 40
0.0529762481019842
 50
175.6451989611558133
 51
190.4585570901820972
  0
ARC
  5
13188
  8
0
 10
4036.8466961994918165
 20
130.0602851346961017
 30
0.0
 40
0.1922855691271689
 50
182.1521797525531952
 51
192.9275629575481901
  0
ARC
  5
13189
  8
0
 10
4036.7043922816587838
 20
130.0549373109024884
 30
0.0
 40
0.0498812003389055
 50
155.6626758449712042
 51
182.1521797525531952
  0
ARC
  5
1318A
  8
0
 10
4036.680946163893168
 20
130.0655420316755908
 30
0.0
 40
0.0241483314551546
 50
121.4815323590894991
 51
155.6626758449808108
  0
ARC
  5
1318B
  8
0
 10
4036.6937393125740527
 20
130.0446503983268087
 30
0.0
 40
0.0486457802437724
 50
109.7475163074767011
 51
121.4815323590903944
  0
ARC
  5
1318C
  8
0
 10
4036.7268953198349664
 20
129.952290680786092
 30
0.0
 40
0.1467765004171282
 50
100.8194762637463953
 51
109.7475163074767011
  0
ARC
  5
1318D
  8
0
 10
4036.6955920329260152
 20
130.1160857422466961
 30
0.0
 40
0.0199829608741169
 50
280.8194762637203894
 51
330.1637972728073009
  0
ARC
  5
1318E
  8
0
 10
4036.8322909168391561
 20
130.1029092411428962
 30
0.0
 40
0.1194084558152676
 50
171.1711567126232012
 51
178.4477825920685063
  0
ARC
  5
1318F
  8
0
 10
4036.7285067392058409
 20
130.1194888147863935
 30
0.0
 40
0.0143165041127299
 50
141.7270586707851976
 51
172.9883574841011011
  0
ARC
  5
13190
  8
0
 10
4036.7199207259809555
 20
130.1249215097668923
 30
0.0
 40
0.0043405503251361
 50
59.366038380461319
 51
127.6844226525806931
  0
ARC
  5
13191
  8
0
 10
4036.6862024508482136
 20
130.0909400014668051
 30
0.0
 40
0.052091114837575
 50
21.2846969014708804
 51
46.3894303673563471
  0
ARC
  5
13192
  8
0
 10
4036.3848206995689907
 20
129.9599554376885067
 30
0.0
 40
0.3806729476758447
 50
12.3476183260791501
 51
23.1886579360618299
  0
ARC
  5
13193
  8
0
 10
4036.4021024560001933
 20
129.9550071002016978
 30
0.0
 40
0.3649488006910679
 50
2.1950694656396341
 51
13.6868354331101294
  0
ARC
  5
13194
  8
0
 10
4036.6993666186790506
 20
129.9662729712972009
 30
0.0
 40
0.0674713840168294
 50
345.016426625959582
 51
2.3038957954280379
  0
ARC
  5
13195
  8
0
 10
4036.7558232310079802
 20
129.9512759537662987
 30
0.0
 40
0.0090575960197609
 50
309.2931602504041848
 51
344.3250559031636726
  0
ARC
  5
13196
  8
0
 10
4036.7594221068361549
 20
129.9477632915804008
 30
0.0
 40
0.0040984991075019
 50
233.5596661489007033
 51
301.4301075850315215
  0
ARC
  5
13197
  8
0
 10
4036.7796977843941022
 20
129.9732824084906042
 30
0.0
 40
0.036689599220375
 50
197.7335674825316119
 51
231.7583173738991889
  0
ARC
  5
13198
  8
0
 10
4036.7326388210499317
 20
129.9416954641816062
 30
0.0
 40
0.0237350483182645
 50
59.3141040720416584
 51
105.255025198710797
  0
ARC
  5
13199
  8
0
 10
4036.0665192534688686
 20
132.3615479149416956
 30
0.0
 40
2.4861258042780312
 50
284.9571438135603216
 51
285.3920778303066754
  0
ARC
  5
1319A
  8
0
 10
4036.7021787621179101
 20
129.9917002634481946
 30
0.0
 40
0.0326030932808341
 50
203.149910152332609
 51
280.6061189375431013
  0
ARC
  5
1319B
  8
0
 10
4036.8169941565079171
 20
130.0489717375793077
 30
0.0
 40
0.1608650286045817
 50
191.3667151304377114
 51
205.8298851902783042
  0
ARC
  5
1319C
  8
0
 10
4036.6637777695809746
 20
130.0381081306630904
 30
0.0
 40
0.0039828946248846
 50
142.8246920528447106
 51
177.2103020450865927
  0
ARC
  5
1319D
  8
0
 10
4036.6613243675428748
 20
130.0398030585440949
 30
0.0
 40
0.0010125160164757
 50
42.219349346639369
 51
135.3349509105742925
  0
ARC
  5
1319E
  8
0
 10
4036.6490617606941669
 20
130.0286435331082942
 30
0.0
 40
0.0175928206111857
 50
19.4263451415530888
 51
42.2987589215684565
  0
ARC
  5
1319F
  8
0
 10
4036.5717973961800453
 20
129.9974138878669976
 30
0.0
 40
0.1009151772433139
 50
11.8562942189722094
 51
21.5582205636848308
  0
ARC
  5
131A0
  8
0
 10
4036.5868126514410505
 20
129.9984497672371901
 30
0.0
 40
0.0860323639255562
 50
0.9954906099584253
 51
13.2358173168517492
  0
ARC
  5
131A1
  8
0
 10
4036.6606820163337943
 20
129.9997943492485035
 30
0.0
 40
0.0121509411603088
 50
340.4000502759807887
 51
0.707883097914682
  0
ARC
  5
131A2
  8
0
 10
4036.6709261471928585
 20
129.9963233455233933
 30
0.0
 40
0.0013463643492345
 50
259.6041613160668931
 51
333.2956443711452152
  0
ARC
  5
131A3
  8
0
 10
4036.682796332261205
 20
130.007259042631091
 30
0.0
 40
0.0172346925866386
 50
197.2007223395056883
 51
225.3451535265454879
  0
ARC
  5
131A4
  8
0
 10
4036.7737636026981818
 20
130.0418815943511959
 30
0.0
 40
0.114538479853049
 50
188.6461206397526951
 51
200.290247558260802
  0
ARC
  5
131A5
  8
0
 10
4036.7126228987999639
 20
130.0342793620895918
 30
0.0
 40
0.0529762481019842
 50
175.6451989611558133
 51
190.4585570901820972
  0
ARC
  5
131A6
  8
0
 10
4037.0040727807340772
 20
129.7832838133105042
 30
0.0
 40
0.1922855691271689
 50
182.1521797525531952
 51
192.9275629575481901
  0
ARC
  5
131A7
  8
0
 10
4036.861768862901954
 20
129.7779359895168909
 30
0.0
 40
0.0498812003389055
 50
155.6626758449712042
 51
182.1521797525531952
  0
ARC
  5
131A8
  8
0
 10
4036.838322745134974
 20
129.788540710290107
 30
0.0
 40
0.0241483314551546
 50
121.4815323590894991
 51
155.6626758449808108
  0
ARC
  5
131A9
  8
0
 10
4036.8511158938158587
 20
129.7676490769412112
 30
0.0
 40
0.0486457802437724
 50
109.7475163074767011
 51
121.4815323590903944
  0
ARC
  5
131AA
  8
0
 10
4036.8842719010781366
 20
129.6752893594006082
 30
0.0
 40
0.1467765004171282
 50
100.8194762637463953
 51
109.7475163074767011
  0
ARC
  5
131AB
  8
0
 10
4036.8529686141691855
 20
129.8390844208612123
 30
0.0
 40
0.0199829608741169
 50
280.8194762637203894
 51
330.1637972728073009
  0
ARC
  5
131AC
  8
0
 10
4036.9896674980818716
 20
129.8259079197574124
 30
0.0
 40
0.1194084558152676
 50
171.1711567126232012
 51
178.4477825920685063
  0
ARC
  5
131AD
  8
0
 10
4036.8858833204490111
 20
129.842487493400796
 30
0.0
 40
0.0143165041127299
 50
141.7270586707851976
 51
172.9883574841011011
  0
ARC
  5
131AE
  8
0
 10
4036.8772973072232162
 20
129.8479201883814085
 30
0.0
 40
0.0043405503251361
 50
59.366038380461319
 51
127.6844226525806931
  0
ARC
  5
131AF
  8
0
 10
4036.8435790320900196
 20
129.8139386800812929
 30
0.0
 40
0.052091114837575
 50
21.2846969014708804
 51
46.3894303673563471
  0
ARC
  5
131B0
  8
0
 10
4036.5421972808107967
 20
129.6829541163029091
 30
0.0
 40
0.3806729476758447
 50
12.3476183260791501
 51
23.1886579360618299
  0
ARC
  5
131B1
  8
0
 10
4036.5594790372429088
 20
129.6780057788162139
 30
0.0
 40
0.3649488006910679
 50
2.1950694656396341
 51
13.6868354331101294
  0
ARC
  5
131B2
  8
0
 10
4036.8567431999222208
 20
129.6892716499116887
 30
0.0
 40
0.0674713840168294
 50
345.016426625959582
 51
2.3038957954280379
  0
ARC
  5
131B3
  8
0
 10
4036.9131998122497862
 20
129.6742746323807012
 30
0.0
 40
0.0090575960197609
 50
309.2931602504041848
 51
344.3250559031636726
  0
ARC
  5
131B4
  8
0
 10
4036.9167986880779608
 20
129.6707619701948886
 30
0.0
 40
0.0040984991075019
 50
233.5596661489007033
 51
301.4301075850315215
  0
ARC
  5
131B5
  8
0
 10
4036.9370743656381819
 20
129.696281087105092
 30
0.0
 40
0.036689599220375
 50
197.7335674825316119
 51
231.7583173738991889
  0
ARC
  5
131B6
  8
0
 10
4036.8900154022940114
 20
129.6646941427960087
 30
0.0
 40
0.0237350483182645
 50
59.3141040720416584
 51
105.255025198710797
  0
ARC
  5
131B7
  8
0
 10
4036.2238958347120388
 20
132.0845465935562117
 30
0.0
 40
2.4861258042780312
 50
284.9571438135603216
 51
285.3920778303066754
  0
ARC
  5
131B8
  8
0
 10
4036.8595553433610803
 20
129.7146989420625971
 30
0.0
 40
0.0326030932808341
 50
203.149910152332609
 51
280.6061189375431013
  0
ARC
  5
131B9
  8
0
 10
4036.9743707377510873
 20
129.7719704161937955
 30
0.0
 40
0.1608650286045817
 50
191.3667151304377114
 51
205.8298851902783042
  0
ARC
  5
131BA
  8
0
 10
4036.8211543508259638
 20
129.7611068092776065
 30
0.0
 40
0.0039828946248846
 50
142.8246920528447106
 51
177.2103020450865927
  0
ARC
  5
131BB
  8
0
 10
4036.8187009487869545
 20
129.7628017371586111
 30
0.0
 40
0.0010125160164757
 50
42.219349346639369
 51
135.3349509105742925
  0
ARC
  5
131BC
  8
0
 10
4036.8064383419377918
 20
129.7516422117226966
 30
0.0
 40
0.0175928206111857
 50
19.4263451415530888
 51
42.2987589215684565
  0
ARC
  5
131BD
  8
0
 10
4036.7291739774218513
 20
129.7204125664815137
 30
0.0
 40
0.1009151772433139
 50
11.8562942189722094
 51
21.5582205636848308
  0
ARC
  5
131BE
  8
0
 10
4036.7441892326842208
 20
129.7214484458517063
 30
0.0
 40
0.0860323639255562
 50
0.9954906099584253
 51
13.2358173168517492
  0
ARC
  5
131BF
  8
0
 10
4036.8180585975769645
 20
129.7227930278629913
 30
0.0
 40
0.0121509411603088
 50
340.4000502759807887
 51
0.707883097914682
  0
ARC
  5
131C0
  8
0
 10
4036.8283027284351192
 20
129.7193220241377958
 30
0.0
 40
0.0013463643492345
 50
259.6041613160668931
 51
333.2956443711452152
  0
ARC
  5
131C1
  8
0
 10
4036.8401729135030109
 20
129.7302577212456072
 30
0.0
 40
0.0172346925866386
 50
197.2007223395056883
 51
225.3451535265454879
  0
ARC
  5
131C2
  8
0
 10
4036.9311401839408973
 20
129.764880272965712
 30
0.0
 40
0.114538479853049
 50
188.6461206397526951
 51
200.290247558260802
  0
ARC
  5
131C3
  8
0
 10
4036.8699994800431341
 20
129.757278040704108
 30
0.0
 40
0.0529762481019842
 50
175.6451989611558133
 51
190.4585570901820972
  0
ARC
  5
131C4
  8
0
 10
4036.9685639872700449
 20
129.6148586034751133
 30
0.0
 40
0.1922855691271689
 50
182.1521797525531952
 51
192.9275629575481901
  0
ARC
  5
131C5
  8
0
 10
4036.8262600694370121
 20
129.6095107796815
 30
0.0
 40
0.0498812003389055
 50
155.6626758449712042
 51
182.1521797525531952
  0
ARC
  5
131C6
  8
0
 10
4036.8028139516700321
 20
129.6201155004546877
 30
0.0
 40
0.0241483314551546
 50
121.4815323590894991
 51
155.6626758449808108
  0
ARC
  5
131C7
  8
0
 10
4036.8156071003509169
 20
129.5992238671059056
 30
0.0
 40
0.0486457802437724
 50
109.7475163074767011
 51
121.4815323590903944
  0
ARC
  5
131C8
  8
0
 10
4036.8487631076131947
 20
129.5068641495651889
 30
0.0
 40
0.1467765004171282
 50
100.8194762637463953
 51
109.7475163074767011
  0
ARC
  5
131C9
  8
0
 10
4036.8174598207060626
 20
129.670659211025793
 30
0.0
 40
0.0199829608741169
 50
280.8194762637203894
 51
330.1637972728073009
  0
ARC
  5
131CA
  8
0
 10
4036.9541587046169298
 20
129.6574827099219931
 30
0.0
 40
0.1194084558152676
 50
171.1711567126232012
 51
178.4477825920685063
  0
ARC
  5
131CB
  8
0
 10
4036.8503745269831597
 20
129.6740622835654051
 30
0.0
 40
0.0143165041127299
 50
141.7270586707851976
 51
172.9883574841011011
  0
ARC
  5
131CC
  8
0
 10
4036.8417885137591838
 20
129.6794949785459892
 30
0.0
 40
0.0043405503251361
 50
59.366038380461319
 51
127.6844226525806931
  0
ARC
  5
131CD
  8
0
 10
4036.8080702386259873
 20
129.645513470245902
 30
0.0
 40
0.052091114837575
 50
21.2846969014708804
 51
46.3894303673563471
  0
ARC
  5
131CE
  8
0
 10
4036.5066884873472191
 20
129.5145289064676035
 30
0.0
 40
0.3806729476758447
 50
12.3476183260791501
 51
23.1886579360618299
  0
ARC
  5
131CF
  8
0
 10
4036.523970243777967
 20
129.5095805689807946
 30
0.0
 40
0.3649488006910679
 50
2.1950694656396341
 51
13.6868354331101294
  0
ARC
  5
131D0
  8
0
 10
4036.8212344064559147
 20
129.5208464400762978
 30
0.0
 40
0.0674713840168294
 50
345.016426625959582
 51
2.3038957954280379
  0
ARC
  5
131D1
  8
0
 10
4036.8776910187862086
 20
129.5058494225453103
 30
0.0
 40
0.0090575960197609
 50
309.2931602504041848
 51
344.3250559031636726
  0
ARC
  5
131D2
  8
0
 10
4036.8812898946139285
 20
129.5023367603594977
 30
0.0
 40
0.0040984991075019
 50
233.5596661489007033
 51
301.4301075850315215
  0
ARC
  5
131D3
  8
0
 10
4036.9015655721718758
 20
129.5278558772697011
 30
0.0
 40
0.036689599220375
 50
197.7335674825316119
 51
231.7583173738991889
  0
ARC
  5
131D4
  8
0
 10
4036.8545066088281601
 20
129.4962689329607031
 30
0.0
 40
0.0237350483182645
 50
59.3141040720416584
 51
105.255025198710797
  0
ARC
  5
131D5
  8
0
 10
4036.1883870412480064
 20
131.9161213837207924
 30
0.0
 40
2.4861258042780312
 50
284.9571438135603216
 51
285.3920778303066754
  0
ARC
  5
131D6
  8
0
 10
4036.8240465498961385
 20
129.5462737322272062
 30
0.0
 40
0.0326030932808341
 50
203.149910152332609
 51
280.6061189375431013
  0
ARC
  5
131D7
  8
0
 10
4036.9388619442847812
 20
129.6035452063584046
 30
0.0
 40
0.1608650286045817
 50
191.3667151304377114
 51
205.8298851902783042
  0
ARC
  5
131D8
  8
0
 10
4036.7856455573601124
 20
129.5926815994421872
 30
0.0
 40
0.0039828946248846
 50
142.8246920528447106
 51
177.2103020450865927
  0
ARC
  5
131D9
  8
0
 10
4036.7831921553211032
 20
129.5943765273231918
 30
0.0
 40
0.0010125160164757
 50
42.219349346639369
 51
135.3349509105742925
  0
ARC
  5
131DA
  8
0
 10
4036.77092954847285
 20
129.583217001887391
 30
0.0
 40
0.0175928206111857
 50
19.4263451415530888
 51
42.2987589215684565
  0
ARC
  5
131DB
  8
0
 10
4036.6936651839569095
 20
129.5519873566460944
 30
0.0
 40
0.1009151772433139
 50
11.8562942189722094
 51
21.5582205636848308
  0
ARC
  5
131DC
  8
0
 10
4036.7086804392188242
 20
129.553023236016287
 30
0.0
 40
0.0860323639255562
 50
0.9954906099584253
 51
13.2358173168517492
  0
ARC
  5
131DD
  8
0
 10
4036.7825498041120227
 20
129.5543678180276004
 30
0.0
 40
0.0121509411603088
 50
340.4000502759807887
 51
0.707883097914682
  0
ARC
  5
131DE
  8
0
 10
4036.7927939349701774
 20
129.5508968143024902
 30
0.0
 40
0.0013463643492345
 50
259.6041613160668931
 51
333.2956443711452152
  0
ARC
  5
131DF
  8
0
 10
4036.8046641200389786
 20
129.5618325114101879
 30
0.0
 40
0.0172346925866386
 50
197.2007223395056883
 51
225.3451535265454879
  0
ARC
  5
131E0
  8
0
 10
4036.8956313904768649
 20
129.5964550631302927
 30
0.0
 40
0.114538479853049
 50
188.6461206397526951
 51
200.290247558260802
  0
ARC
  5
131E1
  8
0
 10
4036.8344906865791017
 20
129.5888528308686887
 30
0.0
 40
0.0529762481019842
 50
175.6451989611558133
 51
190.4585570901820972
  0
ARC
  5
131E2
  8
0
 10
4037.1395019665269501
 20
129.2917443913250111
 30
0.0
 40
0.1922855691271689
 50
182.1521797525531952
 51
192.9275629575481901
  0
ARC
  5
131E3
  8
0
 10
4036.9971980486939174
 20
129.2863965675313977
 30
0.0
 40
0.0498812003389055
 50
155.6626758449712042
 51
182.1521797525531952
  0
ARC
  5
131E4
  8
0
 10
4036.9737519309269373
 20
129.2970012883046138
 30
0.0
 40
0.0241483314551546
 50
121.4815323590894991
 51
155.6626758449808108
  0
ARC
  5
131E5
  8
0
 10
4036.9865450796078221
 20
129.2761096549558033
 30
0.0
 40
0.0486457802437724
 50
109.7475163074767011
 51
121.4815323590903944
  0
ARC
  5
131E6
  8
0
 10
4037.0197010868710095
 20
129.1837499374150866
 30
0.0
 40
0.1467765004171282
 50
100.8194762637463953
 51
109.7475163074767011
  0
ARC
  5
131E7
  8
0
 10
4036.9883977999611488
 20
129.3475449988756907
 30
0.0
 40
0.0199829608741169
 50
280.8194762637203894
 51
330.1637972728073009
  0
ARC
  5
131E8
  8
0
 10
4037.1250966838729255
 20
129.3343684977718908
 30
0.0
 40
0.1194084558152676
 50
171.1711567126232012
 51
178.4477825920685063
  0
ARC
  5
131E9
  8
0
 10
4037.0213125062409745
 20
129.3509480714153028
 30
0.0
 40
0.0143165041127299
 50
141.7270586707851976
 51
172.9883574841011011
  0
ARC
  5
131EA
  8
0
 10
4037.0127264930151796
 20
129.3563807663958869
 30
0.0
 40
0.0043405503251361
 50
59.366038380461319
 51
127.6844226525806931
  0
ARC
  5
131EB
  8
0
 10
4036.979008217881983
 20
129.3223992580957997
 30
0.0
 40
0.052091114837575
 50
21.2846969014708804
 51
46.3894303673563471
  0
ARC
  5
131EC
  8
0
 10
4036.6776264666041243
 20
129.1914146943173876
 30
0.0
 40
0.3806729476758447
 50
12.3476183260791501
 51
23.1886579360618299
  0
ARC
  5
131ED
  8
0
 10
4036.6949082230357817
 20
129.1864663568306923
 30
0.0
 40
0.3649488006910679
 50
2.1950694656396341
 51
13.6868354331101294
  0
ARC
  5
131EE
  8
0
 10
4036.99217238571282
 20
129.1977322279261955
 30
0.0
 40
0.0674713840168294
 50
345.016426625959582
 51
2.3038957954280379
  0
ARC
  5
131EF
  8
0
 10
4037.0486289980431138
 20
129.182735210395208
 30
0.0
 40
0.0090575960197609
 50
309.2931602504041848
 51
344.3250559031636726
  0
ARC
  5
131F0
  8
0
 10
4037.0522278738699242
 20
129.1792225482093954
 30
0.0
 40
0.0040984991075019
 50
233.5596661489007033
 51
301.4301075850315215
  0
ARC
  5
131F1
  8
0
 10
4037.0725035514287811
 20
129.2047416651195988
 30
0.0
 40
0.036689599220375
 50
197.7335674825316119
 51
231.7583173738991889
  0
ARC
  5
131F2
  8
0
 10
4037.0254445880859748
 20
129.1731547208106008
 30
0.0
 40
0.0237350483182645
 50
59.3141040720416584
 51
105.255025198710797
  0
ARC
  5
131F3
  8
0
 10
4036.3593250205040022
 20
131.5930071715706902
 30
0.0
 40
2.4861258042780312
 50
284.9571438135603216
 51
285.3920778303066754
  0
ARC
  5
131F4
  8
0
 10
4036.9949845291530437
 20
129.2231595200771039
 30
0.0
 40
0.0326030932808341
 50
203.149910152332609
 51
280.6061189375431013
  0
ARC
  5
131F5
  8
0
 10
4037.1097999235421412
 20
129.2804309942083023
 30
0.0
 40
0.1608650286045817
 50
191.3667151304377114
 51
205.8298851902783042
  0
ARC
  5
131F6
  8
0
 10
4036.9565835366170177
 20
129.2695673872921134
 30
0.0
 40
0.0039828946248846
 50
142.8246920528447106
 51
177.2103020450865927
  0
ARC
  5
131F7
  8
0
 10
4036.9541301345780084
 20
129.2712623151730895
 30
0.0
 40
0.0010125160164757
 50
42.219349346639369
 51
135.3349509105742925
  0
ARC
  5
131F8
  8
0
 10
4036.94186752773021
 20
129.2601027897372035
 30
0.0
 40
0.0175928206111857
 50
19.4263451415530888
 51
42.2987589215684565
  0
ARC
  5
131F9
  8
0
 10
4036.8646031632138147
 20
129.2288731444959922
 30
0.0
 40
0.1009151772433139
 50
11.8562942189722094
 51
21.5582205636848308
  0
ARC
  5
131FA
  8
0
 10
4036.8796184184761842
 20
129.2299090238662131
 30
0.0
 40
0.0860323639255562
 50
0.9954906099584253
 51
13.2358173168517492
  0
ARC
  5
131FB
  8
0
 10
4036.9534877833689279
 20
129.2312536058774981
 30
0.0
 40
0.0121509411603088
 50
340.4000502759807887
 51
0.707883097914682
  0
ARC
  5
131FC
  8
0
 10
4036.9637319142270826
 20
129.2277826021523026
 30
0.0
 40
0.0013463643492345
 50
259.6041613160668931
 51
333.2956443711452152
  0
ARC
  5
131FD
  8
0
 10
4036.9756020992958838
 20
129.238718299260114
 30
0.0
 40
0.0172346925866386
 50
197.2007223395056883
 51
225.3451535265454879
  0
ARC
  5
131FE
  8
0
 10
4037.0665693697328607
 20
129.2733408509801905
 30
0.0
 40
0.114538479853049
 50
188.6461206397526951
 51
200.290247558260802
  0
ARC
  5
131FF
  8
0
 10
4037.0054286658350975
 20
129.2657386187185864
 30
0.0
 40
0.0529762481019842
 50
175.6451989611558133
 51
190.4585570901820972
  0
ARC
  5
13200
  8
0
 10
4037.1963710840891508
 20
128.9703874876643113
 30
0.0
 40
0.1922855691271689
 50
182.1521797525531952
 51
192.9275629575481901
  0
ARC
  5
13201
  8
0
 10
4037.0540671662561181
 20
128.9650396638706127
 30
0.0
 40
0.0498812003389055
 50
155.6626758449712042
 51
182.1521797525531952
  0
ARC
  5
13202
  8
0
 10
4037.030621048489138
 20
128.9756443846438003
 30
0.0
 40
0.0241483314551546
 50
121.4815323590894991
 51
155.6626758449808108
  0
ARC
  5
13203
  8
0
 10
4037.0434141971700228
 20
128.9547527512949898
 30
0.0
 40
0.0486457802437724
 50
109.7475163074767011
 51
121.4815323590903944
  0
ARC
  5
13204
  8
0
 10
4037.0765702044318459
 20
128.8623930337543015
 30
0.0
 40
0.1467765004171282
 50
100.8194762637463953
 51
109.7475163074767011
  0
ARC
  5
13205
  8
0
 10
4037.0452669175228948
 20
129.0261880952149056
 30
0.0
 40
0.0199829608741169
 50
280.8194762637203894
 51
330.1637972728073009
  0
ARC
  5
13206
  8
0
 10
4037.1819658014360357
 20
129.0130115941111058
 30
0.0
 40
0.1194084558152676
 50
171.1711567126232012
 51
178.4477825920685063
  0
ARC
  5
13207
  8
0
 10
4037.0781816238031752
 20
129.029591167754603
 30
0.0
 40
0.0143165041127299
 50
141.7270586707851976
 51
172.9883574841011011
  0
ARC
  5
13208
  8
0
 10
4037.0695956105769255
 20
129.0350238627351018
 30
0.0
 40
0.0043405503251361
 50
59.366038380461319
 51
127.6844226525806931
  0
ARC
  5
13209
  8
0
 10
4037.0358773354450932
 20
129.0010423544349862
 30
0.0
 40
0.052091114837575
 50
21.2846969014708804
 51
46.3894303673563471
  0
ARC
  5
1320A
  8
0
 10
4036.7344955841658702
 20
128.8700577906566878
 30
0.0
 40
0.3806729476758447
 50
12.3476183260791501
 51
23.1886579360618299
  0
ARC
  5
1320B
  8
0
 10
4036.7517773405970729
 20
128.8651094531699073
 30
0.0
 40
0.3649488006910679
 50
2.1950694656396341
 51
13.6868354331101294
  0
ARC
  5
1320C
  8
0
 10
4037.0490415032759302
 20
128.8763753242654104
 30
0.0
 40
0.0674713840168294
 50
345.016426625959582
 51
2.3038957954280379
  0
ARC
  5
1320D
  8
0
 10
4037.1054981156048598
 20
128.8613783067343945
 30
0.0
 40
0.0090575960197609
 50
309.2931602504041848
 51
344.3250559031636726
  0
ARC
  5
1320E
  8
0
 10
4037.1090969914330344
 20
128.8578656445486104
 30
0.0
 40
0.0040984991075019
 50
233.5596661489007033
 51
301.4301075850315215
  0
ARC
  5
1320F
  8
0
 10
4037.1293726689909818
 20
128.8833847614588137
 30
0.0
 40
0.036689599220375
 50
197.7335674825316119
 51
231.7583173738991889
  0
ARC
  5
13210
  8
0
 10
4037.0823137056468113
 20
128.8517978171497873
 30
0.0
 40
0.0237350483182645
 50
59.3141040720416584
 51
105.255025198710797
  0
ARC
  5
13211
  8
0
 10
4036.4161941380662029
 20
131.2716502679099051
 30
0.0
 40
2.4861258042780312
 50
284.9571438135603216
 51
285.3920778303066754
  0
ARC
  5
13212
  8
0
 10
4037.0518536467147896
 20
128.9018026164162904
 30
0.0
 40
0.0326030932808341
 50
203.149910152332609
 51
280.6061189375431013
  0
ARC
  5
13213
  8
0
 10
4037.1666690411047966
 20
128.9590740905474888
 30
0.0
 40
0.1608650286045817
 50
191.3667151304377114
 51
205.8298851902783042
  0
ARC
  5
13214
  8
0
 10
4037.0134526541778541
 20
128.9482104836312999
 30
0.0
 40
0.0039828946248846
 50
142.8246920528447106
 51
177.2103020450865927
  0
ARC
  5
13215
  8
0
 10
4037.0109992521402091
 20
128.9499054115123045
 30
0.0
 40
0.0010125160164757
 50
42.219349346639369
 51
135.3349509105742925
  0
ARC
  5
13216
  8
0
 10
4036.9987366452910464
 20
128.9387458860765037
 30
0.0
 40
0.0175928206111857
 50
19.4263451415530888
 51
42.2987589215684565
  0
ARC
  5
13217
  8
0
 10
4036.9214722807760154
 20
128.9075162408352071
 30
0.0
 40
0.1009151772433139
 50
11.8562942189722094
 51
21.5582205636848308
  0
ARC
  5
13218
  8
0
 10
4036.9364875360379301
 20
128.9085521202053997
 30
0.0
 40
0.0860323639255562
 50
0.9954906099584253
 51
13.2358173168517492
  0
ARC
  5
13219
  8
0
 10
4037.0103569009311286
 20
128.909896702216713
 30
0.0
 40
0.0121509411603088
 50
340.4000502759807887
 51
0.707883097914682
  0
ARC
  5
1321A
  8
0
 10
4037.0206010317901928
 20
128.9064256984916028
 30
0.0
 40
0.0013463643492345
 50
259.6041613160668931
 51
333.2956443711452152
  0
ARC
  5
1321B
  8
0
 10
4037.0324712168580845
 20
128.9173613955993005
 30
0.0
 40
0.0172346925866386
 50
197.2007223395056883
 51
225.3451535265454879
  0
ARC
  5
1321C
  8
0
 10
4037.1234384872950613
 20
128.9519839473194054
 30
0.0
 40
0.114538479853049
 50
188.6461206397526951
 51
200.290247558260802
  0
ARC
  5
1321D
  8
0
 10
4037.0622977833982077
 20
128.9443817150578013
 30
0.0
 40
0.0529762481019842
 50
175.6451989611558133
 51
190.4585570901820972
  0
ARC
  5
1321E
  8
0
 10
4036.3609697654360389
 20
131.9050194260981073
 30
0.0
 40
0.1922855691271689
 50
182.1521797525531952
 51
192.9275629575481901
  0
ARC
  5
1321F
  8
0
 10
4036.2186658476030061
 20
131.8996716023044939
 30
0.0
 40
0.0498812003389055
 50
155.6626758449712042
 51
182.1521797525531952
  0
ARC
  5
13220
  8
0
 10
4036.1952197298369356
 20
131.9102763230775963
 30
0.0
 40
0.0241483314551546
 50
121.4815323590894991
 51
155.6626758449808108
  0
ARC
  5
13221
  8
0
 10
4036.2080128785169109
 20
131.8893846897287858
 30
0.0
 40
0.0486457802437724
 50
109.7475163074767011
 51
121.4815323590903944
  0
ARC
  5
13222
  8
0
 10
4036.2411688857791887
 20
131.7970249721882112
 30
0.0
 40
0.1467765004171282
 50
100.8194762637463953
 51
109.7475163074767011
  0
ARC
  5
13223
  8
0
 10
4036.2098655988711471
 20
131.9608200336487016
 30
0.0
 40
0.0199829608741169
 50
280.8194762637203894
 51
330.1637972728073009
  0
ARC
  5
13224
  8
0
 10
4036.3465644827829237
 20
131.947643532544987
 30
0.0
 40
0.1194084558152676
 50
171.1711567126232012
 51
178.4477825920685063
  0
ARC
  5
13225
  8
0
 10
4036.2427803051500632
 20
131.964223106188399
 30
0.0
 40
0.0143165041127299
 50
141.7270586707851976
 51
172.9883574841011011
  0
ARC
  5
13226
  8
0
 10
4036.2341942919251778
 20
131.9696558011688978
 30
0.0
 40
0.0043405503251361
 50
59.366038380461319
 51
127.6844226525806931
  0
ARC
  5
13227
  8
0
 10
4036.2004760167919812
 20
131.9356742928688959
 30
0.0
 40
0.052091114837575
 50
21.2846969014708804
 51
46.3894303673563471
  0
ARC
  5
13228
  8
0
 10
4035.8990942655141225
 20
131.8046897290905122
 30
0.0
 40
0.3806729476758447
 50
12.3476183260791501
 51
23.1886579360618299
  0
ARC
  5
13229
  8
0
 10
4035.9163760219448704
 20
131.7997413916037885
 30
0.0
 40
0.3649488006910679
 50
2.1950694656396341
 51
13.6868354331101294
  0
ARC
  5
1322A
  8
0
 10
4036.2136401846219087
 20
131.8110072626992064
 30
0.0
 40
0.0674713840168294
 50
345.016426625959582
 51
2.3038957954280379
  0
ARC
  5
1322B
  8
0
 10
4036.2700967969522026
 20
131.7960102451683042
 30
0.0
 40
0.0090575960197609
 50
309.2931602504041848
 51
344.3250559031636726
  0
ARC
  5
1322C
  8
0
 10
4036.273695672780832
 20
131.7924975829824064
 30
0.0
 40
0.0040984991075019
 50
233.5596661489007033
 51
301.4301075850315215
  0
ARC
  5
1322D
  8
0
 10
4036.2939713503378698
 20
131.8180166998926097
 30
0.0
 40
0.036689599220375
 50
197.7335674825316119
 51
231.7583173738991889
  0
ARC
  5
1322E
  8
0
 10
4036.2469123869950636
 20
131.7864297555836117
 30
0.0
 40
0.0237350483182645
 50
59.3141040720416584
 51
105.255025198710797
  0
ARC
  5
1322F
  8
0
 10
4035.5807928194140004
 20
134.2062822063437011
 30
0.0
 40
2.4861258042780312
 50
284.9571438135603216
 51
285.3920778303066754
  0
ARC
  5
13230
  8
0
 10
4036.2164523280612229
 20
131.8364345548502001
 30
0.0
 40
0.0326030932808341
 50
203.149910152332609
 51
280.6061189375431013
  0
ARC
  5
13231
  8
0
 10
4036.3312677224507752
 20
131.8937060289813985
 30
0.0
 40
0.1608650286045817
 50
191.3667151304377114
 51
205.8298851902783042
  0
ARC
  5
13232
  8
0
 10
4036.1780513355261064
 20
131.8828424220652096
 30
0.0
 40
0.0039828946248846
 50
142.8246920528447106
 51
177.2103020450865927
  0
ARC
  5
13233
  8
0
 10
4036.1755979334870972
 20
131.8845373499461004
 30
0.0
 40
0.0010125160164757
 50
42.219349346639369
 51
135.3349509105742925
  0
ARC
  5
13234
  8
0
 10
4036.163335326638844
 20
131.8733778245102997
 30
0.0
 40
0.0175928206111857
 50
19.4263451415530888
 51
42.2987589215684565
  0
ARC
  5
13235
  8
0
 10
4036.0860709621238129
 20
131.8421481792690031
 30
0.0
 40
0.1009151772433139
 50
11.8562942189722094
 51
21.5582205636848308
  0
ARC
  5
13236
  8
0
 10
4036.1010862173848182
 20
131.8431840586393093
 30
0.0
 40
0.0860323639255562
 50
0.9954906099584253
 51
13.2358173168517492
  0
ARC
  5
13237
  8
0
 10
4036.1749555822780167
 20
131.844528640650509
 30
0.0
 40
0.0121509411603088
 50
340.4000502759807887
 51
0.707883097914682
  0
ARC
  5
13238
  8
0
 10
4036.1851997131370808
 20
131.8410576369253988
 30
0.0
 40
0.0013463643492345
 50
259.6041613160668931
 51
333.2956443711452152
  0
ARC
  5
13239
  8
0
 10
4036.1970698982049726
 20
131.8519933340332102
 30
0.0
 40
0.0172346925866386
 50
197.2007223395056883
 51
225.3451535265454879
  0
ARC
  5
1323A
  8
0
 10
4036.2880371686428589
 20
131.8866158857532014
 30
0.0
 40
0.114538479853049
 50
188.6461206397526951
 51
200.290247558260802
  0
ARC
  5
1323B
  8
0
 10
4036.2268964647450957
 20
131.8790136534915973
 30
0.0
 40
0.0529762481019842
 50
175.6451989611558133
 51
190.4585570901820972
  0
ARC
  5
1323C
  8
0
 10
4036.0393084470210852
 20
132.2547534179522017
 30
0.0
 40
0.3903042724351978
 50
286.3497505480415271
 51
289.4926407034038789
  0
ARC
  5
1323D
  8
0
 10
4036.1686238255610988
 20
131.7862362372806899
 30
0.0
 40
0.0959865001208654
 50
101.6877344600674036
 51
108.8892556255067063
  0
ARC
  5
1323E
  8
0
 10
4036.1474766309570441
 20
131.8480399547520108
 30
0.0
 40
0.0306649620730225
 50
108.8892556255067063
 51
177.606374309878305
  0
ARC
  5
1323F
  8
0
 10
4036.4491689289970964
 20
131.8652511798150044
 30
0.0
 40
0.3327121061371611
 50
182.7444164655622956
 51
190.9912005515392082
  0
ARC
  5
13240
  8
0
 10
4036.4204384217150618
 20
131.8501878282156099
 30
0.0
 40
0.3017802869905732
 50
189.2234579048871979
 51
196.2203003743142915
  0
ARC
  5
13241
  8
0
 10
4036.1583949052242133
 20
131.7732066554137873
 30
0.0
 40
0.0286732580693935
 50
194.781510311404702
 51
284.3458369336822784
  0
ARC
  5
13242
  8
0
 10
-91.3769238965869448
 20
15236.9013491206496838
 30
0.0
 40
15658.9380825394491694
 50
285.2831983224630221
 51
285.2832549043599215
  0
ARC
  5
13243
  8
0
 10
4036.1863143500240767
 20
131.7184486468848945
 30
0.0
 40
0.0316100843905962
 50
51.7938876014606109
 51
100.7536215536999009
  0
ARC
  5
13244
  8
0
 10
4036.1911207362809364
 20
131.7245551337367999
 30
0.0
 40
0.0238389499479821
 50
7.8207514685346
 51
51.793887601462103
  0
ARC
  5
13245
  8
0
 10
4035.2524140498080669
 20
131.6510378633815037
 30
0.0
 40
0.9677410532359033
 50
6.0503690953748661
 51
9.1538593620251802
  0
ARC
  5
13246
  8
0
 10
4036.0968597514161047
 20
131.7405433111262028
 30
0.0
 40
0.1185651184966377
 50
353.8294801568496268
 51
6.050369095375677
  0
ARC
  5
13247
  8
0
 10
4036.0866281833450557
 20
131.9572516788925896
 30
0.0
 40
0.0062920112777707
 50
171.9779170968153892
 51
185.0938114054725929
  0
ARC
  5
13248
  8
0
 10
4036.0494857215248885
 20
131.9466878043367899
 30
0.0
 40
0.0329616660157387
 50
17.8982361594700308
 51
20.3118204979476111
  0
ARC
  5
13249
  8
0
 10
4035.5984027531681022
 20
131.8612430474454982
 30
0.0
 40
0.491825150020027
 50
7.6967084600869127
 51
11.2053962390030204
  0
ARC
  5
1324A
  8
0
 10
4035.658282538090134
 20
131.8665796014610123
 30
0.0
 40
0.4317787456457989
 50
6.748052578251114
 51
8.0591302991170384
  0
ARC
  5
1324B
  8
0
 10
4035.999622196468863
 20
131.9065095098256108
 30
0.0
 40
0.0881130012627109
 50
3.6008000354869671
 51
7.0441544212782716
  0
ARC
  5
1324C
  8
0
 10
4036.0774677565082129
 20
131.9123428937820961
 30
0.0
 40
0.0100979354208247
 50
353.0670643800007724
 51
358.3004138329436046
  0
ARC
  5
1324D
  8
0
 10
4036.0983806842618833
 20
131.9157060114939952
 30
0.0
 40
0.0118136113145375
 50
189.4547858210829077
 51
202.8213386501730042
  0
ARC
  5
1324E
  8
0
 10
4036.6053992765100702
 20
132.0126247484687951
 30
0.0
 40
0.5280090210397136
 50
186.0807200245606907
 51
190.7911985144316986
  0
ARC
  5
1324F
  8
0
 10
4036.1281751837709635
 20
131.8261039439850038
 30
0.0
 40
0.0062920112777707
 50
171.9779170968153892
 51
185.0938114054725929
  0
ARC
  5
13250
  8
0
 10
4036.0910327219507963
 20
131.8155400694292041
 30
0.0
 40
0.0329616660157387
 50
17.8982361594700308
 51
20.3118204979476111
  0
ARC
  5
13251
  8
0
 10
4035.6399497535949195
 20
131.7300953125379124
 30
0.0
 40
0.491825150020027
 50
7.6967084600869127
 51
11.2053962390030204
  0
ARC
  5
13252
  8
0
 10
4035.6998295385160418
 20
131.7354318665535118
 30
0.0
 40
0.4317787456457989
 50
6.748052578251114
 51
8.0591302991170384
  0
ARC
  5
13253
  8
0
 10
4036.0411691968938612
 20
131.7753617749179966
 30
0.0
 40
0.0881130012627109
 50
3.6008000354869671
 51
7.0441544212782716
  0
ARC
  5
13254
  8
0
 10
4036.1190147569341207
 20
131.7811951588745956
 30
0.0
 40
0.0100979354208247
 50
353.0670643800007724
 51
358.3004138329436046
  0
ARC
  5
13255
  8
0
 10
4036.1399276846891553
 20
131.7845582765864947
 30
0.0
 40
0.0118136113145375
 50
189.4547858210829077
 51
202.8213386501730042
  0
ARC
  5
13256
  8
0
 10
4036.6469462769359779
 20
131.8814770135612093
 30
0.0
 40
0.5280090210397136
 50
186.0807200245606907
 51
190.7911985144316986
  0
ARC
  5
13257
  8
0
 10
4042.6066304808618952
 20
132.8339484313353864
 30
0.0
 40
6.5131654832052499
 50
189.5800307721818001
 51
191.0607692480695903
  0
ARC
  5
13258
  8
0
 10
4036.1597825057788214
 20
131.6613428217596038
 30
0.0
 40
0.0394857153711517
 50
285.3483809594152945
 51
8.1050925617615572
  0
ARC
  5
13259
  8
0
 10
4034.5792927278721436
 20
137.4195324334839086
 30
0.0
 40
6.0106410091676823
 50
285.2181003870916811
 51
285.3483809594152945
  0
ARC
  5
1325A
  8
0
 10
4036.1644323727291521
 20
131.5925253961320891
 30
0.0
 40
0.0281236581332164
 50
105.2181003870922069
 51
202.1307827415544978
  0
ARC
  5
1325B
  8
0
 10
4061.0448558903758567
 20
136.3795932366963939
 30
0.0
 40
25.3643465102405301
 50
190.9031752802447954
 51
191.3540399920563004
  0
ARC
  5
1325C
  8
0
 10
4036.2038719664337805
 20
131.3916534359439083
 30
0.0
 40
0.0275352202428554
 50
191.6561727965315924
 51
234.5500395212237095
  0
ARC
  5
1325D
  8
0
 10
4036.3798752525322016
 20
131.5528859015159071
 30
0.0
 40
0.1922855691271689
 50
182.1521797525531952
 51
192.9275629575481901
  0
ARC
  5
1325E
  8
0
 10
4036.2375713346991688
 20
131.5475380777222938
 30
0.0
 40
0.0498812003389055
 50
155.6626758449712042
 51
182.1521797525531952
  0
ARC
  5
1325F
  8
0
 10
4036.2141252169330983
 20
131.5581427984953962
 30
0.0
 40
0.0241483314551546
 50
121.4815323590894991
 51
155.6626758449808108
  0
ARC
  5
13260
  8
0
 10
4036.2269183656130735
 20
131.5372511651466141
 30
0.0
 40
0.0486457802437724
 50
109.7475163074767011
 51
121.4815323590903944
  0
ARC
  5
13261
  8
0
 10
4036.2600743728748967
 20
131.4448914476060111
 30
0.0
 40
0.1467765004171282
 50
100.8194762637463953
 51
109.7475163074767011
  0
ARC
  5
13262
  8
0
 10
4036.228771085966855
 20
131.6086865090665015
 30
0.0
 40
0.0199829608741169
 50
280.8194762637203894
 51
330.1637972728073009
  0
ARC
  5
13263
  8
0
 10
4036.3654699698781769
 20
131.5955100079627869
 30
0.0
 40
0.1194084558152676
 50
171.1711567126232012
 51
178.4477825920685063
  0
ARC
  5
13264
  8
0
 10
4036.2616857922462259
 20
131.6120895816061989
 30
0.0
 40
0.0143165041127299
 50
141.7270586707851976
 51
172.9883574841011011
  0
ARC
  5
13265
  8
0
 10
4036.2530997790199763
 20
131.6175222765866977
 30
0.0
 40
0.0043405503251361
 50
59.366038380461319
 51
127.6844226525806931
  0
ARC
  5
13266
  8
0
 10
4036.2193815038881439
 20
131.5835407682866958
 30
0.0
 40
0.052091114837575
 50
21.2846969014708804
 51
46.3894303673563471
  0
ARC
  5
13267
  8
0
 10
4035.9179997526098305
 20
131.452556204508312
 30
0.0
 40
0.3806729476758447
 50
12.3476183260791501
 51
23.1886579360618299
  0
ARC
  5
13268
  8
0
 10
4035.9352815090410331
 20
131.4476078670215884
 30
0.0
 40
0.3649488006910679
 50
6.0084636273480774
 51
13.6868354331101294
  0
ARC
  5
13269
  8
0
 10
4036.312876837434942
 20
131.4658831753104096
 30
0.0
 40
0.036689599220375
 50
197.7335674825316119
 51
205.6237913978160918
  0
ARC
  5
1326A
  8
0
 10
4036.2658178740912263
 20
131.4342962310014116
 30
0.0
 40
0.0237350483182645
 50
59.3141040720416584
 51
105.255025198710797
  0
ARC
  5
1326B
  8
0
 10
4035.5996983065101631
 20
133.8541486817615009
 30
0.0
 40
2.4861258042780312
 50
284.9571438135603216
 51
285.3920778303066754
  0
ARC
  5
1326C
  8
0
 10
4036.2353578151578404
 20
131.484301030268
 30
0.0
 40
0.0326030932808341
 50
203.149910152332609
 51
280.6061189375431013
  0
ARC
  5
1326D
  8
0
 10
4036.3501732095469379
 20
131.5415725043991131
 30
0.0
 40
0.1608650286045817
 50
191.3667151304377114
 51
205.8298851902783042
  0
ARC
  5
1326E
  8
0
 10
4036.1969568226231786
 20
131.5307088974828957
 30
0.0
 40
0.0039828946248846
 50
142.8246920528447106
 51
177.2103020450865927
  0
ARC
  5
1326F
  8
0
 10
4036.1945034205841694
 20
131.5324038253639003
 30
0.0
 40
0.0010125160164757
 50
42.219349346639369
 51
135.3349509105742925
  0
ARC
  5
13270
  8
0
 10
4036.1822408137359162
 20
131.5212442999280995
 30
0.0
 40
0.0175928206111857
 50
19.4263451415530888
 51
42.2987589215684565
  0
ARC
  5
13271
  8
0
 10
4036.1049764492199756
 20
131.4900146546868029
 30
0.0
 40
0.1009151772433139
 50
11.8562942189722094
 51
21.5582205636848308
  0
ARC
  5
13272
  8
0
 10
4036.1199917044809808
 20
131.4910505340569955
 30
0.0
 40
0.0860323639255562
 50
0.9954906099584253
 51
13.2358173168517492
  0
ARC
  5
13273
  8
0
 10
4036.1938610693728151
 20
131.4923951160683089
 30
0.0
 40
0.0121509411603088
 50
340.4000502759807887
 51
0.707883097914682
  0
ARC
  5
13274
  8
0
 10
4036.2041052002327888
 20
131.4889241123431987
 30
0.0
 40
0.0013463643492345
 50
259.6041613160668931
 51
333.2956443711452152
  0
ARC
  5
13275
  8
0
 10
4036.2159753853011352
 20
131.4998598094510101
 30
0.0
 40
0.0172346925866386
 50
197.2007223395056883
 51
225.3451535265454879
  0
ARC
  5
13276
  8
0
 10
4036.3069426557381121
 20
131.5344823611710012
 30
0.0
 40
0.114538479853049
 50
188.6461206397526951
 51
200.290247558260802
  0
ARC
  5
13277
  8
0
 10
4036.2458019518408037
 20
131.5268801289093972
 30
0.0
 40
0.0529762481019842
 50
175.6451989611558133
 51
190.4585570901820972
  0
ARC
  5
13278
  8
0
 10
4036.2064108224080883
 20
131.4723226312434008
 30
0.0
 40
0.0382877762266311
 50
285.0145135537613896
 51
327.7264391596428936
  0
ARC
  5
13279
  8
0
 10
4036.5562202610590248
 20
130.1681375717728031
 30
0.0
 40
1.3119956431766751
 50
105.0145135537614038
 51
105.5514903096053985
  0
ARC
  5
1327A
  8
0
 10
4036.2121265453829437
 20
131.4045834705187872
 30
0.0
 40
0.0285631573430769
 50
105.5514903096055974
 51
186.2857154367054022
  0
ARC
  5
1327B
  8
0
 10
4036.4981951055219724
 20
131.4257187194588141
 30
0.0
 40
0.315394616857119
 50
184.4119817292543075
 51
190.3189877050544112
  0
ARC
  5
1327C
  8
0
 10
4038.1065617853309959
 20
131.7108509475401092
 30
0.0
 40
1.9488371340496691
 50
190.0960321596585914
 51
194.4524926053020124
  0
ARC
  5
1327D
  8
0
 10
4036.3427724021480572
 20
131.2498358778603915
 30
0.0
 40
0.1259580842466729
 50
191.6198727379450872
 51
208.8375593142322089
  0
ARC
  5
1327E
  8
0
 10
4036.2550340464890724
 20
131.2055163117728114
 30
0.0
 40
0.0279429831464199
 50
216.023000844267699
 51
281.9225091978423734
  0
ARC
  5
1327F
  8
0
 10
4036.298221020136225
 20
131.0478241800564092
 30
0.0
 40
0.135615100007536
 50
101.1889834281949021
 51
106.0148054497316963
  0
ARC
  5
13280
  8
0
 10
4036.2774130516581863
 20
131.1420851555513138
 30
0.0
 40
0.0391655954543622
 50
53.2678832938330586
 51
98.0838680522669222
  0
ARC
  5
13281
  8
0
 10
4036.1909183571478934
 20
131.3702175510426002
 30
0.0
 40
0.0003060979840051
 50
35.1680510007512765
 51
186.1404328198572955
  0
ARC
  5
13282
  8
0
 10
4036.0439881326137765
 20
131.3114033718125881
 30
0.0
 40
0.1585621705011567
 50
12.9553638945522795
 51
21.8411008841380792
  0
ARC
  5
13283
  8
0
 10
4034.7926212325078268
 20
130.9914111309832947
 30
0.0
 40
1.4501530561651821
 50
10.2755246138317808
 51
14.1921482252467808
  0
ARC
  5
13284
  8
0
 10
4036.0564838166851587
 20
131.2168144277563897
 30
0.0
 40
0.166393582964976
 50
3.4859683398572501
 51
11.5366264669654104
  0
ARC
  5
13285
  8
0
 10
4036.2199239681358449
 20
131.2267706802493876
 30
0.0
 40
0.0026504607588525
 50
342.4356234294270962
 51
3.4859683398101118
  0
ARC
  5
13286
  8
0
 10
4036.2221353115601232
 20
131.22607071374361
 30
0.0
 40
0.0003309795998676
 50
223.4204598245813997
 51
342.4356234288412111
  0
ARC
  5
13287
  8
0
 10
4036.4891737565521908
 20
131.3241836136959932
 30
0.0
 40
0.2847960935546717
 50
192.3071636251887924
 51
200.2001756897504947
  0
ARC
  5
13288
  8
0
 10
4037.6392866508372208
 20
131.6074178802321057
 30
0.0
 40
1.469189620810502
 50
190.4796856073481024
 51
193.5386565480696959
  0
ARC
  5
13289
  8
0
 10
4036.4017445875579142
 20
131.3830087119816028
 30
0.0
 40
0.2115196705106
 50
183.475829844756305
 51
191.678886790698698
  0
ARC
  5
1328A
  8
0
 10
4033.3963068171810846
 20
130.68828726492589
 30
0.0
 40
2.9589927534460001
 50
9.6529065192845422
 51
15.0311259641970594
  0
ARC
  5
1328B
  8
0
 10
4035.9566345370080853
 20
131.0908567932210076
 30
0.0
 40
0.3847267850202507
 50
14.8911547350813596
 51
18.7084234337877113
  0
ARC
  5
1328C
  8
0
 10
4036.2693069344591095
 20
131.1967417979801951
 30
0.0
 40
0.0546121649853863
 50
18.7084234337869404
 51
24.6198201594748802
  0
ARC
  5
1328D
  8
0
 10
4036.3051367735670283
 20
131.2131609740395959
 30
0.0
 40
0.0151993915111695
 50
24.6198201594615504
 51
36.9370827025128392
  0
ARC
  5
1328E
  8
0
 10
4036.3168666808901435
 20
131.2219799148575987
 30
0.0
 40
0.0005240910719257
 50
36.9370827021747701
 51
186.3696682797587982
  0
ARC
  5
1328F
  8
0
 10
4036.3769734709921977
 20
131.2124760678040047
 30
0.0
 40
0.0613590477814504
 50
171.1445890008110098
 51
204.0945489707646914
  0
ARC
  5
13290
  8
0
 10
4036.243845969980157
 20
131.1729995627171945
 30
0.0
 40
0.0197204397079079
 50
125.3572285576215961
 51
191.7711384774943895
  0
ARC
  5
13291
  8
0
 10
4038.7345274506837995
 20
131.6920207869970056
 30
0.0
 40
2.5639054309317681
 50
191.7711384774943895
 51
194.4237714821707073
  0
ARC
  5
13292
  8
0
 10
4036.2708501457332204
 20
131.0583663118052868
 30
0.0
 40
0.0200454000223025
 50
194.4237714821643976
 51
284.198623867557103
  0
ARC
  5
13293
  8
0
 10
4036.1643000036078774
 20
131.4794909051663865
 30
0.0
 40
0.4544402157376668
 50
284.198623867557103
 51
286.147583053145695
  0
ARC
  5
13294
  8
0
 10
4036.2995675618608402
 20
131.0046632753731046
 30
0.0
 40
0.0393317702032326
 50
25.1090015689068906
 51
103.0513540439133067
  0
ARC
  5
13295
  8
0
 10
4040.8546316647621097
 20
132.0578062214611919
 30
0.0
 40
4.6353395747792767
 50
192.4472421650951901
 51
192.884186353090513
  0
LINE
  5
13296
  8
0
 10
4036.357884590554022
 20
130.973023397903205
 30
0.0
 11
4036.3442768783111205
 21
131.0211705430166091
 31
0.0
  0
ARC
  5
13297
  8
0
 10
4036.1489051162911892
 20
130.965953090108286
 30
0.0
 40
0.2030248568545442
 50
15.7817565244884701
 51
20.8933563249827685
  0
ARC
  5
13298
  8
0
 10
4036.3003149324208607
 20
131.0237507608806027
 30
0.0
 40
0.0409585026441254
 50
20.89335632497896
 51
26.6360374561566289
  0
ARC
  5
13299
  8
0
 10
4036.3344333270579227
 20
131.0408628294671018
 30
0.0
 40
0.0027893037527614
 50
26.6360374561748294
 51
43.7935861259104371
  0
ARC
  5
1329A
  8
0
 10
4036.3362486321889264
 20
131.0426032544546899
 30
0.0
 40
0.0002744654165724
 50
43.7935861265263213
 51
175.9192261079844002
  0
ARC
  5
1329B
  8
0
 10
4036.363227767727949
 20
131.0406784653592922
 30
0.0
 40
0.0273221745141984
 50
175.9192261079917046
 51
196.2755428429443043
  0
ARC
  5
1329C
  8
0
 10
4036.3017076865789932
 20
131.0325807923084085
 30
0.0
 40
0.0352955907054393
 50
346.2862623548599004
 51
0.7149950245947631
  0
ARC
  5
1329D
  8
0
 10
4036.2385727831028817
 20
131.0504149123891011
 30
0.0
 40
0.1008861841076593
 50
343.258003292633191
 51
344.9468311597221941
  0
ARC
  5
1329E
  8
0
 10
4036.2980342977812143
 20
131.0334182718983129
 30
0.0
 40
0.0390583560892557
 50
285.225462710547788
 51
342.0074174402483891
  0
LINE
  5
1329F
  8
0
 10
4036.30829172568383
 20
130.9957308687878026
 30
0.0
 11
4036.2915072841979054
 21
130.9911368627062132
 31
0.0
  0
ARC
  5
132A0
  8
0
 10
4036.29717167157105
 20
130.9714891642533985
 30
0.0
 40
0.020459282896261
 50
106.9133678498394033
 51
191.7742367171613012
  0
ARC
  5
132A1
  8
0
 10
4037.7650575186607966
 20
131.2774577117693013
 30
0.0
 40
1.519894380576001
 50
191.7742367171613012
 51
196.1616722904404924
  0
ARC
  5
132A2
  8
0
 10
4036.3272628704958152
 20
130.8607825366397037
 30
0.0
 40
0.0229402557422839
 50
196.1616722904389007
 51
266.2989618655897175
  0
ARC
  5
132A3
  8
0
 10
4034.5673838442880879
 20
130.3660386510125022
 30
0.0
 40
1.916289627757197
 50
12.2644314992115593
 51
15.9142303262128095
  0
ARC
  5
132A4
  8
0
 10
4034.9684338256270166
 20
130.4803884407315024
 30
0.0
 40
1.499256101598254
 50
15.9142303262135894
 51
19.2892558056830588
  0
ARC
  5
132A5
  8
0
 10
4036.1757134025638152
 20
130.9029175977302089
 30
0.0
 40
0.2201724978395948
 50
19.2892558056822985
 51
27.339297556438229
  0
ARC
  5
132A6
  8
0
 10
4036.3578900413122028
 20
130.9971042648899129
 30
0.0
 40
0.0150884760925219
 50
27.3392975564534204
 51
45.5208663176498973
  0
ARC
  5
132A7
  8
0
 10
4036.367265660699104
 20
131.0066519173041115
 30
0.0
 40
0.0017071493459236
 50
45.5208663176362123
 51
127.3215645216269962
  0
ARC
  5
132A8
  8
0
 10
4036.3742548662671652
 20
131.0042326749704102
 30
0.0
 40
0.0088686421408896
 50
154.7945681695215967
 51
178.0836144471406044
  0
ARC
  5
132A9
  8
0
 10
4036.4785586902758041
 20
131.0022957319883972
 30
0.0
 40
0.1131895445278699
 50
178.8693343211743922
 51
186.5776247573867863
  0
ARC
  5
132AA
  8
0
 10
4036.3309023400502156
 20
130.9968707831943959
 30
0.0
 40
0.0360102711388866
 50
318.529187836891424
 51
347.912362536200817
  0
ARC
  5
132AB
  8
0
 10
4036.3291212071981136
 20
130.9977545619697139
 30
0.0
 40
0.037933661807996
 50
285.3053215849146227
 51
319.3105906490159782
  0
ARC
  5
132AC
  8
0
 10
4036.3441276794878831
 20
130.925925198289093
 30
0.0
 40
0.035593104737103
 50
98.0647028444915776
 51
173.0808446511512955
  0
ARC
  5
132AD
  8
0
 10
4036.8426593549079371
 20
130.98072478997139
 30
0.0
 40
0.5362498218861689
 50
185.4049549664534027
 51
195.4476871560121083
  0
ARC
  5
132AE
  8
0
 10
4036.9867804401587819
 20
130.9857647731899988
 30
0.0
 40
0.6773372570601593
 50
192.6102371672400864
 51
203.0096700931599116
  0
ARC
  5
132AF
  8
0
 10
4036.3887701344738161
 20
130.7358945693434009
 30
0.0
 40
0.0294757293553774
 50
210.3460591193897073
 51
282.3873047064993784
  0
ARC
  5
132B0
  8
0
 10
4036.4151640732061423
 20
130.6517787005037974
 30
0.0
 40
0.0588544164227268
 50
92.8550690055388941
 51
109.9393451193987943
  0
ARC
  5
132B1
  8
0
 10
4036.6021594120288682
 20
130.7405855065088076
 30
0.0
 40
0.1922855691271689
 50
182.1521797525531952
 51
192.9275629575481901
  0
ARC
  5
132B2
  8
0
 10
4036.4598554941958355
 20
130.7352376827151943
 30
0.0
 40
0.0498812003389055
 50
155.6626758449712042
 51
182.1521797525531952
  0
ARC
  5
132B3
  8
0
 10
4036.4364093764302197
 20
130.7458424034882967
 30
0.0
 40
0.0241483314551546
 50
121.4815323590894991
 51
155.6626758449808108
  0
ARC
  5
132B4
  8
0
 10
4036.4492025251111045
 20
130.7249507701394862
 30
0.0
 40
0.0486457802437724
 50
109.7475163074767011
 51
121.4815323590903944
  0
ARC
  5
132B5
  8
0
 10
4036.4823585323729276
 20
130.6325910525987979
 30
0.0
 40
0.1467765004171282
 50
100.8194762637463953
 51
109.7475163074767011
  0
ARC
  5
132B6
  8
0
 10
4036.451055245463067
 20
130.796386114059402
 30
0.0
 40
0.0199829608741169
 50
280.8194762637203894
 51
330.1637972728073009
  0
ARC
  5
132B7
  8
0
 10
4036.5877541293748436
 20
130.7832096129556874
 30
0.0
 40
0.1194084558152676
 50
171.1711567126232012
 51
178.4477825920685063
  0
ARC
  5
132B8
  8
0
 10
4036.4839699517428926
 20
130.7997891865990994
 30
0.0
 40
0.0143165041127299
 50
141.7270586707851976
 51
172.9883574841011011
  0
ARC
  5
132B9
  8
0
 10
4036.4753839385170977
 20
130.8052218815795982
 30
0.0
 40
0.0043405503251361
 50
59.366038380461319
 51
127.6844226525806931
  0
ARC
  5
132BA
  8
0
 10
4036.4416656633848106
 20
130.771240373279511
 30
0.0
 40
0.052091114837575
 50
21.2846969014708804
 51
46.3894303673563471
  0
ARC
  5
132BB
  8
0
 10
4036.1402839121060424
 20
130.6402558095012125
 30
0.0
 40
0.3806729476758447
 50
12.3476183260791501
 51
23.1886579360618299
  0
ARC
  5
132BC
  8
0
 10
4036.1575656685381546
 20
130.6353074720144889
 30
0.0
 40
0.3649488006910679
 50
2.1950694656396341
 51
13.6868354331101294
  0
ARC
  5
132BD
  8
0
 10
4036.4548298312161023
 20
130.6465733431099068
 30
0.0
 40
0.0674713840168294
 50
345.016426625959582
 51
2.3038957954280379
  0
ARC
  5
132BE
  8
0
 10
4036.5112864435450319
 20
130.6315763255790046
 30
0.0
 40
0.0090575960197609
 50
309.2931602504041848
 51
344.3250559031636726
  0
ARC
  5
132BF
  8
0
 10
4036.5148853193718423
 20
130.6280636633931067
 30
0.0
 40
0.0040984991075019
 50
233.5596661489007033
 51
301.4301075850315215
  0
ARC
  5
132C0
  8
0
 10
4036.5351609969311539
 20
130.6535827803033101
 30
0.0
 40
0.036689599220375
 50
197.7335674825316119
 51
231.7583173738991889
  0
ARC
  5
132C1
  8
0
 10
4036.4881020335878929
 20
130.6219958359943121
 30
0.0
 40
0.0237350483182645
 50
59.3141040720416584
 51
105.255025198710797
  0
ARC
  5
132C2
  8
0
 10
4035.8219824660059203
 20
133.0418482867544014
 30
0.0
 40
2.4861258042780312
 50
284.9571438135603216
 51
285.3920778303066754
  0
ARC
  5
132C3
  8
0
 10
4036.4576419746549618
 20
130.6720006352609005
 30
0.0
 40
0.0326030932808341
 50
203.149910152332609
 51
280.6061189375431013
  0
ARC
  5
132C4
  8
0
 10
4036.5724573690440593
 20
130.7292721093920136
 30
0.0
 40
0.1608650286045817
 50
191.3667151304377114
 51
205.8298851902783042
  0
ARC
  5
132C5
  8
0
 10
4036.4192409821189358
 20
130.7184085024759099
 30
0.0
 40
0.0039828946248846
 50
142.8246920528447106
 51
177.2103020450865927
  0
ARC
  5
132C6
  8
0
 10
4036.4167875800799266
 20
130.7201034303568008
 30
0.0
 40
0.0010125160164757
 50
42.219349346639369
 51
135.3349509105742925
  0
ARC
  5
132C7
  8
0
 10
4036.4045249732321281
 20
130.708943904921
 30
0.0
 40
0.0175928206111857
 50
19.4263451415530888
 51
42.2987589215684565
  0
ARC
  5
132C8
  8
0
 10
4036.3272606087161876
 20
130.6777142596797034
 30
0.0
 40
0.1009151772433139
 50
11.8562942189722094
 51
21.5582205636848308
  0
ARC
  5
132C9
  8
0
 10
4036.3422758639781023
 20
130.6787501390500097
 30
0.0
 40
0.0860323639255562
 50
0.9954906099584253
 51
13.2358173168517492
  0
ARC
  5
132CA
  8
0
 10
4036.416145228870846
 20
130.6800947210612094
 30
0.0
 40
0.0121509411603088
 50
340.4000502759807887
 51
0.707883097914682
  0
ARC
  5
132CB
  8
0
 10
4036.4263893597290007
 20
130.6766237173360992
 30
0.0
 40
0.0013463643492345
 50
259.6041613160668931
 51
333.2956443711452152
  0
ARC
  5
132CC
  8
0
 10
4036.4382595447978019
 20
130.6875594144437969
 30
0.0
 40
0.0172346925866386
 50
197.2007223395056883
 51
225.3451535265454879
  0
ARC
  5
132CD
  8
0
 10
4036.5292268152347788
 20
130.7221819661639017
 30
0.0
 40
0.114538479853049
 50
188.6461206397526951
 51
200.290247558260802
  0
ARC
  5
132CE
  8
0
 10
4036.4680861113370156
 20
130.7145797339022977
 30
0.0
 40
0.0529762481019842
 50
175.6451989611558133
 51
190.4585570901820972
  0
ARC
  5
132CF
  8
0
 10
4036.3177273183041507
 20
130.8968123237885095
 30
0.0
 40
0.0005848612775523
 50
31.5471496337785702
 51
164.0893012141380893
  0
ARC
  5
132D0
  8
0
 10
4036.2618087259720596
 20
130.8624820377912954
 30
0.0
 40
0.0662008464105388
 50
18.9456857346242806
 51
31.5471496337785702
  0
ARC
  5
132D1
  8
0
 10
4035.5928582387291499
 20
130.6328530066292899
 30
0.0
 40
0.7734661759268021
 50
13.7355398854114501
 51
18.9456857346250516
  0
ARC
  5
132D2
  8
0
 10
4035.5922508713920251
 20
130.6327045472411044
 30
0.0
 40
0.7740914240952831
 50
10.0535014199598791
 51
13.7355398854114501
  0
ARC
  5
132D3
  8
0
 10
4036.2845544064621208
 20
130.7554430047603944
 30
0.0
 40
0.0709919193130199
 50
2.4026327837769168
 51
10.0535014199630801
  0
ARC
  5
132D4
  8
0
 10
4036.3328387382198343
 20
130.7574689404607113
 30
0.0
 40
0.0226651036856074
 50
354.4241274445756176
 51
2.4026327837639001
  0
ARC
  5
132D5
  8
0
 10
4036.3544162119719658
 20
130.7553624239853036
 30
0.0
 40
0.0009850486762284
 50
231.3719837835089947
 51
354.4241274445853946
  0
ARC
  5
132D6
  8
0
 10
4036.5296696048708327
 20
130.8401109921225896
 30
0.0
 40
0.1955582069993605
 50
195.1281795267246082
 51
205.9318996751993893
  0
ARC
  5
132D7
  8
0
 10
4037.2376091453229492
 20
131.058917407125108
 30
0.0
 40
0.9364416902384888
 50
191.5477154635142085
 51
196.7477037775607016
  0
ARC
  5
132D8
  8
0
 10
4036.4261520662289513
 20
130.896676842024192
 30
0.0
 40
0.108987604698826
 50
179.8444871964613014
 51
193.3796657717811911
  0
ARC
  5
132D9
  8
0
 10
4036.3438536638250298
 20
130.957932881236502
 30
0.0
 40
0.0629216138302645
 50
186.5833183945703126
 51
191.2474403230330893
  0
ARC
  5
132DA
  8
0
 10
4036.2837376399647837
 20
130.9509949563928899
 30
0.0
 40
0.0024065650749287
 50
163.7405909027951907
 51
186.5833183946286056
  0
ARC
  5
132DB
  8
0
 10
4036.2812458677758514
 20
130.9512246588932953
 30
0.0
 40
0.0004797456668368
 50
20.7016190472632893
 51
67.7751179718230929
  0
ARC
  5
132DC
  8
0
 10
4035.9218934477189578
 20
130.8279364902888062
 30
0.0
 40
0.3803928430049094
 50
13.7418538680952391
 51
18.9385150936643001
  0
ARC
  5
132DD
  8
0
 10
4035.5608119610078575
 20
130.7257854772811072
 30
0.0
 40
0.7555242087785322
 50
11.0399528322147091
 51
14.7621206126473794
  0
ARC
  5
132DE
  8
0
 10
4036.2942343770018852
 20
130.8686197246786946
 30
0.0
 40
0.0083266595955011
 50
353.054098226432302
 51
12.7924347270749603
  0
ARC
  5
132DF
  8
0
 10
4036.3050494665471888
 20
130.8699369783211921
 30
0.0
 40
0.0034499467432134
 50
199.1547291480156048
 51
222.3529472985320865
  0
ARC
  5
132E0
  8
0
 10
4036.9587369679538824
 20
131.0759902925323956
 30
0.0
 40
0.6888427869579949
 50
195.0278934270590128
 51
197.5040372404363893
  0
ARC
  5
132E1
  8
0
 10
4035.9496880349770436
 20
130.8802860920808939
 30
0.0
 40
0.338819178818505
 50
9.8081010624452745
 51
11.1248186552044395
  0
ARC
  5
132E2
  8
0
 10
4036.3789479182178184
 20
130.7249266169552868
 30
0.0
 40
0.0384085087230196
 50
284.9117895642004896
 51
331.9707669286559053
  0
ARC
  5
132E3
  8
0
 10
4036.7059122832620233
 20
129.497120971933299
 30
0.0
 40
1.232186784026422
 50
104.9117895641752938
 51
105.6533256587821938
  0
ARC
  5
132E4
  8
0
 10
4036.3789621277269362
 20
130.6639310756264933
 30
0.0
 40
0.0204350675906373
 50
105.6533256587571969
 51
194.6574148115483069
  0
ARC
  5
132E5
  8
0
 10
4037.6278485011971497
 20
130.9520568678595964
 30
0.0
 40
1.3021182751930349
 50
193.0173319480736041
 51
198.2332785422632924
  0
ARC
  5
132E6
  8
0
 10
4036.4094993585649718
 20
130.5501215089549021
 30
0.0
 40
0.0191895189576593
 50
196.5931956787997024
 51
288.4068803676943276
  0
ARC
  5
132E7
  8
0
 10
4036.4637719236561679
 20
130.3870375481224926
 30
0.0
 40
0.1526880235030233
 50
101.4788754455098001
 51
108.4068803676942991
  0
ARC
  5
132E8
  8
0
 10
4036.4413261192071332
 20
130.4975707838802919
 30
0.0
 40
0.0398987937667047
 50
49.7332166225541599
 51
101.4788754455098001
  0
ARC
  5
132E9
  8
0
 10
4036.4452399805891218
 20
130.502191278426892
 30
0.0
 40
0.0338434423503148
 50
30.1539341197004909
 51
49.7332166225792989
  0
ARC
  5
132EA
  8
0
 10
4036.5279383845868324
 20
130.5370143805799898
 30
0.0
 40
0.0563286326210914
 50
198.4456930455287988
 51
208.9653673643113052
  0
ARC
  5
132EB
  8
0
 10
4036.4802260301521528
 20
130.5106182960485057
 30
0.0
 40
0.0018014136735331
 50
209.344291739703408
 51
238.4644590124009937
  0
ARC
  5
132EC
  8
0
 10
4036.479417439484223
 20
130.5093006313825015
 30
0.0
 40
0.0002554320951725
 50
238.4644590120715009
 51
349.1835514846392243
  0
ARC
  5
132ED
  8
0
 10
4036.3663185681380128
 20
130.5035919656085071
 30
0.0
 40
0.113491026784753
 50
2.8589978571488901
 51
14.1362833493384592
  0
ARC
  5
132EE
  8
0
 10
4034.901256951321102
 20
130.178208362848892
 30
0.0
 40
1.614208962810725
 50
12.6353780627339702
 51
15.2993822047589099
  0
ARC
  5
132EF
  8
0
 10
4020.3403138246990238
 20
126.1488982219653963
 30
0.0
 40
16.7223595594808998
 50
15.4515902331606494
 51
15.5820791165233601
  0
ARC
  5
132F0
  8
0
 10
4036.1727987481958735
 20
130.5974977639187955
 30
0.0
 40
0.1960288388438187
 50
9.7966409721363341
 51
12.6245782814130898
  0
ARC
  5
132F1
  8
0
 10
4036.3821267647040258
 20
130.6443824106796967
 30
0.0
 40
0.0184854697635187
 50
182.2083342206298084
 51
192.6245782814083043
  0
ARC
  5
132F2
  8
0
 10
4036.3663121486461023
 20
130.6437725706173012
 30
0.0
 40
0.0026590998091747
 50
172.9199267388787007
 51
182.2083342206217083
  0
ARC
  5
132F3
  8
0
 10
4036.3638365684369091
 20
130.6440800461377876
 30
0.0
 40
0.0001644979228728
 50
18.5179143281893595
 51
172.9199267407313982
  0
ARC
  5
132F4
  8
0
 10
4036.3057949797748734
 20
130.6159836662845066
 30
0.0
 40
0.0646475225662915
 50
16.9891937538797215
 51
25.8118255400589405
  0
ARC
  5
132F5
  8
0
 10
4035.3791651802907836
 20
130.3224767066814991
 30
0.0
 40
1.0366469837692689
 50
14.8441918123013696
 51
17.5388697515900702
  0
ARC
  5
132F6
  8
0
 10
4035.9746148913291108
 20
130.4798323475069992
 30
0.0
 40
0.4207568408523302
 50
11.80008604850787
 51
14.9047916839121299
  0
ARC
  5
132F7
  8
0
 10
4036.3518032588631286
 20
130.5585388428887086
 30
0.0
 40
0.0354443975618597
 50
4.589443122145684
 51
11.9470080855163392
  0
ARC
  5
132F8
  8
0
 10
4036.3855024610747932
 20
130.5612964609171911
 30
0.0
 40
0.001633433958789
 50
344.2997618369661836
 51
2.753711977955045
  0
ARC
  5
132F9
  8
0
 10
4036.3869602843701614
 20
130.5608948212357916
 30
0.0
 40
0.0001215686435957
 50
206.5723308273157954
 51
340.6027809295766247
  0
ARC
  5
132FA
  8
0
 10
4036.4464633001889524
 20
130.5898415891402067
 30
0.0
 40
0.0662919796397428
 50
196.5348910834593994
 51
205.9429493984004864
  0
ARC
  5
132FB
  8
0
 10
4035.9227256304870934
 20
130.42432734015199
 30
0.0
 40
0.4829882782675488
 50
17.6754958373073592
 51
18.5541248855781689
  0
ARC
  5
132FC
  8
0
 10
4033.9116539556121097
 20
127.5795094755456063
 30
0.0
 40
3.4229647556721772
 50
20.7120583967877714
 51
22.2462448011032095
  0
ARC
  5
132FD
  8
0
 10
4036.9375670123909003
 20
128.7236345562710085
 30
0.0
 40
0.1879729430797737
 50
12.0440256227530007
 51
20.7120583967877714
  0
ARC
  5
132FE
  8
0
 10
4037.0720539082958567
 20
128.7523286536545868
 30
0.0
 40
0.0504590296207599
 50
3.0485885409427169
 51
12.0440256227498192
  0
ARC
  5
132FF
  8
0
 10
4037.1208615548412126
 20
128.7549280599077974
 30
0.0
 40
0.0015822122728015
 50
231.8472579073724944
 51
3.0485885410020712
  0
ARC
  5
13300
  8
0
 10
4036.8221760344008544
 20
128.5260885471311099
 30
0.0
 40
0.3747395568424075
 50
37.3976059465937993
 51
39.7644790308410379
  0
ARC
  5
13301
  8
0
 10
4037.0955563831298605
 20
128.7430717387767913
 30
0.0
 40
0.0270408693649052
 50
57.1337446403083078
 51
105.0748712646290954
  0
ARC
  5
13302
  8
0
 10
4036.3349790031120392
 20
131.5007126214783
 30
0.0
 40
2.8335646626861188
 50
284.8356164485338127
 51
285.422529452898516
  0
ARC
  5
13303
  8
0
 10
4037.0548687745767893
 20
128.7903923192077968
 30
0.0
 40
0.0293321962939076
 50
214.4604543772074123
 51
281.0762022306739141
  0
ARC
  5
13304
  8
0
 10
4037.2992511359720993
 20
128.9293400299713994
 30
0.0
 40
0.3103588322115081
 50
193.775256517907593
 51
210.0779542125339105
  0
ARC
  5
13305
  8
0
 10
4037.0259197864229463
 20
128.8607060119882988
 30
0.0
 40
0.0285899977100775
 50
111.8789085341670955
 51
190.6155171060169948
  0
ARC
  5
13306
  8
0
 10
4037.0586662721498215
 20
128.7591568137098079
 30
0.0
 40
0.1352334053112667
 50
105.8433564298866969
 51
108.719169122248303
  0
ARC
  5
13307
  8
0
 10
4037.1520664272588874
 20
128.876751287924094
 30
0.0
 40
0.1529347980844324
 50
195.3021530823702108
 51
201.8883591310051884
  0
ARC
  5
13308
  8
0
 10
4037.5222937036801341
 20
129.0254943306564996
 30
0.0
 40
0.5519244332469445
 50
201.8883591310051884
 51
203.2280561025420127
  0
ARC
  5
13309
  8
0
 10
4037.1110514200518082
 20
128.8489972471215879
 30
0.0
 40
0.1044074655912333
 50
203.2280561025420127
 51
207.8715635696947004
  0
ARC
  5
1330A
  8
0
 10
4037.0576574766091653
 20
128.8207605293349047
 30
0.0
 40
0.044006923973136
 50
207.8715635696896129
 51
213.6930995613545008
  0
ARC
  5
1330B
  8
0
 10
4037.0232438748657842
 20
128.7978154975544101
 30
0.0
 40
0.0026454628249896
 50
213.6930995614239919
 51
235.5413959264056984
  0
ARC
  5
1330C
  8
0
 10
4037.0218727811929966
 20
128.7958174528519919
 30
0.0
 40
0.0002222252189965
 50
235.5413959260866932
 51
345.7803139824623031
  0
ARC
  5
1330D
  8
0
 10
4036.9486041908080551
 20
128.7833925796145138
 30
0.0
 40
0.0745179389910304
 50
9.5555714596100625
 51
23.2376747539291912
  0
ARC
  5
1330E
  8
0
 10
4036.7755312594308634
 20
128.7216997204259883
 30
0.0
 40
0.2581536662582473
 50
20.6537566070690914
 51
25.8000758390030391
  0
ARC
  5
1330F
  8
0
 10
4036.9732634670358493
 20
128.8172875272506133
 30
0.0
 40
0.0385288617898519
 50
25.8000758390059701
 51
33.9426632878418388
  0
ARC
  5
13310
  8
0
 10
4037.0024364050650547
 20
128.836922475217392
 30
0.0
 40
0.0033636588913828
 50
33.9426632878600785
 51
46.2593134179862204
  0
ARC
  5
13311
  8
0
 10
4037.004046463242048
 20
128.838604911326712
 30
0.0
 40
0.0010349513966105
 50
46.2593134178343703
 51
64.249828648499232
  0
ARC
  5
13312
  8
0
 10
4037.0043976657398161
 20
128.8393330238993997
 30
0.0
 40
0.000226563424731
 50
64.2498286482988448
 51
177.6254087804773008
  0
ARC
  5
13313
  8
0
 10
4037.0129499743820816
 20
128.8389783752220126
 30
0.0
 40
0.0087862222259341
 50
177.6254087804520054
 51
197.130695126672606
  0
LINE
  5
13314
  8
0
 10
4036.9584716526301236
 20
129.0439964830198107
 30
0.0
 11
4037.0152658322358548
 21
128.887236772046009
 31
0.0
  0
LINE
  5
13315
  8
0
 10
4036.9419149112118248
 20
129.1027574115674099
 30
0.0
 11
4036.9617753611701119
 21
129.0462690436714013
 31
0.0
  0
ARC
  5
13316
  8
0
 10
4036.8517988761359447
 20
129.0076029862333087
 30
0.0
 40
0.1165756889680039
 50
14.1542858969961696
 51
19.3708977579376587
  0
ARC
  5
13317
  8
0
 10
4036.9221536150289467
 20
129.0253457565939925
 30
0.0
 40
0.044018158794172
 50
11.7731610361844599
 51
14.1542858969969494
  0
ARC
  5
13318
  8
0
 10
4036.9625244731691964
 20
129.0337599340068948
 30
0.0
 40
0.0027797717204127
 50
0.4699413294578469
 51
11.7731610362131605
  0
ARC
  5
13319
  8
0
 10
4036.9652011724729164
 20
129.0337818888496884
 30
0.0
 40
0.0001029823787469
 50
221.1102119568994908
 51
0.4699413308430057
  0
ARC
  5
1331A
  8
0
 10
4036.9950752437362098
 20
129.0508572024641865
 30
0.0
 40
0.0345106568609863
 50
201.3785282879948113
 51
209.784939566906786
  0
ARC
  5
1331B
  8
0
 10
4036.9440488873419781
 20
129.0281260248341084
 30
0.0
 40
0.0214449901272245
 50
28.2522648154520901
 51
47.7360453883507034
  0
ARC
  5
1331C
  8
0
 10
4036.9393383702931715
 20
129.0243055175334916
 30
0.0
 40
0.0274557209836635
 50
45.8229571783332901
 51
105.2903362693473071
  0
LINE
  5
1331D
  8
0
 10
4036.9320980122238325
 20
129.0507893584511976
 30
0.0
 11
4036.907742232651799
 21
129.0441317628906006
 31
0.0
  0
ARC
  5
1331E
  8
0
 10
4036.900483742923825
 20
129.0710211028506933
 30
0.0
 40
0.0278498136759091
 50
202.3708837575744894
 51
284.9996277040932
  0
ARC
  5
1331F
  8
0
 10
4037.7045139185352127
 20
129.4019405270111918
 30
0.0
 40
0.8973164252142426
 50
197.112374177041886
 51
202.3708837575744894
  0
ARC
  5
13320
  8
0
 10
4036.8709497748700414
 20
129.1453056363693861
 30
0.0
 40
0.0251406122617578
 50
130.9672354372050904
 51
197.1123741770435061
  0
ARC
  5
13321
  8
0
 10
4036.9582489212220935
 20
129.0865382553126892
 30
0.0
 40
0.0082052869202672
 50
351.2652697412523821
 51
15.7354085692010202
  0
ARC
  5
13322
  8
0
 10
4036.9658025162689228
 20
129.0853777065308918
 30
0.0
 40
0.0005630574271927
 50
222.6780665005728963
 51
351.2652697416933165
  0
ARC
  5
13323
  8
0
 10
4037.0233810199729305
 20
129.1262534441110006
 30
0.0
 40
0.0711709140455342
 50
206.8216704368668104
 51
215.4290924020455122
  0
ARC
  5
13324
  8
0
 10
4036.9406398437340613
 20
129.0770931031418911
 30
0.0
 40
0.0256959631854791
 50
41.5604326676986915
 51
87.1557400505285358
  0
ARC
  5
13325
  8
0
 10
4036.9538741803039557
 20
128.982798999287013
 30
0.0
 40
0.120553078741517
 50
95.6932976037742549
 51
108.4519129708053953
  0
ARC
  5
13326
  8
0
 10
4036.9019609832521382
 20
129.1287072406688026
 30
0.0
 40
0.0344215015086561
 50
252.7446671819270136
 51
293.5573045604522235
  0
ARC
  5
13327
  8
0
 10
4037.4003132334660222
 20
129.3462382945905063
 30
0.0
 40
0.5753727401975443
 50
198.4350046872181963
 51
204.1459040704154972
  0
ARC
  5
13328
  8
0
 10
4036.900852998775008
 20
129.1223385363884972
 30
0.0
 40
0.0280231007894987
 50
204.1459040704154972
 51
251.0452913425997963
  0
ARC
  5
13329
  8
0
 10
4037.0101776987157791
 20
129.2215115742316982
 30
0.0
 40
0.165892385728357
 50
190.6698628739353865
 51
200.1780333142459085
  0
ARC
  5
1332A
  8
0
 10
4036.8729066400978809
 20
129.1956487123713941
 30
0.0
 40
0.0262061975863045
 50
142.0368737277038917
 51
190.6698628739312937
  0
ARC
  5
1332B
  8
0
 10
4036.8766706939782125
 20
129.1927118103072871
 30
0.0
 40
0.0309804509674752
 50
107.5667138718223015
 51
142.0368737277038917
  0
ARC
  5
1332C
  8
0
 10
4036.8787750301180495
 20
129.1860647062935925
 30
0.0
 40
0.0379526975464338
 50
102.999768414590406
 51
107.5667138718225004
  0
ARC
  5
1332D
  8
0
 10
4035.5400282131681706
 20
128.6738168068330026
 30
0.0
 40
1.4862360501952181
 50
17.1930714953713704
 51
20.7908126915783313
  0
ARC
  5
1332E
  8
0
 10
4036.7054357890938263
 20
129.0344162888806068
 30
0.0
 40
0.2663152312578794
 50
11.7751186947728801
 51
17.1930714953705888
  0
ARC
  5
1332F
  8
0
 10
4036.603922656955092
 20
129.1404508183755979
 30
0.0
 40
0.367785850834312
 50
8.1287777439264026
 51
10.9546673659897404
  0
ARC
  5
13330
  8
0
 10
4036.9484905342951606
 20
129.1896666723089027
 30
0.0
 40
0.0197208822257901
 50
351.4359027283969112
 51
8.1287777439304332
  0
ARC
  5
13331
  8
0
 10
4036.9655348429159858
 20
129.1870998865518061
 30
0.0
 40
0.0024843847416274
 50
304.9508646317665921
 51
351.4359027284104968
  0
ARC
  5
13332
  8
0
 10
4036.9669172163758049
 20
129.1874786271831113
 30
0.0
 40
0.0024153964707368
 50
220.5821866018725927
 51
270.9694153231520204
  0
ARC
  5
13333
  8
0
 10
4037.0149665488552273
 20
129.2269710791777868
 30
0.0
 40
0.0646113154744974
 50
207.2648371355521135
 51
219.4608324618521067
  0
ARC
  5
13334
  8
0
 10
4036.9419424278848965
 20
129.1795111945901056
 30
0.0
 40
0.0237088087860211
 50
48.8819332437003879
 51
72.1555748970542652
  0
ARC
  5
13335
  8
0
 10
4036.9407713410341785
 20
129.178118647790086
 30
0.0
 40
0.02540254251297
 50
70.6035345425922714
 51
105.8980151228013966
  0
ARC
  5
13336
  8
0
 10
3915.472873317371068
 20
573.6759162261301981
 30
0.0
 40
460.7703696238613134
 50
285.280896851324087
 51
285.2840222361674023
  0
ARC
  5
13337
  8
0
 10
4036.9024889635497857
 20
129.2238260439067972
 30
0.0
 40
0.0287852097534333
 50
229.6600507408178942
 51
284.2355454174033866
  0
ARC
  5
13338
  8
0
 10
4036.9246958117969371
 20
129.2431318606327864
 30
0.0
 40
0.058044651592084
 50
200.2467420789936057
 51
225.2835694783757958
  0
ARC
  5
13339
  8
0
 10
4037.1436568223489303
 20
129.3454124062089932
 30
0.0
 40
0.2995527992417052
 50
190.1421450620782139
 51
204.1107204054947886
  0
ARC
  5
1333A
  8
0
 10
4036.877735327685059
 20
129.2955397157192863
 30
0.0
 40
0.0290929533685892
 50
128.228607818027001
 51
185.6729087058851917
  0
ARC
  5
1333B
  8
0
 10
4036.904716264257786
 20
129.2345873926524007
 30
0.0
 40
0.0951158040560655
 50
101.0146491604462966
 51
118.2250401834883036
  0
ARC
  5
1333C
  8
0
 10
4036.8800035082349495
 20
129.3527887624809978
 30
0.0
 40
0.0256843292605671
 50
284.751507031302026
 51
349.3365060469585046
  0
ARC
  5
1333D
  8
0
 10
4036.8828888960538279
 20
129.3556867558150998
 30
0.0
 40
0.0236282869143856
 50
341.1076354482663078
 51
14.7470124214201199
  0
ARC
  5
1333E
  8
0
 10
4036.9067677623961572
 20
129.3619722052617931
 30
0.0
 40
0.0010639615155383
 50
100.1125608871345065
 51
194.747012421474011
  0
ARC
  5
1333F
  8
0
 10
4036.8993432067081812
 20
129.3534548589927908
 30
0.0
 40
0.0119945784516406
 50
35.1385808473168382
 51
52.884923482863563
  0
ARC
  5
13340
  8
0
 10
4036.4023550337810775
 20
129.0871766966901077
 30
0.0
 40
0.575735472446373
 50
18.4387607387686892
 51
28.3262610954147611
  0
ARC
  5
13341
  8
0
 10
4053.6578853631481252
 20
135.263173564100299
 30
0.0
 40
17.8191095080427608
 50
199.1886802194296138
 51
199.4886809408878037
  0
ARC
  5
13342
  8
0
 10
4036.8213485703090555
 20
129.3436990773408866
 30
0.0
 40
0.0278167853040062
 50
24.2671243968162997
 51
105.0749822211462003
  0
LINE
  5
13343
  8
0
 10
4036.8141138996361406
 20
129.370558583756889
 30
0.0
 11
4036.790277725966007
 21
129.3641382548078127
 31
0.0
  0
ARC
  5
13344
  8
0
 10
4036.7831191111090448
 20
129.3907153956880904
 30
0.0
 40
0.0275243561967595
 50
199.549720507568793
 51
285.0749822211456035
  0
LINE
  5
13345
  8
0
 10
4036.7571814937768977
 20
129.3815050650127034
 30
0.0
 11
4036.7308376638161462
 21
129.4565082705705947
 31
0.0
  0
ARC
  5
13346
  8
0
 10
4036.7568522737210515
 20
129.4656058912412959
 30
0.0
 40
0.0275595107074187
 50
162.1497903992444947
 51
199.2753433544218922
  0
ARC
  5
13347
  8
0
 10
4036.7512645594019887
 20
129.5634326638412119
 30
0.0
 40
0.0289922604634008
 50
287.8424236629014104
 51
308.3527843858702226
  0
ARC
  5
13348
  8
0
 10
4036.6959115096601636
 20
129.7353996557156108
 30
0.0
 40
0.2096483049513091
 50
283.0150043945661196
 51
287.8424236629014104
  0
ARC
  5
13349
  8
0
 10
4036.7507212085452011
 20
129.5041079001603919
 30
0.0
 40
0.0280760449425953
 50
105.6962018082364949
 51
197.5975280238390042
  0
ARC
  5
1334A
  8
0
 10
4037.0900944715172045
 20
129.5968851707804106
 30
0.0
 40
0.3798813826093022
 50
195.4603394745319065
 51
198.8651348748157943
  0
ARC
  5
1334B
  8
0
 10
4034.1238564062241494
 20
128.4956386639150026
 30
0.0
 40
2.7843328685376831
 50
19.4143055474117183
 51
20.5729794521831693
  0
ARC
  5
1334C
  8
0
 10
4036.7767362511858664
 20
129.430609707928312
 30
0.0
 40
0.0284846379766569
 50
199.4143055474085884
 51
284.3961740823459081
  0
ARC
  5
1334D
  8
0
 10
4036.5802761421800824
 20
130.1959834838110055
 30
0.0
 40
0.818670433369072
 50
284.3961740823459081
 51
286.1074759190818781
  0
ARC
  5
1334E
  8
0
 10
4036.8146964866200506
 20
129.3842127020801911
 30
0.0
 40
0.0262702154097282
 50
57.5762462902894612
 51
106.1074759190826029
  0
ARC
  5
1334F
  8
0
 10
4036.8127181897170885
 20
129.3810982597184136
 30
0.0
 40
0.0299598508739683
 50
34.7865587348115426
 51
57.5762462902907686
  0
ARC
  5
13350
  8
0
 10
4036.889241457692151
 20
129.4199768206474062
 30
0.0
 40
0.0563034237034237
 50
202.7640018988271038
 51
208.8507739076760004
  0
ARC
  5
13351
  8
0
 10
4036.8403412831139576
 20
129.39293419635041
 30
0.0
 40
0.0004333947354327
 50
196.8282170717235999
 51
351.8707035663351803
  0
ARC
  5
13352
  8
0
 10
4036.7710371391658555
 20
129.3814224881649011
 30
0.0
 40
0.0706670297660527
 50
9.3249449394860431
 51
16.1878788718806206
  0
ARC
  5
13353
  8
0
 10
4034.9267187880418533
 20
128.8272163043704097
 30
0.0
 40
1.9964507999840659
 50
16.7061771868031599
 51
20.7097965516018405
  0
ARC
  5
13354
  8
0
 10
4036.7984151743748953
 20
129.4570873207483999
 30
0.0
 40
0.0884258202275446
 50
96.096815255999104
 51
109.4252054725094041
  0
ARC
  5
13355
  8
0
 10
4036.8163787088178651
 20
129.3357963584082881
 30
0.0
 40
0.2100936284752276
 50
103.0310865330168042
 51
106.0298489958749002
  0
ARC
  5
13356
  8
0
 10
4036.7511088176411249
 20
129.5646938128421937
 30
0.0
 40
0.0279313750477201
 50
239.5278670012004909
 51
285.0549333543220882
  0
ARC
  5
13357
  8
0
 10
4036.7542856586801463
 20
129.5687246213859112
 30
0.0
 40
0.0330237608731071
 50
203.2442135877591056
 51
238.3237979700236906
  0
ARC
  5
13358
  8
0
 10
4037.0704909902351574
 20
129.711317953014003
 30
0.0
 40
0.379888716456191
 50
198.1652830788150936
 51
204.1836407479457876
  0
ARC
  5
13359
  8
0
 10
4036.9873488864159299
 20
129.6918085341200992
 30
0.0
 40
0.2949005184462917
 50
191.1121038767257119
 51
199.5999093625032117
  0
ARC
  5
1335A
  8
0
 10
4036.7263060520681393
 20
129.6386185543757961
 30
0.0
 40
0.0285625393088261
 50
106.2105828972357955
 51
187.3337584234606084
  0
ARC
  5
1335B
  8
0
 10
4036.4389282068759712
 20
130.7049499511531963
 30
0.0
 40
1.075820191371204
 50
285.0530109494711724
 51
286.0524613426111955
  0
ARC
  5
1335C
  8
0
 10
4036.7284619998690687
 20
129.696131331549708
 30
0.0
 40
0.0262850035447528
 50
287.6032214469556152
 51
357.9386051273435214
  0
ARC
  5
1335D
  8
0
 10
4036.7773762095412167
 20
129.7035664518708984
 30
0.0
 40
0.0241471653405124
 50
178.6453347035777028
 51
200.3078150585793082
  0
ARC
  5
1335E
  8
0
 10
4036.7580139532310568
 20
129.7040243261766079
 30
0.0
 40
0.0047794959321646
 50
160.0658902785781947
 51
178.6453347036404011
  0
ARC
  5
1335F
  8
0
 10
4036.7540710299190323
 20
129.7053396967000083
 30
0.0
 40
0.0006335773980545
 50
42.7363953283166467
 51
150.2754366402488984
  0
ARC
  5
13360
  8
0
 10
4036.7126821203301006
 20
129.6726278754908037
 30
0.0
 40
0.0533868621484078
 50
22.5636751268658493
 51
38.3735098315829575
  0
ARC
  5
13361
  8
0
 10
4036.1055109510980401
 20
129.4002318742265913
 30
0.0
 40
0.7188421965314137
 50
19.1439146789228793
 51
24.0437721806816604
  0
ARC
  5
13362
  8
0
 10
3924.7820064612369606
 20
91.8050227528337643
 30
0.0
 40
118.1847148202603961
 50
18.6869489305078282
 51
18.7578034407379413
  0
ARC
  5
13363
  8
0
 10
4036.0192366502601544
 20
129.6907635988524987
 30
0.0
 40
0.7395569506430999
 50
16.2517631027471303
 51
21.320423853057541
  0
ARC
  5
13364
  8
0
 10
4036.0533837559928543
 20
129.700717712583014
 30
0.0
 40
0.7039885769085065
 50
12.1062745578939204
 51
16.2517631027471303
  0
ARC
  5
13365
  8
0
 10
4036.6064668797689592
 20
129.8193518146620136
 30
0.0
 40
0.1383252565653988
 50
5.2473995760661261
 51
12.1062745578931192
  0
ARC
  5
13366
  8
0
 10
4036.705553198933103
 20
129.8284520332749139
 30
0.0
 40
0.0388219268510616
 50
353.9990656337213863
 51
5.2473995760661261
  0
ARC
  5
13367
  8
0
 10
4036.7421501688968419
 20
129.8246049333249061
 30
0.0
 40
0.0020233074665333
 50
246.6723716723545863
 51
353.9990656337691917
  0
ARC
  5
13368
  8
0
 10
4036.7751776118529961
 20
129.8534346766722933
 30
0.0
 40
0.0456739506807789
 50
203.9727820782522087
 51
222.2127414300811097
  0
ARC
  5
13369
  8
0
 10
4036.7163866006799253
 20
129.8154288704695034
 30
0.0
 40
0.0258684870499787
 50
48.7479907239356933
 51
105.3256390143045991
  0
ARC
  5
1336A
  8
0
 10
4036.1463900995108816
 20
131.877230888920792
 30
0.0
 40
2.1132724280579751
 50
284.7679634461356954
 51
285.4553211682068081
  0
ARC
  5
1336B
  8
0
 10
4036.6801354303529479
 20
129.8636357490264004
 30
0.0
 40
0.030273142846913
 50
204.0371078532384956
 51
279.3889728279324913
  0
ARC
  5
1336C
  8
0
 10
4036.8706440866908451
 20
129.9590430537298005
 30
0.0
 40
0.2433101994532843
 50
197.4324482724393874
 51
206.2828407859593085
  0
ARC
  5
1336D
  8
0
 10
4036.8724199622211017
 20
129.9675982202469982
 30
0.0
 40
0.2476850337584856
 50
188.8970061660961051
 51
199.1977884641754031
  0
ARC
  5
1336E
  8
0
 10
4036.6569542887909847
 20
129.9345763710662141
 30
0.0
 40
0.0297129622061529
 50
114.9839592091855991
 51
190.2452615701618015
  0
ARC
  5
1336F
  8
0
 10
4036.7676505943509255
 20
129.5751607080889869
 30
0.0
 40
0.4055299756147993
 50
104.4847161809386051
 51
107.6928052670271967
  0
ARC
  5
13370
  8
0
 10
4036.6576961206437772
 20
129.9963195037948083
 30
0.0
 40
0.0297650613416644
 50
286.6383273543139012
 51
307.2883529098210147
  0
ARC
  5
13371
  8
0
 10
4033.6919353836437949
 20
129.0144489774683052
 30
0.0
 40
3.1035141699291651
 50
17.7843476185052616
 51
20.6970457999537416
  0
ARC
  5
13372
  8
0
 10
4036.5449042112918505
 20
130.0923279615450099
 30
0.0
 40
0.053718400398846
 50
20.6970457999506898
 51
27.66175223485806
  0
ARC
  5
13373
  8
0
 10
4036.5844171040530455
 20
130.1130390585636007
 30
0.0
 40
0.0091065383655279
 50
27.6617522349033216
 51
34.3657616508455916
  0
ARC
  5
13374
  8
0
 10
4036.5917434245729964
 20
130.118049066989613
 30
0.0
 40
0.0002310013796167
 50
34.3657616502954184
 51
157.8113357676616033
  0
ARC
  5
13375
  8
0
 10
4036.6497727840319385
 20
130.1259547477272918
 30
0.0
 40
0.0587656759795414
 50
187.6455494387222132
 51
195.3659446651213898
  0
ARC
  5
13376
  8
0
 10
4036.5576017198281988
 20
130.1061536688754074
 30
0.0
 40
0.0357570642451479
 50
356.8515056853020155
 51
6.7925663974759143
  0
ARC
  5
13377
  8
0
 10
4036.5542263074089533
 20
130.1062853834451118
 30
0.0
 40
0.0391346529847954
 50
285.2070281968273093
 51
356.9303826458830144
  0
ARC
  5
13378
  8
0
 10
4036.5685171656009516
 20
130.0489724530316948
 30
0.0
 40
0.0199587801351824
 50
101.6359697053684954
 51
115.9383875565480935
  0
ARC
  5
13379
  8
0
 10
4036.5668877683451683
 20
130.0400106952110093
 30
0.0
 40
0.0278310415856083
 50
104.7815588859854046
 51
198.5430138917162992
  0
ARC
  5
1337A
  8
0
 10
4040.3890797797312189
 20
131.1870862395479094
 30
0.0
 40
4.018422549541083
 50
196.7177195244975962
 51
199.6624284663533047
  0
ARC
  5
1337B
  8
0
 10
4036.6297286740668824
 20
129.8445447104344055
 30
0.0
 40
0.026547200173588
 50
201.1268860483812091
 51
285.2834446425084138
  0
ARC
  5
1337C
  8
0
 10
4036.3972734289382061
 20
130.7319807072163087
 30
0.0
 40
0.9439214144955123
 50
284.6953172793399176
 51
285.476370717601128
  0
ARC
  5
1337D
  8
0
 10
4036.659387211676858
 20
129.7845399463460012
 30
0.0
 40
0.0391089297184032
 50
39.6514526331431512
 51
105.1741378597604069
  0
ARC
  5
1337E
  8
0
 10
4036.6678096357918548
 20
129.7909216368832119
 30
0.0
 40
0.0285556282007189
 50
19.6465139323396905
 51
40.5763888510883035
  0
ARC
  5
1337F
  8
0
 10
4036.7100494801011337
 20
129.8060012192404997
 30
0.0
 40
0.0162952162868885
 50
199.6465139323449876
 51
209.4916958734575871
  0
ARC
  5
13380
  8
0
 10
4036.7017886610537971
 20
129.8008618299238037
 30
0.0
 40
0.0065872337692936
 50
205.9521089048357965
 51
216.4776905890589944
  0
ARC
  5
13381
  8
0
 10
4036.6966501492879615
 20
129.7970626266582883
 30
0.0
 40
0.0001967526746024
 50
216.4776905898002894
 51
330.6028307024841979
  0
ARC
  5
13382
  8
0
 10
4036.6658474170249065
 20
129.7944529744833915
 30
0.0
 40
0.031075932029405
 50
4.6385073896426601
 51
14.8632552867558907
  0
ARC
  5
13383
  8
0
 10
4035.9586285232189766
 20
129.6171563727754119
 30
0.0
 40
0.7601771064312293
 50
14.1060171707132405
 51
16.5984953550201197
  0
ARC
  5
13384
  8
0
 10
4036.7162959093038808
 20
130.3279272790717869
 30
0.0
 40
0.1922855691271689
 50
182.1521797525531952
 51
192.9275629575481901
  0
ARC
  5
13385
  8
0
 10
4036.5739919914699385
 20
130.322579455278202
 30
0.0
 40
0.0498812003389055
 50
155.6626758449712042
 51
182.1521797525531952
  0
ARC
  5
13386
  8
0
 10
4036.550545873703868
 20
130.3331841760513043
 30
0.0
 40
0.0241483314551546
 50
121.4815323590894991
 51
155.6626758449808108
  0
ARC
  5
13387
  8
0
 10
4036.5633390223852075
 20
130.3122925427024938
 30
0.0
 40
0.0486457802437724
 50
109.7475163074767011
 51
121.4815323590903944
  0
ARC
  5
13388
  8
0
 10
4036.5964950296470306
 20
130.2199328251618056
 30
0.0
 40
0.1467765004171282
 50
100.8194762637463953
 51
109.7475163074767011
  0
ARC
  5
13389
  8
0
 10
4036.565191742738989
 20
130.3837278866224096
 30
0.0
 40
0.0199829608741169
 50
280.8194762637203894
 51
330.1637972728073009
  0
ARC
  5
1338A
  8
0
 10
4036.7018906266512204
 20
130.3705513855186098
 30
0.0
 40
0.1194084558152676
 50
171.1711567126232012
 51
178.4477825920685063
  0
ARC
  5
1338B
  8
0
 10
4036.5981064490188146
 20
130.387130959162107
 30
0.0
 40
0.0143165041127299
 50
141.7270586707851976
 51
172.9883574841011011
  0
ARC
  5
1338C
  8
0
 10
4036.5895204357921102
 20
130.3925636541426059
 30
0.0
 40
0.0043405503251361
 50
59.366038380461319
 51
127.6844226525806931
  0
ARC
  5
1338D
  8
0
 10
4036.5558021606598231
 20
130.3585821458424903
 30
0.0
 40
0.052091114837575
 50
21.2846969014708804
 51
46.3894303673563471
  0
ARC
  5
1338E
  8
0
 10
4036.2544204093810549
 20
130.2275975820641918
 30
0.0
 40
0.3806729476758447
 50
12.3476183260791501
 51
23.1886579360618299
  0
ARC
  5
1338F
  8
0
 10
4036.2717021658118028
 20
130.2226492445774113
 30
0.0
 40
0.3649488006910679
 50
2.1950694656396341
 51
13.6868354331101294
  0
ARC
  5
13390
  8
0
 10
4036.5689663284902053
 20
130.233915115672886
 30
0.0
 40
0.0674713840168294
 50
345.016426625959582
 51
2.3038957954280379
  0
ARC
  5
13391
  8
0
 10
4036.6254229408200445
 20
130.2189180981420122
 30
0.0
 40
0.0090575960197609
 50
309.2931602504041848
 51
344.3250559031636726
  0
ARC
  5
13392
  8
0
 10
4036.6290218166482191
 20
130.215405435956086
 30
0.0
 40
0.0040984991075019
 50
233.5596661489007033
 51
301.4301075850315215
  0
ARC
  5
13393
  8
0
 10
4036.6492974942061664
 20
130.2409245528662893
 30
0.0
 40
0.036689599220375
 50
197.7335674825316119
 51
231.7583173738991889
  0
ARC
  5
13394
  8
0
 10
4036.6022385308629055
 20
130.2093376085572913
 30
0.0
 40
0.0237350483182645
 50
59.3141040720416584
 51
105.255025198710797
  0
ARC
  5
13395
  8
0
 10
4035.9361189632818423
 20
132.6291900593174091
 30
0.0
 40
2.4861258042780312
 50
284.9571438135603216
 51
285.3920778303066754
  0
ARC
  5
13396
  8
0
 10
4036.5717784719290648
 20
130.2593424078239082
 30
0.0
 40
0.0326030932808341
 50
203.149910152332609
 51
280.6061189375431013
  0
ARC
  5
13397
  8
0
 10
4036.6865938663199813
 20
130.3166138819549928
 30
0.0
 40
0.1608650286045817
 50
191.3667151304377114
 51
205.8298851902783042
  0
ARC
  5
13398
  8
0
 10
4036.5333774793939483
 20
130.3057502750388039
 30
0.0
 40
0.0039828946248846
 50
142.8246920528447106
 51
177.2103020450865927
  0
ARC
  5
13399
  8
0
 10
4036.5309240773549391
 20
130.3074452029198085
 30
0.0
 40
0.0010125160164757
 50
42.219349346639369
 51
135.3349509105742925
  0
ARC
  5
1339A
  8
0
 10
4036.5186614705071406
 20
130.2962856774840077
 30
0.0
 40
0.0175928206111857
 50
19.4263451415530888
 51
42.2987589215684565
  0
ARC
  5
1339B
  8
0
 10
4036.4413971059912001
 20
130.2650560322427111
 30
0.0
 40
0.1009151772433139
 50
11.8562942189722094
 51
21.5582205636848308
  0
ARC
  5
1339C
  8
0
 10
4036.4564123612531148
 20
130.2660919116129037
 30
0.0
 40
0.0860323639255562
 50
0.9954906099584253
 51
13.2358173168517492
  0
ARC
  5
1339D
  8
0
 10
4036.5302817261458586
 20
130.2674364936241886
 30
0.0
 40
0.0121509411603088
 50
340.4000502759807887
 51
0.707883097914682
  0
ARC
  5
1339E
  8
0
 10
4036.5405258570049227
 20
130.2639654898991068
 30
0.0
 40
0.0013463643492345
 50
259.6041613160668931
 51
333.2956443711452152
  0
ARC
  5
1339F
  8
0
 10
4036.5523960420728145
 20
130.2749011870068045
 30
0.0
 40
0.0172346925866386
 50
197.2007223395056883
 51
225.3451535265454879
  0
ARC
  5
133A0
  8
0
 10
4036.6433633125097913
 20
130.3095237387269094
 30
0.0
 40
0.114538479853049
 50
188.6461206397526951
 51
200.290247558260802
  0
ARC
  5
133A1
  8
0
 10
4036.5822226086129376
 20
130.3019215064653054
 30
0.0
 40
0.0529762481019842
 50
175.6451989611558133
 51
190.4585570901820972
  0
ARC
  5
133A2
  8
0
 10
4035.3524656637050612
 20
129.9774551991339138
 30
0.0
 40
1.256038897395982
 50
17.6782146736417012
 51
22.1576760530022909
  0
ARC
  5
133A3
  8
0
 10
4036.4046935987180404
 20
130.405955019356611
 30
0.0
 40
0.1199069846534211
 50
22.1576760530038008
 51
30.5517233359902107
  0
ARC
  5
133A4
  8
0
 10
4036.4957815634070357
 20
130.4597207502694118
 30
0.0
 40
0.0141347239623337
 50
30.5517233359979201
 51
47.020256287408877
  0
ARC
  5
133A5
  8
0
 10
4036.5046661347669215
 20
130.4692550423202135
 30
0.0
 40
0.0011025202663087
 50
47.0202562872297634
 51
183.0969234365358034
  0
ARC
  5
133A6
  8
0
 10
4036.8984366057179614
 20
130.4905596828027967
 30
0.0
 40
0.3954489054385875
 50
183.0969234365365992
 51
185.4698790303388876
  0
ARC
  5
133A7
  8
0
 10
4036.4677556330780135
 20
130.4578537358520123
 30
0.0
 40
0.0373673369242367
 50
323.8316333400223925
 51
352.3270693999078844
  0
ARC
  5
133A8
  8
0
 10
4036.4660456577080367
 20
130.4598826984280038
 30
0.0
 40
0.0399501379675902
 50
285.9502476232123058
 51
322.9297902194751941
  0
ARC
  5
133A9
  8
0
 10
4036.4798661886220543
 20
130.3914066178128053
 30
0.0
 40
0.0301980388452273
 50
95.4004664099280859
 51
170.4038934901450091
  0
ARC
  5
133AA
  8
0
 10
4036.5229889733550408
 20
130.390042205541107
 30
0.0
 40
0.07317854058691
 50
174.9838501515141047
 51
193.9010095829272018
  0
ARC
  5
133AB
  8
0
 10
4037.5661713261429213
 20
130.6206390453581037
 30
0.0
 40
1.1415222844917869
 50
192.5569176481355953
 51
197.5104011781791087
  0
ARC
  5
133AC
  8
0
 10
4037.6007716399381025
 20
130.6200116646043057
 30
0.0
 40
1.1743821354677011
 50
196.9732950360115922
 51
200.902922255036998
  0
ARC
  5
133AD
  8
0
 10
4036.5421026186668314
 20
130.2080018787623885
 30
0.0
 40
0.0390538235399178
 50
190.3149010751598098
 51
259.1220330256664965
  0
ARC
  5
133AE
  8
0
 10
4036.534628450857781
 20
130.2254136164542047
 30
0.0
 40
0.0557639140092812
 50
270.1068728718551029
 51
290.5018180595552053
  0
ARC
  5
133AF
  8
0
 10
4036.5642714339360282
 20
130.1349711755138969
 30
0.0
 40
0.0395260273436848
 50
67.1263400774889618
 51
104.8234436037674016
  0
ARC
  5
133B0
  8
0
 10
4036.5687323531369657
 20
130.1431788643735104
 30
0.0
 40
0.0302437856040736
 50
16.9472851865179699
 51
68.8691356382190065
  0
ARC
  5
133B1
  8
0
 10
4036.615454480272092
 20
130.1610037525609869
 30
0.0
 40
0.0199426429514609
 50
206.8559715487259894
 51
223.4072076834073073
  0
ARC
  5
133B2
  8
0
 10
4036.6018004868437856
 20
130.1481830469328997
 30
0.0
 40
0.0012149996143328
 50
226.6460045095872999
 51
20.5864877271726385
  0
ARC
  5
133B3
  8
0
 10
4036.1439363010190391
 20
130.1002837524418112
 30
0.0
 40
0.46153864348729
 50
6.0103091856770821
 51
16.1473554705718101
  0
ARC
  5
133B4
  8
0
 10
4035.9163122258660223
 20
130.2458051394825986
 30
0.0
 40
0.6115285899910818
 50
18.0793191492998986
 51
20.7766807455751703
  0
ARC
  5
133B5
  8
0
 10
4036.4693302011869491
 20
130.4556194465658052
 30
0.0
 40
0.0200466169058331
 50
20.7766807455797391
 51
29.5625737111852516
  0
ARC
  5
133B6
  8
0
 10
4036.4865396479499395
 20
130.465380909328502
 30
0.0
 40
0.000261490847324
 50
29.5625737113065803
 51
142.6318241748066953
  0
ARC
  5
133B7
  8
0
 10
4036.5877359009377869
 20
130.4794521919316139
 30
0.0
 40
0.1023540220208557
 50
187.8121705040367999
 51
192.392827918258007
  0
ARC
  5
133B8
  8
0
 10
4036.4584464923200358
 20
130.4544684196847015
 30
0.0
 40
0.0294751618158147
 50
355.7152896150287233
 51
5.8754453760198144
  0
ARC
  5
133B9
  8
0
 10
4036.4485689568800808
 20
130.4547948787719918
 30
0.0
 40
0.0393516425312412
 50
285.394327532358318
 51
356.3157963138058903
  0
ARC
  5
133BA
  8
0
 10
4040.5129115069730688
 20
115.5538876888813036
 30
0.0
 40
15.4059039059855998
 50
105.256409204911705
 51
105.3109570568498015
  0
ARC
  5
133BB
  8
0
 10
4036.4502130077071342
 20
130.3937543991474968
 30
0.0
 40
0.0199636205559986
 50
105.5327239119499012
 51
193.3176829218216994
  0
ARC
  5
133BC
  8
0
 10
4040.1765931254249153
 20
131.3543122992543033
 30
0.0
 40
3.8681515277987519
 50
194.4487330754942036
 51
197.8525779366665915
  0
ARC
  5
133BD
  8
0
 10
4036.513493905220912
 20
130.1743155678937001
 30
0.0
 40
0.0196867166511617
 50
197.3119298229580068
 51
285.2747704652297784
  0
LINE
  5
133BE
  8
0
 10
4036.5186803371120732
 20
130.1553243136762887
 30
0.0
 11
4036.5359094141172136
 21
130.1602555580342084
 31
0.0
  0
ARC
  5
133BF
  8
0
 10
4036.5459136251952259
 20
130.1215816553147135
 30
0.0
 40
0.0399469021432842
 50
18.3587492063904705
 51
104.5034156801446983
  0
ARC
  5
133C0
  8
0
 10
6572.8131945909553906
 20
910.8406699219943903
 30
0.0
 40
2653.6695446725580041
 50
197.1086066841187119
 51
197.1095026407600983
  0
ARC
  5
133C1
  8
0
 10
4038.544122199154117
 20
130.7375849109072874
 30
0.0
 40
2.0510663606031958
 50
197.1095026407593025
 51
197.9875943929349944
  0
LINE
  5
133C2
  8
0
 10
4036.4878392741961761
 20
130.4522662530852983
 30
0.0
 11
4036.4671146056862199
 21
130.528015285996986
 31
0.0
  0
ARC
  5
133C3
  8
0
 10
4036.4634318835510385
 20
130.356465829965714
 30
0.0
 40
0.0046542967775306
 50
153.3961197889726975
 51
191.8455207752105878
  0
ARC
  5
133C4
  8
0
 10
4036.4588192998899103
 20
130.3567852246038967
 30
0.0
 40
0.0018216201561193
 50
26.5942551389185908
 51
75.6634080051460529
  0
ARC
  5
133C5
  8
0
 10
4035.7904544446209911
 20
130.0769525684395944
 30
0.0
 40
0.726398649939029
 50
11.4904798085993001
 51
22.7279194138740586
  0
ARC
  5
133C6
  8
0
 10
4036.4788645790149531
 20
130.2184620992001101
 30
0.0
 40
0.0236464415557504
 50
358.8356856006798807
 51
7.759895474331663
  0
ARC
  5
133C7
  8
0
 10
4036.501654672893892
 20
130.2181778901351947
 30
0.0
 40
0.0008737959137232
 50
191.5800703461680996
 51
347.0189280358292763
  0
ARC
  5
133C8
  8
0
 10
4036.9701168885799234
 20
130.4362275779068057
 30
0.0
 40
0.5175729777175198
 50
188.9720818348538955
 51
204.937636284427299
  0
ARC
  5
133C9
  8
0
 10
4036.8552782692690926
 20
129.2741312548182009
 30
0.0
 40
0.00038331170597
 50
32.146037411895513
 51
193.3942298831128142
  0
ARC
  5
133CA
  8
0
 10
4036.7249657062438928
 20
129.2033271864814026
 30
0.0
 40
0.1486882434581886
 50
14.7585213805344093
 51
28.5263656959130216
  0
ARC
  5
133CB
  8
0
 10
4036.8067918055157861
 20
129.2227740780215868
 30
0.0
 40
0.0646399168960918
 50
7.7832013225662253
 51
16.5666472877447184
  0
ARC
  5
133CC
  8
0
 10
4036.8676038833891653
 20
129.2310019559371881
 30
0.0
 40
0.0032748659915903
 50
347.1930586104451208
 51
9.2425213343867405
  0
ARC
  5
133CD
  8
0
 10
4036.8704091408781096
 20
129.2303930315219986
 30
0.0
 40
0.0004053900639347
 50
229.212635702827896
 51
343.2245809988503993
  0
ARC
  5
133CE
  8
0
 10
4036.9453645902549397
 20
129.2752963091768095
 30
0.0
 40
0.0877613399363532
 50
198.0513974364116905
 51
211.007451306858286
  0
ARC
  5
133CF
  8
0
 10
4036.9741548766210144
 20
129.2923826102889961
 30
0.0
 40
0.1206515751715212
 50
188.7433807197446072
 51
201.5316273498372084
  0
ARC
  5
133D0
  8
0
 10
4036.8536893162140586
 20
129.1732570449208879
 30
0.0
 40
0.00038331170597
 50
32.146037411895513
 51
193.3942298831128142
  0
ARC
  5
133D1
  8
0
 10
4036.7233767531888589
 20
129.1024529765842033
 30
0.0
 40
0.1486882434581886
 50
14.7585213805344093
 51
28.5263656959130216
  0
ARC
  5
133D2
  8
0
 10
4036.8052028524621164
 20
129.1218998681243022
 30
0.0
 40
0.0646399168960918
 50
7.7832013225662253
 51
16.5666472877447184
  0
ARC
  5
133D3
  8
0
 10
4036.8660149303350408
 20
129.1301277460399035
 30
0.0
 40
0.0032748659915903
 50
347.1930586104451208
 51
9.2425213343867405
  0
ARC
  5
133D4
  8
0
 10
4036.8688201878239852
 20
129.1295188216247141
 30
0.0
 40
0.0004053900639347
 50
229.212635702827896
 51
343.2245809988503993
  0
ARC
  5
133D5
  8
0
 10
4036.9437756372008153
 20
129.1744220992796102
 30
0.0
 40
0.0877613399363532
 50
198.0513974364116905
 51
211.007451306858286
  0
ARC
  5
133D6
  8
0
 10
4036.9725659235659805
 20
129.1915084003917116
 30
0.0
 40
0.1206515751715212
 50
188.7433807197446072
 51
201.5316273498372084
  0
ARC
  5
133D7
  8
0
 10
4036.7041695693342263
 20
129.6179839033673886
 30
0.0
 40
0.00038331170597
 50
32.146037411895513
 51
193.3942298831128142
  0
ARC
  5
133D8
  8
0
 10
4036.5738570063090265
 20
129.547179835030704
 30
0.0
 40
0.1486882434581886
 50
14.7585213805344093
 51
28.5263656959130216
  0
ARC
  5
133D9
  8
0
 10
4036.6556831055809198
 20
129.5666267265708029
 30
0.0
 40
0.0646399168960918
 50
7.7832013225662253
 51
16.5666472877447184
  0
ARC
  5
133DA
  8
0
 10
4036.7164951834538442
 20
129.5748546044864895
 30
0.0
 40
0.0032748659915903
 50
347.1930586104451208
 51
9.2425213343867405
  0
ARC
  5
133DB
  8
0
 10
4036.7193004409441528
 20
129.5742456800713001
 30
0.0
 40
0.0004053900639347
 50
229.212635702827896
 51
343.2245809988503993
  0
ARC
  5
133DC
  8
0
 10
4036.7942558903209829
 20
129.6191489577261109
 30
0.0
 40
0.0877613399363532
 50
198.0513974364116905
 51
211.007451306858286
  0
ARC
  5
133DD
  8
0
 10
4036.8230461766861481
 20
129.6362352588382123
 30
0.0
 40
0.1206515751715212
 50
188.7433807197446072
 51
201.5316273498372084
  0
ARC
  5
133DE
  8
0
 10
4036.6326495651937876
 20
129.9158470650667141
 30
0.0
 40
0.00038331170597
 50
32.146037411895513
 51
193.3942298831128142
  0
ARC
  5
133DF
  8
0
 10
4036.502337002168133
 20
129.8450429967298874
 30
0.0
 40
0.1486882434581886
 50
14.7585213805344093
 51
28.5263656959130216
  0
ARC
  5
133E0
  8
0
 10
4036.5841631014409359
 20
129.8644898882701
 30
0.0
 40
0.0646399168960918
 50
7.7832013225662253
 51
16.5666472877447184
  0
ARC
  5
133E1
  8
0
 10
4036.6449751793138603
 20
129.8727177661857013
 30
0.0
 40
0.0032748659915903
 50
347.1930586104451208
 51
9.2425213343867405
  0
ARC
  5
133E2
  8
0
 10
4036.6477804368041689
 20
129.8721088417705118
 30
0.0
 40
0.0004053900639347
 50
229.212635702827896
 51
343.2245809988503993
  0
ARC
  5
133E3
  8
0
 10
4036.7227358861819084
 20
129.9170121194252943
 30
0.0
 40
0.0877613399363532
 50
198.0513974364116905
 51
211.007451306858286
  0
ARC
  5
133E4
  8
0
 10
4036.7515261725470737
 20
129.9340984205375094
 30
0.0
 40
0.1206515751715212
 50
188.7433807197446072
 51
201.5316273498372084
  0
ARC
  5
133E5
  8
0
 10
4036.8560543211760887
 20
129.1215530286283126
 30
0.0
 40
0.00038331170597
 50
32.146037411895513
 51
193.3942298831128142
  0
ARC
  5
133E6
  8
0
 10
4036.7257417581508889
 20
129.0507489602914859
 30
0.0
 40
0.1486882434581886
 50
14.7585213805344093
 51
28.5263656959130216
  0
ARC
  5
133E7
  8
0
 10
4036.8075678574227823
 20
129.0701958518316985
 30
0.0
 40
0.0646399168960918
 50
7.7832013225662253
 51
16.5666472877447184
  0
ARC
  5
133E8
  8
0
 10
4036.8683799352970709
 20
129.0784237297472998
 30
0.0
 40
0.0032748659915903
 50
347.1930586104451208
 51
9.2425213343867405
  0
ARC
  5
133E9
  8
0
 10
4036.8711851927860153
 20
129.0778148053321104
 30
0.0
 40
0.0004053900639347
 50
229.212635702827896
 51
343.2245809988503993
  0
ARC
  5
133EA
  8
0
 10
4036.9461406421642096
 20
129.1227180829868928
 30
0.0
 40
0.0877613399363532
 50
198.0513974364116905
 51
211.007451306858286
  0
ARC
  5
133EB
  8
0
 10
4036.9749309285280106
 20
129.1398043840991079
 30
0.0
 40
0.1206515751715212
 50
188.7433807197446072
 51
201.5316273498372084
  0
ARC
  5
133EC
  8
0
 10
4041.5896698220790313
 20
112.0032777660340031
 30
0.0
 40
21.941496756160749
 50
103.057999429854803
 51
104.435958014548703
  0
ARC
  5
133ED
  8
0
 10
4036.6421204390057937
 20
133.334927948122413
 30
0.0
 40
0.0436077165993524
 50
31.5346767733734588
 51
103.0579994298289961
  0
ARC
  5
133EE
  8
0
 10
4028.6708984083747964
 20
128.4435182965090974
 30
0.0
 40
9.3959480141675371
 50
18.6565478195659189
 51
31.5346767733734588
  0
ARC
  5
133EF
  8
0
 10
4018.6232535179638035
 20
125.0510689414300032
 30
0.0
 40
20.0008469043296984
 50
7.7907877787532538
 51
18.6565478195659189
  0
ARC
  5
133F0
  8
0
 10
4021.736022547149787
 20
125.4769553966579991
 30
0.0
 40
16.8590782461054296
 50
358.373507083811603
 51
7.7907877787532538
  0
ARC
  5
133F1
  8
0
 10
4007.9879098427240933
 20
125.8673369694758009
 30
0.0
 40
30.6127323316916602
 50
356.9665652317623881
 51
358.373507083811603
  0
ARC
  5
133F2
  8
0
 10
4038.5459171226170838
 20
124.2481307095077057
 30
0.0
 40
0.0118568886920798
 50
270.2316556586843035
 51
356.2302022822522076
  0
LINE
  5
133F3
  8
0
 10
4038.5459650617131047
 20
124.236273917728397
 30
0.0
 11
4037.5845420039390774
 21
124.2362739229283051
 31
0.0
  0
ARC
  5
133F4
  8
0
 10
4037.5846236239899554
 20
124.2481567859370983
 30
0.0
 40
0.0118831433181046
 50
180.1458378260265931
 51
269.6064575582719272
  0
ARC
  5
133F5
  8
0
 10
4221.6930324192062471
 20
124.7167781801403947
 30
0.0
 40
184.1208883416439903
 50
179.8135481200042989
 51
180.1458378260265931
  0
ARC
  5
133F6
  8
0
 10
4024.6127640276640705
 20
125.3581188962540978
 30
0.0
 40
12.96042357604194
 50
359.8135481200043273
 51
7.0505422839637317
  0
ARC
  5
133F7
  8
0
 10
4029.2097316034769392
 20
125.9266722433068963
 30
0.0
 40
8.3284300741545945
 50
7.0505422839637317
 51
10.6905423292544395
  0
ARC
  5
133F8
  8
0
 10
4037.405502806628192
 20
127.473878176332903
 30
0.0
 40
0.0121041901231187
 50
165.8393013855954052
 51
190.6905423292568003
  0
ARC
  5
133F9
  8
0
 10
4035.6664828458488046
 20
127.9126488578250047
 30
0.0
 40
1.7814147350416081
 50
345.8393013855953768
 51
351.5221012826434048
  0
ARC
  5
133FA
  8
0
 10
4036.6570760818231065
 20
127.7649943305558935
 30
0.0
 40
0.7798775072857665
 50
351.5221012826434048
 51
12.4031385767744808
  0
ARC
  5
133FB
  8
0
 10
4581.5025786585820242
 20
247.5883362011799136
 30
0.0
 40
557.0859261903111701
 50
192.300100804003506
 51
192.4031385767744098
  0
ARC
  5
133FC
  8
0
 10
4025.0905450787849986
 20
126.2698680844509056
 30
0.0
 40
12.3985089074318502
 50
12.3001008040035007
 51
15.7712360812027299
  0
ARC
  5
133FD
  8
0
 10
4056.3356182490188075
 20
135.0943931820717978
 30
0.0
 40
20.0688106710588983
 50
193.7589537095651906
 51
195.7712360812026873
  0
ARC
  5
133FE
  8
0
 10
22880.4157640135017573
 20
5154.5071989999187281
 30
0.0
 40
19501.2799792370205978
 50
194.9204048824967117
 51
194.9235633306670081
  0
ARC
  5
133FF
  8
0
 10
30296.5186838546906074
 20
7131.0458289507168956
 30
0.0
 40
27176.2579904996382538
 50
194.9235633306670081
 51
194.9276936019194011
  0
ARC
  5
13400
  8
0
 10
3227.1020357068900921
 20
-85.5810055858746352
 30
0.0
 40
838.613427016717651
 50
14.7897559550199897
 51
14.9276936019194402
  0
ARC
  5
13401
  8
0
 10
4026.8653344268668661
 20
125.9568439885419053
 30
0.0
 40
11.3532513136721906
 50
8.7628534490502901
 51
12.9145569310210195
  0
ARC
  5
13402
  8
0
 10
4040.4665339570769902
 20
129.4129978714117897
 30
0.0
 40
3.4677588417017291
 50
190.8268827241664951
 51
197.5804725560267059
  0
ARC
  5
13403
  8
0
 10
4035.2723018255469469
 20
127.4685372034496993
 30
0.0
 40
2.0906667376165649
 50
16.5371178406296515
 51
25.4085254143683485
  0
ARC
  5
13404
  8
0
 10
4036.3382761547068185
 20
127.795942953242303
 30
0.0
 40
0.9756501952357481
 50
2.3794217670381221
 51
15.9235598952548401
  0
LINE
  5
13405
  8
0
 10
4037.3130851498390257
 20
127.8364488352283956
 30
0.0
 11
4037.3863120315381821
 21
127.5097986591282933
 31
0.0
  0
ARC
  5
13406
  8
0
 10
4037.3979075784868655
 20
127.5120444797160957
 30
0.0
 40
0.0118110285357018
 50
190.9613074582686068
 51
277.8835466361746853
  0
LINE
  5
13407
  8
0
 10
4038.5573709480390789
 20
134.1260376972284121
 30
0.0
 11
4038.5573709480390789
 21
126.6042341040885049
 31
0.0
  0
LINE
  5
13408
  8
0
 10
4037.5731189795378668
 20
124.2451815126442938
 30
0.0
 11
4037.5731189795378668
 21
123.9879128762726026
 31
0.0
  0
ARC
  5
13409
  8
0
 10
4037.6736950733939011
 20
124.0128230678081991
 30
0.0
 40
0.0393700788201345
 50
0.3000001087061619
 51
122.5195543589059071
  0
LINE
  5
1340A
  8
0
 10
4037.7130646125378917
 20
124.0130292081916963
 30
0.0
 11
4037.7111679357872163
 21
122.7644756469938017
 31
0.0
  0
ARC
  5
1340B
  8
0
 10
4037.6835993277231864
 20
122.7644955387782062
 30
0.0
 40
0.0275686152395942
 50
240.7254798309108139
 51
359.9586589785744195
  0
ARC
  5
1340C
  8
0
 10
4038.0652161888729097
 20
123.3986469656720999
 30
0.0
 40
0.7676772672217937
 50
210.479202229577794
 51
239.024834660077687
  0
ARC
  5
1340D
  8
0
 10
4038.0652449637382233
 20
123.3986754925283975
 30
0.0
 40
0.7677165353999945
 50
147.3573041742293128
 51
210.479947758556591
  0
ARC
  5
1340E
  8
0
 10
4038.0652449641788735
 20
123.3986754921738935
 30
0.0
 40
0.7677165359617238
 50
122.5195544170826025
 51
147.3573041696726875
  0
ARC
  5
1340F
  8
0
 10
4038.0630852586118635
 20
123.3941259633996026
 30
0.0
 40
0.7626950600840862
 50
239.0074195169696054
 51
248.9913357934196938
  0
LINE
  5
13410
  8
0
 10
4037.8887330750349065
 20
123.3234198152372016
 30
0.0
 11
4038.2417504317982093
 21
123.3234198152283057
 31
0.0
  0
LINE
  5
13411
  8
0
 10
4038.2417504317982093
 20
123.3234198152283057
 30
0.0
 11
4038.2191273796388487
 21
123.1229109555282974
 31
0.0
  0
ARC
  5
13412
  8
0
 10
4038.1834915148979235
 20
123.1269316857244007
 30
0.0
 40
0.0358619732739578
 50
309.2436579007032265
 51
353.5626449336784276
  0
ARC
  5
13413
  8
0
 10
4038.124645361797775
 20
123.1989720534054982
 30
0.0
 40
0.1288817792848381
 50
281.8087499364023074
 51
309.2436579007032265
  0
ARC
  5
13414
  8
0
 10
4038.0644940517017858
 20
123.4866806318821943
 30
0.0
 40
0.4228110330778742
 50
270.0809913840743093
 51
281.8087499364023074
  0
ARC
  5
13415
  8
0
 10
4038.064535427014107
 20
123.4574104916573987
 30
0.0
 40
0.3935408636097312
 50
256.0157332565004253
 51
270.0809913840743093
  0
ARC
  5
13416
  8
0
 10
4037.9951181543010534
 20
123.1786669621244954
 30
0.0
 40
0.1062836391446833
 50
226.7718599365838941
 51
256.0157332565004253
  0
ARC
  5
13417
  8
0
 10
4037.9467204436818975
 20
123.1271793333118012
 30
0.0
 40
0.035620251779439
 50
186.8672659430609997
 51
226.7718599365838941
  0
LINE
  5
13418
  8
0
 10
4037.9113557381378996
 20
123.122920232628303
 30
0.0
 11
4037.8887330750349065
 21
123.3234198152372016
 31
0.0
  0
ARC
  5
13419
  8
0
 10
4037.7467351612381208
 20
123.1265694215284014
 30
0.0
 40
0.078740157500015
 50
243.5096765973206914
 51
270.0
  0
LINE
  5
1341A
  8
0
 10
4037.7467351612381208
 20
123.0478292640282945
 30
0.0
 11
4038.3837486637380607
 21
123.0478292640283939
 31
0.0
  0
ARC
  5
1341B
  8
0
 10
4038.3837486637380607
 20
123.1265954028634013
 30
0.0
 40
0.0787661388350127
 50
270.0
 51
296.4342863026209898
  0
LINE
  5
1341C
  8
0
 10
4037.7896544126379013
 20
123.0478292641283957
 30
0.0
 11
4037.7896544126379013
 21
121.0793253270283003
 31
0.0
  0
LINE
  5
1341D
  8
0
 10
4038.340835514938135
 20
123.0478292641283957
 30
0.0
 11
4038.340835514938135
 21
121.0793253270283003
 31
0.0
  0
ARC
  5
1341E
  8
0
 10
4051.1000908608789359
 20
121.2738659580797957
 30
0.0
 40
12.7607383422761593
 50
180.8735222537692948
 51
192.5609778220706119
  0
ARC
  5
1341F
  8
0
 10
3786.3659820156908609
 20
58.2368404983448187
 30
0.0
 40
259.3763305644836237
 50
12.6568677282713598
 51
13.4345000758388693
  0
ARC
  5
13420
  8
0
 10
4012.9766945762648902
 20
109.782957189077095
 30
0.0
 40
26.9855518993760306
 50
2.530160363904399
 51
11.2969095448023005
  0
ARC
  5
13421
  8
0
 10
3994.1138810125471537
 20
108.6592084879551976
 30
0.0
 40
45.8805009187332615
 50
359.9789063978076911
 51
2.8922524569718031
  0
LINE
  5
13422
  8
0
 10
4039.9943788220380156
 20
108.6423174530282978
 30
0.0
 11
4039.9943788220380156
 21
94.8627898940283671
 31
0.0
  0
ARC
  5
13423
  8
0
 10
4039.7187882708881261
 20
94.8627898939783591
 30
0.0
 40
0.2755905511500032
 50
179.9999999896056124
 51
359.999999823778694
  0
LINE
  5
13424
  8
0
 10
4039.4431977197377819
 20
94.8627898940283671
 30
0.0
 11
4039.4431977222379828
 21
108.6423174530282978
 31
0.0
  0
ARC
  5
13425
  8
0
 10
3993.526465030629879
 20
108.6423174613585019
 30
0.0
 40
45.916732691607983
 50
359.9999999896056124
 51
3.005929350927405
  0
ARC
  5
13426
  8
0
 10
4009.5672559250760969
 20
109.484644266906102
 30
0.0
 40
29.8538410787423487
 50
3.005929350927405
 51
8.1524213800918073
  0
ARC
  5
13427
  8
0
 10
4014.9085113334649577
 20
110.2498039692646046
 30
0.0
 40
24.4580576594640711
 50
8.1524213800918073
 51
15.5864822030649499
  0
ARC
  5
13428
  8
0
 10
4058.2150103650751589
 20
122.3301826832866936
 30
0.0
 40
20.5017956348811197
 50
187.730120059573494
 51
195.5864822030648895
  0
ARC
  5
13429
  8
0
 10
4049.9551539346489335
 20
121.2089844308696058
 30
0.0
 40
12.1661904515440806
 50
180.6106315769202126
 51
187.7301200723096883
  0
LINE
  5
1342A
  8
0
 10
4041.230599294538024
 20
98.6545748795205952
 30
0.0
 11
4041.230599294538024
 21
101.2136361224282979
 31
0.0
  0
ARC
  5
1342B
  8
0
 10
4041.2109142551380501
 20
101.2136361224282979
 30
0.0
 40
0.0196850393999952
 50
0.0000000000048853
 51
90.0000000000260485
  0
LINE
  5
1342C
  8
0
 10
4041.2109142551380501
 20
101.2333211618283002
 30
0.0
 11
4041.0888670110389285
 21
101.2333211618283002
 31
0.0
  0
ARC
  5
1342D
  8
0
 10
4041.0888670110389285
 20
101.0364707681280976
 30
0.0
 40
0.1968503937002097
 50
90.0000000000260485
 51
142.0000000059540071
  0
LINE
  5
1342E
  8
0
 10
4040.9337467839382043
 20
101.1576639719158948
 30
0.0
 11
4040.4598897864248102
 21
100.5511546729614025
 31
0.0
  0
ARC
  5
1342F
  8
0
 10
4040.5219378778051578
 20
100.502677391023397
 30
0.0
 40
0.0787401581669294
 50
142.0000000059540071
 51
179.9999997053672018
  0
LINE
  5
13430
  8
0
 10
4040.4431977196381922
 20
100.5026773914283069
 30
0.0
 11
4040.4431977137901413
 21
99.3655397353283831
 31
0.0
  0
ARC
  5
13431
  8
0
 10
4040.5219378480919659
 20
99.365539734923459
 30
0.0
 40
0.0787401343009577
 50
179.9999997053681113
 51
218.0000127773791121
  0
LINE
  5
13432
  8
0
 10
4040.4598897863320417
 20
99.3170624538352342
 30
0.0
 11
4040.9337469192209937
 21
98.7105532605346525
 31
0.0
  0
ARC
  5
13433
  8
0
 10
4041.0888674066259227
 20
98.8317467232857751
 30
0.0
 40
0.1968507582577907
 50
218.0000127441865061
 51
269.9998848593950811
  0
LINE
  5
13434
  8
0
 10
4041.0888670110389285
 20
98.6348959650283632
 30
0.0
 11
4041.2109142551371406
 21
98.6348959650283632
 31
0.0
  0
ARC
  5
13435
  8
0
 10
4041.2109147140199639
 20
98.6545805463568115
 30
0.0
 40
0.0196845813337828
 50
269.9986643347829727
 51
359.9835056000745226
  0
LINE
  5
13436
  8
0
 10
4039.9943788220380156
 20
100.5049747051284044
 30
0.0
 11
4040.4274496882380845
 21
100.5049747051284044
 31
0.0
  0
LINE
  5
13437
  8
0
 10
4040.4274496882380845
 20
100.5049747051284044
 30
0.0
 11
4040.4274496882380845
 21
99.3632424216283852
 31
0.0
  0
LINE
  5
13438
  8
0
 10
4040.4274496882380845
 20
99.3632424216283852
 30
0.0
 11
4039.9943431969909398
 21
99.3632424216283852
 31
0.0
  0
LINE
  5
13439
  8
0
 10
4039.9943788220380156
 20
100.4062903150283006
 30
0.0
 11
4040.3880796094381367
 21
100.4062903150284001
 31
0.0
  0
ARC
  5
1343A
  8
0
 10
4039.9648512635358202
 20
100.2195416342783005
 30
0.0
 40
0.4625984247024215
 50
336.1906237430283113
 51
23.8093762569732306
  0
LINE
  5
1343B
  8
0
 10
4040.3880796094381367
 20
100.0327929535283999
 30
0.0
 11
4040.3880796094381367
 21
99.8354241732283754
 31
0.0
  0
ARC
  5
1343C
  8
0
 10
4039.9556581682982142
 20
99.6486754925283549
 30
0.0
 40
0.4710237494026912
 50
336.6420631621458028
 51
23.3579368378534511
  0
LINE
  5
1343D
  8
0
 10
4040.3880796094381367
 20
99.461926811828377
 30
0.0
 11
4040.3880796094381367
 21
99.3632424216283852
 31
0.0
  0
LINE
  5
1343E
  8
0
 10
4040.3880796094381367
 20
99.461926811828377
 30
0.0
 11
4039.9943424158182097
 21
99.461926811828377
 31
0.0
  0
LINE
  5
1343F
  8
0
 10
4040.3880796094381367
 20
99.8354241732283754
 30
0.0
 11
4039.9943394592578443
 21
99.8354241732283754
 31
0.0
  0
LINE
  5
13440
  8
0
 10
4040.3880796094381367
 20
100.0327929535283999
 30
0.0
 11
4039.9943788220380156
 21
100.0327929535283999
 31
0.0
  0
LINE
  5
13441
  8
0
 10
4040.3880796094381367
 20
100.4062903150284001
 30
0.0
 11
4040.3880796094381367
 21
100.5049747051284044
 31
0.0
  0
ARC
  5
13442
  8
0
 10
4037.1604006110910632
 20
100.0498956952273062
 30
0.0
 40
0.0455545174794155
 50
101.0952815699162954
 51
168.2996823597775915
  0
ARC
  5
13443
  8
0
 10
4037.1339350967791688
 20
100.2933056371829963
 30
0.0
 40
0.1994935772261419
 50
275.0899393702284215
 51
329.4791293048231182
  0
ARC
  5
13444
  8
0
 10
4038.065241176885138
 20
99.9341198143916642
 30
0.0
 40
0.8020398164456461
 50
89.9997293834830145
 51
161.2450718588765142
  0
ARC
  5
13445
  8
0
 10
4038.0652447857319203
 20
99.9341085132871854
 30
0.0
 40
0.8020511175412252
 50
16.6878572494594692
 51
89.9999871909721776
  0
ARC
  5
13446
  8
0
 10
4038.065244796638126
 20
99.9341085209283762
 30
0.0
 40
0.8020511048999966
 50
292.5133142779754962
 51
16.6878569503155987
  0
ARC
  5
13447
  8
0
 10
4038.0652447403322185
 20
99.934105035326354
 30
0.0
 40
0.8020479064945941
 50
198.7578571521652009
 51
292.5134133356020811
  0
ARC
  5
13448
  8
0
 10
4037.1433164720210698
 20
99.5897740703512397
 30
0.0
 40
0.1840319010966758
 50
28.0067783000201906
 51
87.4095689941019742
  0
ARC
  5
13449
  8
0
 10
4037.1550644102699152
 20
99.8128420188873662
 30
0.0
 40
0.0393738237204883
 50
189.1548213298158885
 51
265.0018256509312096
  0
ARC
  5
1344A
  8
0
 10
4037.9038555280349101
 20
99.9337751311141744
 30
0.0
 40
0.7978676947542099
 50
179.9760583691289071
 51
189.1733437496183114
  0
ARC
  5
1344B
  8
0
 10
4037.9035795400850475
 20
99.9344568753203646
 30
0.0
 40
0.7975917132167555
 50
171.0068285707696134
 51
180.0250238471026023
  0
CIRCLE
  5
1344C
  8
0
 10
4038.0652449637382233
 20
99.9341085634283672
 30
0.0
 40
0.2520381311000008
  0
CIRCLE
  5
1344D
  8
0
 10
4038.0652449637382233
 20
99.9341085634283672
 30
0.0
 40
0.299507500899999
  0
LINE
  5
1344E
  8
0
 10
4038.8335162162670713
 20
100.1644235240282939
 30
0.0
 11
4039.0011529380649336
 21
100.1644235240282939
 31
0.0
  0
ARC
  5
1344F
  8
0
 10
4039.0011529380649336
 20
100.1436078564555032
 30
0.0
 40
0.0208156675728972
 50
3.1136218727593792
 51
90.0
  0
LINE
  5
13450
  8
0
 10
4039.0219378772380878
 20
100.1447384846283057
 30
0.0
 11
4039.0219378772380878
 21
99.7234786421283701
 31
0.0
  0
ARC
  5
13451
  8
0
 10
4039.0022528378381139
 20
99.7234786421283701
 30
0.0
 40
0.0196850394000023
 50
270.0
 51
0.0
  0
LINE
  5
13452
  8
0
 10
4039.0022528378381139
 20
99.7037936027283536
 30
0.0
 11
4038.8335162417188258
 21
99.7037936027283536
 31
0.0
  0
ARC
  5
13453
  8
0
 10
4037.4340719006540894
 20
100.6121913774942982
 30
0.0
 40
0.1390478019416745
 50
337.5557818674550958
 51
359.81522552753529
  0
LINE
  5
13454
  8
0
 10
4037.5731189795378668
 20
100.6117429598283053
 30
0.0
 11
4037.5731189795378668
 21
101.1053684059284024
 31
0.0
  0
ARC
  5
13455
  8
0
 10
4037.5829614992380812
 20
101.1053684059284024
 30
0.0
 40
0.0098425196999941
 50
90.0
 51
180.0000000000619025
  0
LINE
  5
13456
  8
0
 10
4037.5829614992380812
 20
101.1152109256284035
 30
0.0
 11
4038.5475284283379551
 21
101.1152109256284035
 31
0.0
  0
ARC
  5
13457
  8
0
 10
4038.5475284283379551
 20
101.1053684059284024
 30
0.0
 40
0.0098425197000029
 50
0.0000000000097707
 51
90.0
  0
LINE
  5
13458
  8
0
 10
4038.5573709480390789
 20
101.1053684059284024
 30
0.0
 11
4038.5573709480390789
 21
100.6740005661282993
 31
0.0
  0
ARC
  5
13459
  8
0
 10
4038.6954844044598758
 20
100.6740005661283988
 30
0.0
 40
0.138113456421145
 50
180.0000000000104876
 51
249.8088933528117082
  0
LINE
  5
1345A
  8
0
 10
4039.4431977197377819
 20
100.5443447839282953
 30
0.0
 11
4038.6502045487391115
 21
100.5443447839282953
 31
0.0
  0
ARC
  5
1345B
  8
0
 10
4038.6572329231557887
 20
100.7800053812604943
 30
0.0
 40
0.2358189006216709
 50
245.820583964961088
 51
267.7109685833456751
  0
ARC
  5
1345C
  8
0
 10
4038.6498023530089085
 20
100.6078282564400013
 30
0.0
 40
0.0634847456232254
 50
268.2053703172134078
 51
270.3628581639061963
  0
LINE
  5
1345D
  8
0
 10
4037.5731189795378668
 20
101.1496597444283054
 30
0.0
 11
4038.5573709480390789
 21
101.1496597444283054
 31
0.0
  0
LINE
  5
1345E
  8
0
 10
4038.5573709480390789
 20
101.1496597444283054
 30
0.0
 11
4038.5573709480390789
 21
101.2790269097283016
 31
0.0
  0
LINE
  5
1345F
  8
0
 10
4038.5573709480390789
 20
101.2790269097283016
 30
0.0
 11
4038.537685908639105
 21
101.3071400594284057
 31
0.0
  0
LINE
  5
13460
  8
0
 10
4038.537685908639105
 20
101.3071400594284057
 30
0.0
 11
4038.537685908639105
 21
101.7795810043284064
 31
0.0
  0
LINE
  5
13461
  8
0
 10
4038.537685908639105
 20
101.7795810043284064
 30
0.0
 11
4038.5573709480390789
 21
101.8076941539999041
 31
0.0
  0
LINE
  5
13462
  8
0
 10
4038.5573709480390789
 20
101.8076941539999041
 30
0.0
 11
4038.5573709480390789
 21
101.9370613192283059
 31
0.0
  0
LINE
  5
13463
  8
0
 10
4038.5573709480390789
 20
101.9370613192283059
 30
0.0
 11
4037.5731189795378668
 21
101.9370613192283059
 31
0.0
  0
LINE
  5
13464
  8
0
 10
4037.5731189795378668
 20
101.9370613192283059
 30
0.0
 11
4037.573118979337778
 21
101.8076941543283027
 31
0.0
  0
LINE
  5
13465
  8
0
 10
4037.573118979337778
 20
101.8076941543283027
 30
0.0
 11
4037.5928040189378407
 21
101.7795810043284064
 31
0.0
  0
LINE
  5
13466
  8
0
 10
4037.5928040189378407
 20
101.7795810043284064
 30
0.0
 11
4037.5928040189378407
 21
101.3071400594284057
 31
0.0
  0
LINE
  5
13467
  8
0
 10
4037.5928040189378407
 20
101.3071400594284057
 30
0.0
 11
4037.5731189795378668
 21
101.2790269097283016
 31
0.0
  0
LINE
  5
13468
  8
0
 10
4037.5731189795378668
 20
101.2790269097283016
 30
0.0
 11
4037.5731189795378668
 21
101.1496597444283054
 31
0.0
  0
LINE
  5
13469
  8
0
 10
4037.7050087433390217
 20
101.1496597444283054
 30
0.0
 11
4037.7050087433390217
 21
101.115210925628304
 31
0.0
  0
LINE
  5
1346A
  8
0
 10
4038.425481184237924
 20
101.1496597444283054
 30
0.0
 11
4038.425481184237924
 21
101.115210925628304
 31
0.0
  0
LINE
  5
1346B
  8
0
 10
4037.5731189795378668
 20
104.8110770673282985
 30
0.0
 11
4037.5731189795378668
 21
104.228399761028399
 31
0.0
  0
ARC
  5
1346C
  8
0
 10
4037.5809918297868535
 20
104.228399761028399
 30
0.0
 40
0.0078728502485887
 50
180.0000000000065086
 51
204.999885275574087
  0
ARC
  5
1346D
  8
0
 10
4036.5148678625100729
 20
103.5589108492085018
 30
0.0
 40
1.2510909530294301
 50
29.5712412457154414
 51
32.17213355409271
  0
ARC
  5
1346E
  8
0
 10
4036.9914404851360814
 20
103.8236222587486992
 30
0.0
 40
0.7059762942449809
 50
19.1490341287548489
 51
29.9738154788824005
  0
ARC
  5
1346F
  8
0
 10
4037.2718248995352042
 20
103.9213042563161054
 30
0.0
 40
0.4090637929709763
 50
0.5527111094574466
 51
19.1065103939490406
  0
ARC
  5
13470
  8
0
 10
4037.2878685718028464
 20
103.9275897169899991
 30
0.0
 40
0.3930080506044549
 50
345.3462435792267797
 51
359.6589368485875866
  0
ARC
  5
13471
  8
0
 10
4037.1205897167978947
 20
103.9734932385465953
 30
0.0
 40
0.5664621089585176
 50
333.2325501898545212
 51
345.1345783803636209
  0
ARC
  5
13472
  8
0
 10
4036.7892024385209879
 20
104.1321800470419987
 30
0.0
 40
0.9338370096478659
 50
328.8883652502842097
 51
333.6966950385315158
  0
ARC
  5
13473
  8
0
 10
4036.2392249620020266
 20
104.4626815227690031
 30
0.0
 40
1.575479882213209
 50
327.9171449851546072
 51
328.9325316315467944
  0
ARC
  5
13474
  8
0
 10
4037.5837552343700736
 20
103.6213511526760982
 30
0.0
 40
0.0106626431100466
 50
154.9064258902976121
 51
175.9681875153569877
  0
LINE
  5
13475
  8
0
 10
4037.5731189795378668
 20
103.622100846771005
 30
0.0
 11
4037.5731189795378668
 21
103.3622580287284052
 31
0.0
  0
ARC
  5
13476
  8
0
 10
4037.5811693735431618
 20
103.3623359229025027
 30
0.0
 40
0.0080507708413047
 50
180.5543664269237922
 51
208.5732206162595901
  0
ARC
  5
13477
  8
0
 10
4036.3772074855951359
 20
102.6070684397924992
 30
0.0
 40
1.4132151454606841
 50
30.7976529372461805
 51
32.1208896250949465
  0
ARC
  5
13478
  8
0
 10
4036.9098673916669213
 20
102.917622490732299
 30
0.0
 40
0.7966867549382082
 50
21.7886217406561187
 51
31.2267152124024285
  0
ARC
  5
13479
  8
0
 10
4037.2476683323848192
 20
103.0511985795790935
 30
0.0
 40
0.4334393413594944
 50
2.4325184311716619
 51
21.9674418562143003
  0
LINE
  5
1347A
  8
0
 10
4037.6807171026380274
 20
103.0695949167283061
 30
0.0
 11
4037.6808696594380308
 21
103.0591085493283998
 31
0.0
  0
ARC
  5
1347B
  8
0
 10
4037.2589996127990162
 20
103.0622044389258036
 30
0.0
 40
0.4218814060654622
 50
353.9749607286400988
 51
359.5795429775438947
  0
ARC
  5
1347C
  8
0
 10
4037.214416965466171
 20
103.0746251744558037
 30
0.0
 40
0.4675844568316813
 50
333.7694101121305152
 51
353.0347521263032036
  0
ARC
  5
1347D
  8
0
 10
4036.7694146507478763
 20
103.274913424798001
 30
0.0
 40
0.9554375540947369
 50
327.4018003706382274
 51
334.7901932753437109
  0
ARC
  5
1347E
  8
0
 10
4037.5813795025560466
 20
102.7558508808146058
 30
0.0
 40
0.0082612320543332
 50
148.4225835338484956
 51
179.2493239400722018
  0
LINE
  5
1347F
  8
0
 10
4037.5731189795378668
 20
102.7559591144708975
 30
0.0
 11
4037.5731189795378668
 21
101.9764313980282964
 31
0.0
  0
ARC
  5
13480
  8
0
 10
4037.5928040189378407
 20
101.9764313980283958
 30
0.0
 40
0.0196850394000094
 50
180.0000000000308944
 51
269.9999999999739089
  0
LINE
  5
13481
  8
0
 10
4037.5928040189378407
 20
101.9567463586283935
 30
0.0
 11
4038.057370902286948
 21
101.9567463586281946
 31
0.0
  0
LINE
  5
13482
  8
0
 10
4038.0652449637382233
 20
101.9567463586281946
 30
0.0
 11
4039.4431977197377819
 21
101.9567463586276972
 31
0.0
  0
LINE
  5
13483
  8
0
 10
4039.9943788220380156
 20
101.9567463586274982
 30
0.0
 11
4040.5061898456378913
 21
101.9567463586272993
 31
0.0
  0
ARC
  5
13484
  8
0
 10
4040.5061898456378913
 20
101.9764313980273016
 30
0.0
 40
0.0196850393999952
 50
269.9999999999739089
 51
0.0000000030761307
  0
LINE
  5
13485
  8
0
 10
4040.5258748850378652
 20
101.9764313980282964
 30
0.0
 11
4040.5258748849009862
 21
104.5335180122282992
 31
0.0
  0
ARC
  5
13486
  8
0
 10
4040.9908446048771111
 20
104.5945416342284062
 30
0.0
 40
0.4689570585982492
 50
172.5231122990626034
 51
187.4768877009373966
  0
LINE
  5
13487
  8
0
 10
4040.5258748850378652
 20
104.6555652562283001
 30
0.0
 11
4040.5258748850378652
 21
104.8110770673282985
 31
0.0
  0
ARC
  5
13488
  8
0
 10
4040.5061898458088763
 20
104.811077067399097
 30
0.0
 40
0.0196850392292944
 50
359.9999997941907282
 51
90.0000004968708254
  0
LINE
  5
13489
  8
0
 10
4040.5061898456378913
 20
104.8307621066282991
 30
0.0
 11
4039.9943788220380156
 21
104.8307621021898939
 31
0.0
  0
LINE
  5
1348A
  8
0
 10
4039.4431977215481311
 20
104.8425731303284039
 30
0.0
 11
4039.3250905532390789
 21
104.8425731303284039
 31
0.0
  0
LINE
  5
1348B
  8
0
 10
4039.3250905532390789
 20
104.8425731303284039
 30
0.0
 11
4039.3270254996900803
 21
105.212703581079694
 31
0.0
  0
ARC
  5
1348C
  8
0
 10
4039.3388364319598622
 20
105.212651848517595
 30
0.0
 40
0.0118110455659382
 50
89.994459741488285
 51
179.7490427981852861
  0
LINE
  5
1348D
  8
0
 10
4039.3388375740378251
 20
105.2244628940283064
 30
0.0
 11
4039.4431977197377819
 21
105.2244628940283064
 31
0.0
  0
LINE
  5
1348E
  8
0
 10
4039.9943788220380156
 20
105.2244628940283064
 30
0.0
 11
4040.2168495589339727
 21
105.2244628940283064
 31
0.0
  0
ARC
  5
1348F
  8
0
 10
4040.2167761908540342
 20
105.2124721193742971
 30
0.0
 40
0.0119909991109841
 50
1.1544663329630009
 51
89.6494280833054376
  0
LINE
  5
13490
  8
0
 10
4040.2287647559242032
 20
105.2127137125282985
 30
0.0
 11
4040.2305996183399657
 21
104.8425112882359969
 31
0.0
  0
ARC
  5
13491
  8
0
 10
4040.2424104801771136
 20
104.8425731303671995
 30
0.0
 40
0.0118110237388506
 50
180.3000000721607989
 51
269.9999993274134908
  0
ARC
  5
13492
  8
0
 10
4038.5494314951629349
 20
105.0800240279677951
 30
0.0
 40
0.0568713496485476
 50
129.2400983239288053
 51
162.5684980668766002
  0
ARC
  5
13493
  8
0
 10
4038.5199394658980054
 20
105.1161332033369007
 30
0.0
 40
0.0102489050964253
 50
33.2206816513061227
 51
129.2400983239303116
  0
ARC
  5
13494
  8
0
 10
4038.4695196273542024
 20
105.0831133862896962
 30
0.0
 40
0.0705188680684477
 50
8.8266859954263932
 51
33.2206816513061227
  0
ARC
  5
13495
  8
0
 10
4038.2330791203521585
 20
105.0463976904308936
 30
0.0
 40
0.3097930949996881
 50
356.6595729904262839
 51
8.8266859954263932
  0
ARC
  5
13496
  8
0
 10
4038.3336605363938361
 20
105.040526994937494
 30
0.0
 40
0.2090404954382427
 50
344.687631573256283
 51
356.6595729904262839
  0
ARC
  5
13497
  8
0
 10
4038.5057233122461184
 20
104.993416020693104
 30
0.0
 40
0.0306447479325106
 50
323.185928089813217
 51
344.6876315732595231
  0
ARC
  5
13498
  8
0
 10
4038.5071646846249678
 20
104.9923371841683064
 30
0.0
 40
0.0288443472601966
 50
313.4750051016876
 51
323.1859280898152065
  0
ARC
  5
13499
  8
0
 10
4038.5197553237130705
 20
104.9790578217670998
 30
0.0
 40
0.0105450123420194
 50
236.4816739117268867
 51
313.47500510168868
  0
ARC
  5
1349A
  8
0
 10
4038.5347013542282184
 20
105.0016231256854979
 30
0.0
 40
0.0376111677595363
 50
207.98105534124619
 51
236.4816739117256077
  0
ARC
  5
1349B
  8
0
 10
4038.6116275517379108
 20
105.0424928898212045
 30
0.0
 40
0.1247201654794815
 50
180.2871882092900933
 51
207.98105534124619
  0
ARC
  5
1349C
  8
0
 10
4038.6928827887791158
 20
105.0429001753428935
 30
0.0
 40
0.2059764232575611
 50
169.3665937337819969
 51
180.2871882092900933
  0
ARC
  5
1349D
  8
0
 10
4038.5739637578458314
 20
105.0652270389259968
 30
0.0
 40
0.0849796267900018
 50
158.0001824055983946
 51
169.3665937337819969
  0
ARC
  5
1349E
  8
0
 10
4038.5132999141392247
 20
105.0945137504429994
 30
0.0
 40
0.0188598105055907
 50
118.5165825237119037
 51
136.3320283852768
  0
ARC
  5
1349F
  8
0
 10
4038.508951234487995
 20
105.1025174970704938
 30
0.0
 40
0.0097509700311219
 50
73.853289610411494
 51
118.5165825236827004
  0
ARC
  5
134A0
  8
0
 10
4038.5081295398049406
 20
105.0996793552807986
 30
0.0
 40
0.0127056664572466
 50
47.8510865608854701
 51
73.8532896104110534
  0
ARC
  5
134A1
  8
0
 10
4038.494279611048114
 20
105.0843776163315937
 30
0.0
 40
0.0333445555127989
 50
18.2482392777415114
 51
47.8510865608832816
  0
ARC
  5
134A2
  8
0
 10
4038.3685802727018199
 20
105.042932473506994
 30
0.0
 40
0.1657002260526877
 50
6.1868713446348291
 51
18.2482392777415114
  0
ARC
  5
134A3
  8
0
 10
4038.4019023045798349
 20
105.0465446793188988
 30
0.0
 40
0.1321829791595196
 50
351.1413584385657032
 51
6.1868713446340191
  0
ARC
  5
134A4
  8
0
 10
4038.3924092946172095
 20
105.0480242253198071
 30
0.0
 40
0.1417905956452937
 50
338.7577217642096912
 51
351.1413584385657032
  0
ARC
  5
134A5
  8
0
 10
4038.4925498955940384
 20
105.0108616063436955
 30
0.0
 40
0.0350280233232754
 50
314.705958438802611
 51
336.0667769746099793
  0
ARC
  5
134A6
  8
0
 10
4038.5074644689598244
 20
104.9963333921881059
 30
0.0
 40
0.0142155856437624
 50
283.0630653658699885
 51
313.1740400139253211
  0
ARC
  5
134A7
  8
0
 10
4038.5088592867368789
 20
104.9903219682751967
 30
0.0
 40
0.008044464668322
 50
248.1743103478490013
 51
283.0630653658701021
  0
ARC
  5
134A8
  8
0
 10
4038.5143880077989706
 20
105.0041268028821975
 30
0.0
 40
0.0229152486122159
 50
232.6258450983044099
 51
248.1743103478239902
  0
LINE
  5
134A9
  8
0
 10
4037.5887181551061076
 20
104.2008408468282994
 30
0.0
 11
4037.5849330156379438
 21
104.2008380306284039
 31
0.0
  0
ARC
  5
134AA
  8
0
 10
4037.5849418100369803
 20
104.189017838308601
 30
0.0
 40
0.0118201955913024
 50
90.0426289033566434
 51
179.9559546195879989
  0
LINE
  5
134AB
  8
0
 10
4037.5731216179378862
 20
104.1890269249282994
 30
0.0
 11
4037.5731189795378668
 21
103.6614736658282965
 31
0.0
  0
ARC
  5
134AC
  8
0
 10
4037.5849366416309749
 20
103.6614747675165944
 30
0.0
 40
0.0118150236440013
 50
180.0053391327514021
 51
269.9824262932330043
  0
LINE
  5
134AD
  8
0
 10
4037.5849330177388765
 20
103.6496597444283054
 30
0.0
 11
4037.5887183659128823
 21
103.6496597444283054
 31
0.0
  0
LINE
  5
134AE
  8
0
 10
4037.5887068246561284
 20
103.3346991145283056
 30
0.0
 11
4037.4668227921588368
 21
103.3346991145642022
 31
0.0
  0
ARC
  5
134AF
  8
0
 10
4037.4668227921561083
 20
103.3228877039796032
 30
0.0
 40
0.0118114105845741
 50
89.9999999831423452
 51
180.0121827582781862
  0
LINE
  5
134B0
  8
0
 10
4037.4550113818390855
 20
103.3228851925283038
 30
0.0
 11
4037.4550087433381123
 21
102.7953319453473995
 31
0.0
  0
ARC
  5
134B1
  8
0
 10
4037.4670239586980642
 20
102.7955352325265039
 30
0.0
 40
0.0120169349590372
 50
180.9693031577587021
 51
268.755826086115519
  0
LINE
  5
134B2
  8
0
 10
4037.4667630322878722
 20
102.7835211306782952
 30
0.0
 11
4037.5887989849547921
 21
102.7835172174141007
 31
0.0
  0
LINE
  5
134B3
  8
0
 10
4037.6617016567379324
 20
101.9567463586283935
 30
0.0
 11
4037.6617016567379324
 21
101.9370613192283059
 31
0.0
  0
LINE
  5
134B4
  8
0
 10
4038.4687882708381039
 20
101.9567463586283935
 30
0.0
 11
4038.4687882708381039
 21
101.9370613192283059
 31
0.0
  0
LINE
  5
134B5
  8
0
 10
4039.2699693732379274
 20
101.9567463586276972
 30
0.0
 11
4039.312320828637894
 21
101.0438922562284034
 31
0.0
  0
LINE
  5
134B6
  8
0
 10
4039.312320828637894
 20
101.0438922562284034
 30
0.0
 11
4039.3526465386380551
 21
101.0438922562284034
 31
0.0
  0
LINE
  5
134B7
  8
0
 10
4039.3526465386380551
 20
101.0438922562284034
 30
0.0
 11
4039.3526465386380551
 21
100.7843424871282991
 31
0.0
  0
ARC
  5
134B8
  8
0
 10
4039.4002784681370031
 20
100.847041861911805
 30
0.0
 40
0.0787401568834577
 50
232.7765182341420882
 51
270.0000000735013828
  0
LINE
  5
134B9
  8
0
 10
4039.400278468237957
 20
100.768301705028307
 30
0.0
 11
4039.4431977197377819
 21
100.768301705028307
 31
0.0
  0
LINE
  5
134BA
  8
0
 10
4040.1676071685378702
 20
101.9567463586276972
 30
0.0
 11
4040.1252557131379035
 21
101.0438922562284034
 31
0.0
  0
LINE
  5
134BB
  8
0
 10
4040.1252557131379035
 20
101.0438922562284034
 30
0.0
 11
4040.0849300031381972
 21
101.0438922562284034
 31
0.0
  0
LINE
  5
134BC
  8
0
 10
4040.0849300031381972
 20
101.0438922562284034
 30
0.0
 11
4040.0849300031381972
 21
100.7843424871282991
 31
0.0
  0
ARC
  5
134BD
  8
0
 10
4040.0372980736401587
 20
100.847041861911805
 30
0.0
 40
0.0787401568834577
 50
269.9999999264985036
 51
307.2234817658577981
  0
LINE
  5
134BE
  8
0
 10
4040.0372980735378405
 20
100.768301705028307
 30
0.0
 11
4039.9943788220380156
 21
100.768301705028307
 31
0.0
  0
LINE
  5
134BF
  8
0
 10
4040.9337467839382043
 20
101.1576639719158948
 30
0.0
 11
4040.9337467839382043
 21
98.7105534336877355
 31
0.0
  0
ARC
  5
134C0
  8
0
 10
4038.4567948541830447
 20
124.0128230678081991
 30
0.0
 40
0.0393700788201345
 50
57.4804456410940432
 51
179.6999998912930039
  0
LINE
  5
134C1
  8
0
 10
4038.4174253150381446
 20
124.0130292081916963
 30
0.0
 11
4038.41932199178882
 21
122.7644756469938017
 31
0.0
  0
ARC
  5
134C2
  8
0
 10
4038.4468905998519404
 20
122.7644955387782062
 30
0.0
 40
0.0275686152395942
 50
180.0413410214256089
 51
299.2745201690892145
  0
ARC
  5
134C3
  8
0
 10
4038.0652737387040361
 20
123.3986469656720999
 30
0.0
 40
0.7676772672217937
 50
300.975165339921773
 51
329.5207977704221776
  0
ARC
  5
134C4
  8
0
 10
4038.065244963837813
 20
123.3986754925283975
 30
0.0
 40
0.7677165353999945
 50
329.5200522414432953
 51
32.6426958257707298
  0
ARC
  5
134C5
  8
0
 10
4038.0652449633980723
 20
123.3986754921738935
 30
0.0
 40
0.7677165359617238
 50
32.6426958303272272
 51
57.4804455829173691
  0
ARC
  5
134C6
  8
0
 10
4038.0674046689628085
 20
123.3941259633996026
 30
0.0
 40
0.7626950600840862
 50
291.0086642065803062
 51
300.9925804830302809
  0
ARC
  5
134C7
  8
0
 10
4040.0768262948540723
 20
135.0936669933622909
 30
0.0
 40
0.0468078704085329
 50
162.2044767542379873
 51
218.2001910262370075
  0
ARC
  5
134C8
  8
0
 10
4040.0703235164269245
 20
135.0957542466587995
 30
0.0
 40
0.039978320379283
 50
121.9699824154368031
 51
162.2044767542427053
  0
ARC
  5
134C9
  8
0
 10
4040.1095560537019082
 20
135.0328958063927018
 30
0.0
 40
0.1140753884300779
 50
99.7491419618744857
 51
121.9699824154368031
  0
ARC
  5
134CA
  8
0
 10
4040.1093418626041966
 20
135.0341424370134007
 30
0.0
 40
0.1128104909120126
 50
67.5551593688996945
 51
99.7491419618744857
  0
ARC
  5
134CB
  8
0
 10
4040.1270146545889475
 20
135.0769247794202954
 30
0.0
 40
0.0665216542624898
 50
35.6217137390826935
 51
67.5551593688996945
  0
ARC
  5
134CC
  8
0
 10
4040.1436965260468241
 20
135.0933067077349108
 30
0.0
 40
0.0435689750801421
 50
326.7513336476317818
 51
30.8814333165804484
  0
ARC
  5
134CD
  8
0
 10
4040.1143521087838053
 20
135.1110679533832979
 30
0.0
 40
0.0778575010850482
 50
287.1877728985534191
 51
327.6602621045626051
  0
ARC
  5
134CE
  8
0
 10
4040.1085841016861195
 20
135.1236426433382007
 30
0.0
 40
0.0915926753989029
 50
242.5159667304417042
 51
288.3104205823682946
  0
ARC
  5
134CF
  8
0
 10
4040.1010595001062029
 20
135.1098792870554064
 30
0.0
 40
0.0759107340714393
 50
216.5050347725818938
 51
242.7601856416989108
  0
ARC
  5
134D0
  8
0
 10
4040.0779529969508985
 20
135.0941712612111019
 30
0.0
 40
0.0343559813075873
 50
139.6302843877770101
 51
215.9699098637279064
  0
ARC
  5
134D1
  8
0
 10
4040.0999064092538902
 20
135.0755074423666997
 30
0.0
 40
0.063170742205566
 50
104.1503821620388948
 51
139.6302843877757027
  0
ARC
  5
134D2
  8
0
 10
4040.1080180052617834
 20
135.0433335913787118
 30
0.0
 40
0.0963513792877582
 50
69.5331444412129542
 51
104.1503821620388948
  0
ARC
  5
134D3
  8
0
 10
4040.1230770038669107
 20
135.0836818514528943
 30
0.0
 40
0.0532845065197633
 50
27.5579297437309201
 51
69.5331444412376527
  0
ARC
  5
134D4
  8
0
 10
4040.1432478690198877
 20
135.0942080735271986
 30
0.0
 40
0.0305322505401405
 50
335.7987229298748275
 51
27.557929743725861
  0
ARC
  5
134D5
  8
0
 10
4040.1252487128208486
 20
135.1022976972803065
 30
0.0
 40
0.050265766099519
 50
293.032767920261108
 51
335.7987229298785223
  0
ARC
  5
134D6
  8
0
 10
4040.1085506257959423
 20
135.1415734578719992
 30
0.0
 40
0.0929437637135522
 50
246.9845883815222862
 51
293.0327679202608238
  0
ARC
  5
134D7
  8
0
 10
4040.092224374901889
 20
135.1031399673107103
 30
0.0
 40
0.0511863731699903
 50
214.7118342637369892
 51
246.9845883815225989
  0
LINE
  5
134D8
  8
0
 10
4037.8460416424381947
 20
135.7992660436283074
 30
0.0
 11
4037.8460416424381947
 21
135.3661951775283114
 31
0.0
  0
LINE
  5
134D9
  8
0
 10
4038.2844482851378416
 20
135.7992660436283074
 30
0.0
 11
4038.2844482851378416
 21
135.3661951775283114
 31
0.0
  0
ARC
  5
134DA
  8
0
 10
4038.057224845852943
 20
104.8224953450563959
 30
0.0
 40
0.0082680506582005
 50
14.0667675334056401
 51
88.9882279157905742
  0
LINE
  5
134DB
  8
0
 10
4038.0652449637382233
 20
104.8307621066282991
 30
0.0
 11
4038.065244963837813
 21
101.9567463586283935
 31
0.0
  0
ARC
  5
134DC
  8
0
 10
4038.057370902286948
 20
101.9646204201791022
 30
0.0
 40
0.0078740615508736
 50
270.0003329065581852
 51
359.9996664105732975
  0
ARC
  5
134DD
  8
0
 10
4036.7828204537649981
 20
103.7433018554327049
 30
0.0
 40
0.9073271724972132
 50
26.532696757225871
 51
29.4228168579078684
  0
ARC
  5
134DE
  8
0
 10
4037.0387187556088975
 20
103.8710704279368997
 30
0.0
 40
0.6213048848925817
 50
10.6902784372712407
 51
26.532696757225871
  0
ARC
  5
134DF
  8
0
 10
4037.2517081296400647
 20
103.9249823337055005
 30
0.0
 40
0.4022369343886094
 50
345.9773035446083895
 51
8.7716816808403273
  0
ARC
  5
134E0
  8
0
 10
4036.812355774362004
 20
104.0644828650646048
 30
0.0
 40
0.8627820324153564
 50
336.6007434198282908
 51
344.0587067881734811
  0
ARC
  5
134E1
  8
0
 10
4036.8222010242488977
 20
104.0860517197353943
 30
0.0
 40
0.8626379886348553
 50
330.515659357706113
 51
335.0260811985904184
  0
ARC
  5
134E2
  8
0
 10
4036.8226842389030935
 20
102.9587325105826068
 30
0.0
 40
0.7296858606186206
 50
19.8848375766826315
 51
29.9374360405922815
  0
ARC
  5
134E3
  8
0
 10
4037.0692289701041773
 20
103.0479066706366069
 30
0.0
 40
0.4675097074243772
 50
8.3771196372808827
 51
19.8848375766826315
  0
ARC
  5
134E4
  8
0
 10
4037.1472533611231484
 20
103.0593964746698958
 30
0.0
 40
0.3886438644331864
 50
355.1509142822628746
 51
8.3771196372808827
  0
ARC
  5
134E5
  8
0
 10
4037.1036392876308128
 20
103.0630964814326944
 30
0.0
 40
0.432414601879196
 50
342.9239539446858771
 51
355.1509142822628746
  0
ARC
  5
134E6
  8
0
 10
4036.9115891567430481
 20
103.1220909372058969
 30
0.0
 40
0.6333215419934884
 50
333.0740392431276859
 51
342.9239539446866729
  0
ARC
  5
134E7
  8
0
 10
4036.3980495084028917
 20
103.3828133280618005
 30
0.0
 40
1.209254811588693
 50
330.9337238460337858
 51
333.0784235644052274
  0
LINE
  5
134E8
  8
0
 10
4017.333238781037835
 20
142.9677306106283936
 30
0.0
 11
4027.301188154438023
 21
142.9677306106283936
 31
0.0
  0
LINE
  5
134E9
  8
0
 10
4017.3834933405519223
 20
142.4952896657283077
 30
0.0
 11
4027.2509747842191246
 21
142.4952896657283077
 31
0.0
  0
ARC
  5
134EA
  8
0
 10
4017.333238781037835
 20
142.951982579128412
 30
0.0
 40
0.0157480314999958
 50
89.9999999999739515
 51
180.0000000000129887
  0
LINE
  5
134EB
  8
0
 10
4017.3174907495390471
 20
142.951982579128412
 30
0.0
 11
4017.3244460744817843
 21
142.5533748490271932
 31
0.0
  0
ARC
  5
134EC
  8
0
 10
4017.3834933405519223
 20
142.5543448994334881
 30
0.0
 40
0.059055233705195
 50
180.9411916679304113
 51
269.9999199454846917
  0
ARC
  5
134ED
  8
0
 10
4027.301188154438023
 20
142.951982579128412
 30
0.0
 40
0.0157480314999994
 50
358.9999999999934062
 51
90.0
  0
LINE
  5
134EE
  8
0
 10
4027.3169337874369376
 20
142.9517077380820069
 30
0.0
 11
4027.3099798011398889
 21
142.5533141299287081
 31
0.0
  0
ARC
  5
134EF
  8
0
 10
4027.2509336628268102
 20
142.5543447841066893
 30
0.0
 40
0.0590551326952065
 50
269.9601036844036912
 51
358.9999999999934062
  0
LINE
  5
134F0
  8
0
 10
4021.5180008693369018
 20
142.9677306106283936
 30
0.0
 11
4021.5298118929381417
 21
142.9795416342284113
 31
0.0
  0
LINE
  5
134F1
  8
0
 10
4021.5298118929381417
 20
142.9795416342284113
 30
0.0
 11
4023.1046150425381711
 21
142.9795416342284113
 31
0.0
  0
LINE
  5
134F2
  8
0
 10
4023.1046150425381711
 20
142.9795416342284113
 30
0.0
 11
4023.1164260661380467
 21
142.9677306106283936
 31
0.0
  0
LINE
  5
134F3
  8
0
 10
4018.005643396305004
 20
142.4952896657283077
 30
0.0
 11
4018.0111092538390949
 21
142.4432855046283066
 31
0.0
  0
ARC
  5
134F4
  8
0
 10
4018.0189401349171021
 20
142.4441085633879993
 30
0.0
 40
0.0078740157596764
 50
185.9999999456489945
 51
270.0000001582325808
  0
LINE
  5
134F5
  8
0
 10
4018.01894013493893
 20
142.4362345476282883
 30
0.0
 11
4018.176146748337942
 21
142.4362345480624867
 31
0.0
  0
ARC
  5
134F6
  8
0
 10
4018.1761467483161141
 20
142.4441085638100901
 30
0.0
 40
0.0078740157475998
 50
270.0000001582325808
 51
353.9999969568320921
  0
LINE
  5
134F7
  8
0
 10
4018.1839776293381874
 20
142.4432855046283066
 30
0.0
 11
4018.1894434896839812
 21
142.4952896654467907
 31
0.0
  0
LINE
  5
134F8
  8
0
 10
4018.0702403519690051
 20
142.4952896657283077
 30
0.0
 11
4018.0757062096131449
 21
142.4432855046283066
 31
0.0
  0
ARC
  5
134F9
  8
0
 10
4018.0835370907088873
 20
142.4441085634067008
 30
0.0
 40
0.0078740157783448
 50
186.00000006798561
 51
269.9999994866884094
  0
LINE
  5
134FA
  8
0
 10
4018.2620684732901282
 20
142.4952896657283077
 30
0.0
 11
4018.2675343309210803
 21
142.4432855045612882
 31
0.0
  0
ARC
  5
134FB
  8
0
 10
4018.2753652119381513
 20
142.4441085633283137
 30
0.0
 40
0.0078740157000062
 50
186.0000000454656117
 51
269.9999999999478746
  0
LINE
  5
134FC
  8
0
 10
4018.2753652119381513
 20
142.4362345476282883
 30
0.0
 11
4018.3679748695390117
 21
142.4362345476282883
 31
0.0
  0
ARC
  5
134FD
  8
0
 10
4018.3679748695390117
 20
142.4441085633283137
 30
0.0
 40
0.0078740156999828
 50
269.9999999999478746
 51
354.0000000004890808
  0
LINE
  5
134FE
  8
0
 10
4018.3758057505560828
 20
142.4432855045675126
 30
0.0
 11
4018.3812716081451981
 21
142.4952896657283077
 31
0.0
  0
LINE
  5
134FF
  8
0
 10
4018.5752890889389164
 20
142.4952896657283929
 30
0.0
 11
4018.580754946570778
 21
142.4432855045612882
 31
0.0
  0
ARC
  5
13500
  8
0
 10
4018.5885858275878491
 20
142.444108563328399
 30
0.0
 40
0.0078740157000062
 50
186.0000000454656117
 51
269.9999999999478746
  0
LINE
  5
13501
  8
0
 10
4018.5885858275878491
 20
142.436234547628402
 30
0.0
 11
4018.6811954851877999
 21
142.4362345476282883
 31
0.0
  0
ARC
  5
13502
  8
0
 10
4018.6811954851877999
 20
142.4441085633283137
 30
0.0
 40
0.0078740156999828
 50
269.9999999999478746
 51
354.0000000004890808
  0
LINE
  5
13503
  8
0
 10
4018.6890263662057805
 20
142.4432855045675126
 30
0.0
 11
4018.6944922237948958
 21
142.4952896657283929
 31
0.0
  0
LINE
  5
13504
  8
0
 10
4018.7337154206397827
 20
142.4952896657283929
 30
0.0
 11
4018.7391812782711895
 21
142.4432855045612882
 31
0.0
  0
ARC
  5
13505
  8
0
 10
4018.7470121592878058
 20
142.444108563328399
 30
0.0
 40
0.0078740157000062
 50
186.0000000454656117
 51
269.9999999999478746
  0
LINE
  5
13506
  8
0
 10
4018.7470121592878058
 20
142.436234547628402
 30
0.0
 11
4018.839621816889121
 21
142.4362345476282883
 31
0.0
  0
ARC
  5
13507
  8
0
 10
4018.839621816889121
 20
142.4441085633283137
 30
0.0
 40
0.0078740156999828
 50
269.9999999999478746
 51
354.0000000004890808
  0
LINE
  5
13508
  8
0
 10
4018.847452697906192
 20
142.4432855045675126
 30
0.0
 11
4018.8529185554948526
 21
142.4952896657283929
 31
0.0
  0
LINE
  5
13509
  8
0
 10
4018.8877266062891067
 20
142.4952896657283929
 30
0.0
 11
4018.8931924639209683
 21
142.4432855045612882
 31
0.0
  0
ARC
  5
1350A
  8
0
 10
4018.9010233449380394
 20
142.444108563328399
 30
0.0
 40
0.0078740157000062
 50
186.0000000454656117
 51
269.9999999999478746
  0
LINE
  5
1350B
  8
0
 10
4018.9010233449380394
 20
142.436234547628402
 30
0.0
 11
4018.9936330025379903
 21
142.4362345476282883
 31
0.0
  0
ARC
  5
1350C
  8
0
 10
4018.9936330025379903
 20
142.4441085633283137
 30
0.0
 40
0.0078740156999828
 50
269.9999999999478746
 51
354.0000000004890808
  0
LINE
  5
1350D
  8
0
 10
4019.0014638835559708
 20
142.4432855045675126
 30
0.0
 11
4019.0036723983539559
 21
142.4642981192633897
 31
0.0
  0
LINE
  5
1350E
  8
0
 10
4019.0004150555391789
 20
142.4952896657283929
 30
0.0
 11
4019.0058809131710404
 21
142.4432855045612882
 31
0.0
  0
ARC
  5
1350F
  8
0
 10
4019.013711794189021
 20
142.444108563328399
 30
0.0
 40
0.0078740157000062
 50
186.0000000454656117
 51
269.9999999999478746
  0
LINE
  5
13510
  8
0
 10
4019.013711794189021
 20
142.436234547628402
 30
0.0
 11
4019.1063214517889719
 21
142.4362345476282883
 31
0.0
  0
ARC
  5
13511
  8
0
 10
4019.1063214517889719
 20
142.4441085633283137
 30
0.0
 40
0.0078740156999828
 50
269.9999999999478746
 51
354.0000000004890808
  0
LINE
  5
13512
  8
0
 10
4019.114152332806043
 20
142.4432855045675126
 30
0.0
 11
4019.1196181903951583
 21
142.4952896657283929
 31
0.0
  0
LINE
  5
13513
  8
0
 10
4019.1890450586388397
 20
142.4952896657283929
 30
0.0
 11
4019.1945109162697918
 21
142.4432855045612882
 31
0.0
  0
ARC
  5
13514
  8
0
 10
4019.2023417972891366
 20
142.444108563328399
 30
0.0
 40
0.0078740157000062
 50
186.0000000454656117
 51
269.9999999999478746
  0
LINE
  5
13515
  8
0
 10
4019.2023417972891366
 20
142.436234547628402
 30
0.0
 11
4019.294951454888178
 21
142.4362345476282883
 31
0.0
  0
ARC
  5
13516
  8
0
 10
4019.294951454888178
 20
142.4441085633283137
 30
0.0
 40
0.0078740156999828
 50
269.9999999999478746
 51
354.0000000004890808
  0
LINE
  5
13517
  8
0
 10
4019.3027823359061586
 20
142.4432855045675126
 30
0.0
 11
4019.3082481934948191
 21
142.4952896657283929
 31
0.0
  0
LINE
  5
13518
  8
0
 10
4019.4229662309890045
 20
142.4952896657283929
 30
0.0
 11
4019.4284320886208661
 21
142.4432855045612882
 31
0.0
  0
ARC
  5
13519
  8
0
 10
4019.4362629696379372
 20
142.444108563328399
 30
0.0
 40
0.0078740157000062
 50
186.0000000454656117
 51
269.9999999999478746
  0
LINE
  5
1351A
  8
0
 10
4019.4362629696379372
 20
142.436234547628402
 30
0.0
 11
4019.5288726272387976
 21
142.4362345476282883
 31
0.0
  0
ARC
  5
1351B
  8
0
 10
4019.5288726272387976
 20
142.4441085633283137
 30
0.0
 40
0.0078740156999828
 50
269.9999999999478746
 51
304.5157059259046832
  0
LINE
  5
1351C
  8
0
 10
4019.5244992291891322
 20
142.4952896657283929
 30
0.0
 11
4019.5299650868200843
 21
142.4432855045612882
 31
0.0
  0
ARC
  5
1351D
  8
0
 10
4019.5377959678380648
 20
142.444108563328399
 30
0.0
 40
0.0078740157000062
 50
186.0000000454656117
 51
269.9999999999478746
  0
LINE
  5
1351E
  8
0
 10
4019.5377959678380648
 20
142.436234547628402
 30
0.0
 11
4019.6304056254380157
 21
142.4362345476282883
 31
0.0
  0
ARC
  5
1351F
  8
0
 10
4019.6304056254380157
 20
142.4441085633283137
 30
0.0
 40
0.0078740156999828
 50
269.9999999999478746
 51
354.0000000004890808
  0
LINE
  5
13520
  8
0
 10
4019.6382365064559963
 20
142.4432855045675126
 30
0.0
 11
4019.6437023640451116
 21
142.4952896657283929
 31
0.0
  0
ARC
  5
13521
  8
0
 10
4019.6377183123881878
 20
142.444108563328399
 30
0.0
 40
0.0078740157000062
 50
242.3314728791733899
 51
269.9999999999478746
  0
LINE
  5
13522
  8
0
 10
4019.6377183123881878
 20
142.436234547628402
 30
0.0
 11
4019.7303279699881386
 21
142.4362345476282883
 31
0.0
  0
ARC
  5
13523
  8
0
 10
4019.7303279699881386
 20
142.4441085633283137
 30
0.0
 40
0.0078740156999828
 50
269.9999999999478746
 51
354.0000000004890808
  0
LINE
  5
13524
  8
0
 10
4019.7381588510070287
 20
142.4432855045675126
 30
0.0
 11
4019.743624708596144
 21
142.4952896657283929
 31
0.0
  0
LINE
  5
13525
  8
0
 10
4019.8027468107379718
 20
142.4952896657283929
 30
0.0
 11
4019.8082126683721071
 21
142.4432855045612882
 31
0.0
  0
ARC
  5
13526
  8
0
 10
4019.816043549387814
 20
142.444108563328399
 30
0.0
 40
0.0078740157000062
 50
186.0000000454656117
 51
269.9999999999478746
  0
LINE
  5
13527
  8
0
 10
4019.816043549387814
 20
142.436234547628402
 30
0.0
 11
4019.9086532069882196
 21
142.4362345476282883
 31
0.0
  0
ARC
  5
13528
  8
0
 10
4019.9086532069882196
 20
142.4441085633283137
 30
0.0
 40
0.0078740156999828
 50
269.9999999999478746
 51
354.0000000004890808
  0
LINE
  5
13529
  8
0
 10
4019.9164840880062002
 20
142.4432855045675126
 30
0.0
 11
4019.921949945596225
 21
142.4952896657283929
 31
0.0
  0
LINE
  5
1352A
  8
0
 10
4020.4164826388391702
 20
142.4952896657283929
 30
0.0
 11
4020.4219484964710318
 21
142.4432855045612882
 31
0.0
  0
ARC
  5
1352B
  8
0
 10
4020.4297793774881029
 20
142.444108563328399
 30
0.0
 40
0.0078740157000062
 50
186.0000000454656117
 51
269.9999999999478746
  0
LINE
  5
1352C
  8
0
 10
4020.4297793774881029
 20
142.436234547628402
 30
0.0
 11
4020.5223890350889633
 21
142.4362345476282883
 31
0.0
  0
ARC
  5
1352D
  8
0
 10
4020.5223890350889633
 20
142.4441085633283137
 30
0.0
 40
0.0078740156999828
 50
269.9999999999478746
 51
354.0000000004890808
  0
LINE
  5
1352E
  8
0
 10
4020.5302199161060344
 20
142.4432855045675126
 30
0.0
 11
4020.5356857736960592
 21
142.4952896657283929
 31
0.0
  0
LINE
  5
1352F
  8
0
 10
4021.0301843908891897
 20
142.4952896657283929
 30
0.0
 11
4021.0356502485210513
 21
142.4432855045612882
 31
0.0
  0
ARC
  5
13530
  8
0
 10
4021.0434811295381223
 20
142.444108563328399
 30
0.0
 40
0.0078740157000062
 50
186.0000000454656117
 51
269.9999999999478746
  0
LINE
  5
13531
  8
0
 10
4021.0434811295381223
 20
142.436234547628402
 30
0.0
 11
4021.1360907871380732
 21
142.4362345476282883
 31
0.0
  0
ARC
  5
13532
  8
0
 10
4021.1360907871380732
 20
142.4441085633283137
 30
0.0
 40
0.0078740156999828
 50
269.9999999999478746
 51
354.0000000004890808
  0
LINE
  5
13533
  8
0
 10
4021.1439216681569633
 20
142.4432855045675126
 30
0.0
 11
4021.1493875257460786
 21
142.4952896657283929
 31
0.0
  0
LINE
  5
13534
  8
0
 10
4021.6251779593130777
 20
142.4362345501048992
 30
0.0
 11
4021.7498095674382057
 21
142.4362345476282883
 31
0.0
  0
ARC
  5
13535
  8
0
 10
4021.7498095674382057
 20
142.4441085633283137
 30
0.0
 40
0.0078740156999828
 50
269.9999999999478746
 51
354.0000000004890808
  0
LINE
  5
13536
  8
0
 10
4021.7576404484561863
 20
142.4432855045675126
 30
0.0
 11
4021.7631063060448469
 21
142.4952896657283929
 31
0.0
  0
LINE
  5
13537
  8
0
 10
4021.5192653180401976
 20
142.4952896657283929
 30
0.0
 11
4021.5247311756711497
 21
142.4432855045612882
 31
0.0
  0
ARC
  5
13538
  8
0
 10
4021.5325620566882208
 20
142.444108563328399
 30
0.0
 40
0.0078740157000062
 50
186.0000000454656117
 51
269.9999999999478746
  0
LINE
  5
13539
  8
0
 10
4021.5325620566882208
 20
142.436234547628402
 30
0.0
 11
4021.6251717142890811
 21
142.4362345476282883
 31
0.0
  0
ARC
  5
1353A
  8
0
 10
4021.6251717142890811
 20
142.4441085633283137
 30
0.0
 40
0.0078740156999828
 50
269.9999999999478746
 51
354.0000000004890808
  0
LINE
  5
1353B
  8
0
 10
4021.6330025953070617
 20
142.4432855045675126
 30
0.0
 11
4021.638468452896177
 21
142.4952896657283929
 31
0.0
  0
LINE
  5
1353C
  8
0
 10
4022.2576112634387755
 20
142.4952896657283929
 30
0.0
 11
4022.2630771210710918
 21
142.4432855045612882
 31
0.0
  0
ARC
  5
1353D
  8
0
 10
4022.2709080020881629
 20
142.444108563328399
 30
0.0
 40
0.0078740157000062
 50
186.0000000454656117
 51
269.9999999999478746
  0
LINE
  5
1353E
  8
0
 10
4022.2709080020881629
 20
142.436234547628402
 30
0.0
 11
4022.3635176596881138
 21
142.4362345476282883
 31
0.0
  0
ARC
  5
1353F
  8
0
 10
4022.3635176596881138
 20
142.4441085633283137
 30
0.0
 40
0.0078740156999828
 50
269.9999999999478746
 51
354.0000000004890808
  0
LINE
  5
13540
  8
0
 10
4022.3713485407070038
 20
142.4432855045675126
 30
0.0
 11
4022.3768143982952097
 21
142.4952896657283929
 31
0.0
  0
LINE
  5
13541
  8
0
 10
4020.803434829759226
 20
142.4952896657283077
 30
0.0
 11
4020.8089006873910876
 21
142.4432855045612882
 31
0.0
  0
ARC
  5
13542
  8
0
 10
4020.8167315684081586
 20
142.4441085633283137
 30
0.0
 40
0.0078740157000062
 50
186.0000000454656117
 51
269.9999999999478746
  0
LINE
  5
13543
  8
0
 10
4020.8167315684081586
 20
142.4362345476282883
 30
0.0
 11
4020.9966293130219128
 21
142.4362345476282883
 31
0.0
  0
ARC
  5
13544
  8
0
 10
4020.9966293130219128
 20
142.4441085633283137
 30
0.0
 40
0.0078740156999828
 50
269.9999999999478746
 51
354.0000000004890808
  0
LINE
  5
13545
  8
0
 10
4021.0044601940408029
 20
142.4432855045675126
 30
0.0
 11
4021.0099260516290087
 21
142.4952896657283077
 31
0.0
  0
LINE
  5
13546
  8
0
 10
4020.9225561581120019
 20
142.4952896657283077
 30
0.0
 11
4020.9170903004619504
 21
142.4432855046283066
 31
0.0
  0
ARC
  5
13547
  8
0
 10
4020.909259419368027
 20
142.4441085634072977
 30
0.0
 40
0.0078740157789614
 50
270.0000005173500881
 51
353.9999999282632075
  0
LINE
  5
13548
  8
0
 10
4020.1307741456221265
 20
142.4952896657283929
 30
0.0
 11
4020.1362400032539881
 21
142.4432855045612882
 31
0.0
  0
ARC
  5
13549
  8
0
 10
4020.1440708842710592
 20
142.444108563328399
 30
0.0
 40
0.0078740157000062
 50
186.0000000454656117
 51
269.9999999999478746
  0
LINE
  5
1354A
  8
0
 10
4020.1440708842710592
 20
142.436234547628402
 30
0.0
 11
4020.3609015469660335
 21
142.4362345476282883
 31
0.0
  0
ARC
  5
1354B
  8
0
 10
4020.3609015469660335
 20
142.4441085633283137
 30
0.0
 40
0.0078740156999828
 50
269.9999999999478746
 51
354.0000000004890808
  0
LINE
  5
1354C
  8
0
 10
4020.3687324279849236
 20
142.4432855045675126
 30
0.0
 11
4020.3741982855731294
 21
142.4952896657283929
 31
0.0
  0
ARC
  5
1354D
  8
0
 10
4020.2790077452577862
 20
142.4441085633283137
 30
0.0
 40
0.0078740156999828
 50
269.9999999999478746
 51
354.0000000004890808
  0
LINE
  5
1354E
  8
0
 10
4020.2868386262762215
 20
142.4432855045675126
 30
0.0
 11
4020.2923044838657916
 21
142.4952896657283929
 31
0.0
  0
ARC
  5
1354F
  8
0
 10
4020.2362205706690474
 20
142.4441085633283137
 30
0.0
 40
0.0078740156999828
 50
269.9999999999478746
 51
354.0000000004890808
  0
LINE
  5
13550
  8
0
 10
4020.2440514516879375
 20
142.4432855045675126
 30
0.0
 11
4020.2495173092761434
 21
142.4952896657283929
 31
0.0
  0
ARC
  5
13551
  8
0
 10
4021.6555580756480595
 20
142.4441085633283137
 30
0.0
 40
0.0078740156999828
 50
269.9999999999478746
 51
354.0000000004890808
  0
LINE
  5
13552
  8
0
 10
4021.66338895666604
 20
142.4432855045675126
 30
0.0
 11
4021.6688548142537911
 21
142.4952896657283929
 31
0.0
  0
LINE
  5
13553
  8
0
 10
4026.6287822654708179
 20
142.4952896657283077
 30
0.0
 11
4026.6233164079380913
 21
142.4432855046283066
 31
0.0
  0
ARC
  5
13554
  8
0
 10
4026.6154855268600841
 20
142.4441085633879993
 30
0.0
 40
0.0078740157596764
 50
269.9999998417673055
 51
354.0000000543510055
  0
LINE
  5
13555
  8
0
 10
4026.6154855268378014
 20
142.4362345476282883
 30
0.0
 11
4026.45827891343788
 21
142.4362345480624867
 31
0.0
  0
ARC
  5
13556
  8
0
 10
4026.4582789134601626
 20
142.4441085638100901
 30
0.0
 40
0.0078740157475998
 50
186.0000030431677942
 51
269.9999998417673055
  0
LINE
  5
13557
  8
0
 10
4026.4504480324380893
 20
142.4432855046283066
 30
0.0
 11
4026.4449821720918408
 21
142.4952896654467907
 31
0.0
  0
LINE
  5
13558
  8
0
 10
4026.564185309808181
 20
142.4952896657283077
 30
0.0
 11
4026.5587194521631318
 21
142.4432855046283066
 31
0.0
  0
ARC
  5
13559
  8
0
 10
4026.5508885710678442
 20
142.4441085634067008
 30
0.0
 40
0.0078740157783448
 50
270.0000005133115906
 51
353.9999999320144184
  0
LINE
  5
1355A
  8
0
 10
4026.372357188487058
 20
142.4952896657283077
 30
0.0
 11
4026.3668913308561059
 21
142.4432855045612882
 31
0.0
  0
ARC
  5
1355B
  8
0
 10
4026.3590604498390348
 20
142.4441085633283137
 30
0.0
 40
0.0078740157000062
 50
270.0000000000521254
 51
353.9999999545336209
  0
LINE
  5
1355C
  8
0
 10
4026.3590604498390348
 20
142.4362345476282883
 30
0.0
 11
4026.2664507922381745
 21
142.4362345476282883
 31
0.0
  0
ARC
  5
1355D
  8
0
 10
4026.2664507922381745
 20
142.4441085633283137
 30
0.0
 40
0.0078740156999828
 50
185.9999999995108908
 51
270.0000000000259774
  0
LINE
  5
1355E
  8
0
 10
4026.2586199112201939
 20
142.4432855045675126
 30
0.0
 11
4026.2531540536310786
 21
142.4952896657283077
 31
0.0
  0
LINE
  5
1355F
  8
0
 10
4026.059136572837815
 20
142.4952896657283929
 30
0.0
 11
4026.0536707152059535
 21
142.4432855045612882
 31
0.0
  0
ARC
  5
13560
  8
0
 10
4026.0458398341879729
 20
142.444108563328399
 30
0.0
 40
0.0078740157000062
 50
270.0000000000521254
 51
353.9999999545336209
  0
LINE
  5
13561
  8
0
 10
4026.0458398341879729
 20
142.436234547628402
 30
0.0
 11
4025.9532301765889315
 21
142.4362345476282883
 31
0.0
  0
ARC
  5
13562
  8
0
 10
4025.9532301765889315
 20
142.4441085633283137
 30
0.0
 40
0.0078740156999828
 50
185.9999999995108908
 51
270.0000000000259774
  0
LINE
  5
13563
  8
0
 10
4025.9453992955700414
 20
142.4432855045675126
 30
0.0
 11
4025.9399334379809261
 21
142.4952896657283929
 31
0.0
  0
LINE
  5
13564
  8
0
 10
4025.9007102411369488
 20
142.4952896657283929
 30
0.0
 11
4025.8952443835059967
 21
142.4432855045612882
 31
0.0
  0
ARC
  5
13565
  8
0
 10
4025.8874135024880161
 20
142.444108563328399
 30
0.0
 40
0.0078740157000062
 50
270.0000000000521254
 51
353.9999999545336209
  0
LINE
  5
13566
  8
0
 10
4025.8874135024880161
 20
142.436234547628402
 30
0.0
 11
4025.7948038448880652
 21
142.4362345476282883
 31
0.0
  0
ARC
  5
13567
  8
0
 10
4025.7948038448880652
 20
142.4441085633283137
 30
0.0
 40
0.0078740156999828
 50
185.9999999995108908
 51
270.0000000000259774
  0
LINE
  5
13568
  8
0
 10
4025.7869729638700846
 20
142.4432855045675126
 30
0.0
 11
4025.7815071062809693
 21
142.4952896657283929
 31
0.0
  0
LINE
  5
13569
  8
0
 10
4025.74669905548717
 20
142.4952896657283929
 30
0.0
 11
4025.7412331978548536
 21
142.4432855045612882
 31
0.0
  0
ARC
  5
1356A
  8
0
 10
4025.7334023168391468
 20
142.444108563328399
 30
0.0
 40
0.0078740157000062
 50
270.0000000000521254
 51
353.9999999545336209
  0
LINE
  5
1356B
  8
0
 10
4025.7334023168391468
 20
142.436234547628402
 30
0.0
 11
4025.6407926592369222
 21
142.4362345476282883
 31
0.0
  0
ARC
  5
1356C
  8
0
 10
4025.6407926592369222
 20
142.4441085633283137
 30
0.0
 40
0.0078740156999828
 50
185.9999999995108908
 51
270.0000000000259774
  0
LINE
  5
1356D
  8
0
 10
4025.6329617782198511
 20
142.4432855045675126
 30
0.0
 11
4025.6307532634209565
 21
142.4642981192633897
 31
0.0
  0
LINE
  5
1356E
  8
0
 10
4025.6340106062380073
 20
142.4952896657283929
 30
0.0
 11
4025.6285447486061457
 21
142.4432855045612882
 31
0.0
  0
ARC
  5
1356F
  8
0
 10
4025.6207138675890747
 20
142.444108563328399
 30
0.0
 40
0.0078740157000062
 50
270.0000000000521254
 51
353.9999999545336209
  0
LINE
  5
13570
  8
0
 10
4025.6207138675890747
 20
142.436234547628402
 30
0.0
 11
4025.5281042099882143
 21
142.4362345476282883
 31
0.0
  0
ARC
  5
13571
  8
0
 10
4025.5281042099882143
 20
142.4441085633283137
 30
0.0
 40
0.0078740156999828
 50
185.9999999995108908
 51
270.0000000000259774
  0
LINE
  5
13572
  8
0
 10
4025.520273328969779
 20
142.4432855045675126
 30
0.0
 11
4025.5148074713811184
 21
142.4952896657283929
 31
0.0
  0
LINE
  5
13573
  8
0
 10
4025.4453806031369822
 20
142.4952896657283929
 30
0.0
 11
4025.4399147455060302
 21
142.4432855045612882
 31
0.0
  0
ARC
  5
13574
  8
0
 10
4025.4320838644889591
 20
142.444108563328399
 30
0.0
 40
0.0078740157000062
 50
270.0000000000521254
 51
353.9999999545336209
  0
LINE
  5
13575
  8
0
 10
4025.4320838644889591
 20
142.436234547628402
 30
0.0
 11
4025.3394742068880987
 21
142.4362345476282883
 31
0.0
  0
ARC
  5
13576
  8
0
 10
4025.3394742068880987
 20
142.4441085633283137
 30
0.0
 40
0.0078740156999828
 50
185.9999999995108908
 51
270.0000000000259774
  0
LINE
  5
13577
  8
0
 10
4025.3316433258701181
 20
142.4432855045675126
 30
0.0
 11
4025.3261774682810028
 21
142.4952896657283929
 31
0.0
  0
LINE
  5
13578
  8
0
 10
4025.2114594307881816
 20
142.4952896657283929
 30
0.0
 11
4025.2059935731549558
 21
142.4432855045612882
 31
0.0
  0
ARC
  5
13579
  8
0
 10
4025.1981626921378847
 20
142.444108563328399
 30
0.0
 40
0.0078740157000062
 50
270.0000000000521254
 51
353.9999999545336209
  0
LINE
  5
1357A
  8
0
 10
4025.1981626921378847
 20
142.436234547628402
 30
0.0
 11
4025.1055530345379339
 21
142.4362345476282883
 31
0.0
  0
ARC
  5
1357B
  8
0
 10
4025.1055530345379339
 20
142.4441085633283137
 30
0.0
 40
0.0078740156999828
 50
235.4842940740952884
 51
270.0000000000259774
  0
LINE
  5
1357C
  8
0
 10
4025.109926432588054
 20
142.4952896657283929
 30
0.0
 11
4025.1044605749548282
 21
142.4432855045612882
 31
0.0
  0
ARC
  5
1357D
  8
0
 10
4025.0966296939391214
 20
142.444108563328399
 30
0.0
 40
0.0078740157000062
 50
270.0000000000521254
 51
353.9999999545336209
  0
LINE
  5
1357E
  8
0
 10
4025.0966296939391214
 20
142.436234547628402
 30
0.0
 11
4025.0040200363378062
 21
142.4362345476282883
 31
0.0
  0
ARC
  5
1357F
  8
0
 10
4025.0040200363378062
 20
142.4441085633283137
 30
0.0
 40
0.0078740156999828
 50
185.9999999995108908
 51
270.0000000000259774
  0
LINE
  5
13580
  8
0
 10
4024.9961891553198257
 20
142.4432855045675126
 30
0.0
 11
4024.9907232977311651
 21
142.4952896657283929
 31
0.0
  0
ARC
  5
13581
  8
0
 10
4024.9967073493880889
 20
142.444108563328399
 30
0.0
 40
0.0078740157000062
 50
270.0000000000521254
 51
297.6685271208265817
  0
LINE
  5
13582
  8
0
 10
4024.9967073493880889
 20
142.436234547628402
 30
0.0
 11
4024.9040976917890475
 21
142.4362345476282883
 31
0.0
  0
ARC
  5
13583
  8
0
 10
4024.9040976917890475
 20
142.4441085633283137
 30
0.0
 40
0.0078740156999828
 50
185.9999999995108908
 51
270.0000000000259774
  0
LINE
  5
13584
  8
0
 10
4024.8962668107687932
 20
142.4432855045675126
 30
0.0
 11
4024.8908009531819516
 21
142.4952896657283929
 31
0.0
  0
LINE
  5
13585
  8
0
 10
4024.8316788510378501
 20
142.4952896657283929
 30
0.0
 11
4024.8262129934059885
 21
142.4432855045612882
 31
0.0
  0
ARC
  5
13586
  8
0
 10
4024.818382112388008
 20
142.444108563328399
 30
0.0
 40
0.0078740157000062
 50
270.0000000000521254
 51
353.9999999545336209
  0
LINE
  5
13587
  8
0
 10
4024.818382112388008
 20
142.436234547628402
 30
0.0
 11
4024.7257724547889666
 21
142.4362345476282883
 31
0.0
  0
ARC
  5
13588
  8
0
 10
4024.7257724547889666
 20
142.4441085633283137
 30
0.0
 40
0.0078740156999828
 50
185.9999999995108908
 51
270.0000000000259774
  0
LINE
  5
13589
  8
0
 10
4024.7179415737700765
 20
142.4432855045675126
 30
0.0
 11
4024.7124757161809612
 21
142.4952896657283929
 31
0.0
  0
LINE
  5
1358A
  8
0
 10
4024.2179430229380159
 20
142.4952896657283929
 30
0.0
 11
4024.2124771653047901
 21
142.4432855045612882
 31
0.0
  0
ARC
  5
1358B
  8
0
 10
4024.2046462842881738
 20
142.444108563328399
 30
0.0
 40
0.0078740157000062
 50
270.0000000000521254
 51
353.9999999545336209
  0
LINE
  5
1358C
  8
0
 10
4024.2046462842881738
 20
142.436234547628402
 30
0.0
 11
4024.1120366266882229
 21
142.4362345476282883
 31
0.0
  0
ARC
  5
1358D
  8
0
 10
4024.1120366266882229
 20
142.4441085633283137
 30
0.0
 40
0.0078740156999828
 50
185.9999999995108908
 51
270.0000000000259774
  0
LINE
  5
1358E
  8
0
 10
4024.1042057456697876
 20
142.4432855045675126
 30
0.0
 11
4024.098739888081127
 21
142.4952896657283929
 31
0.0
  0
LINE
  5
1358F
  8
0
 10
4023.604241270887087
 20
142.4952896657283929
 30
0.0
 11
4023.5987754132561349
 21
142.4432855045612882
 31
0.0
  0
ARC
  5
13590
  8
0
 10
4023.5909445322381544
 20
142.444108563328399
 30
0.0
 40
0.0078740157000062
 50
270.0000000000521254
 51
353.9999999545336209
  0
LINE
  5
13591
  8
0
 10
4023.5909445322381544
 20
142.436234547628402
 30
0.0
 11
4023.498334874639113
 21
142.4362345476282883
 31
0.0
  0
ARC
  5
13592
  8
0
 10
4023.498334874639113
 20
142.4441085633283137
 30
0.0
 40
0.0078740156999828
 50
185.9999999995108908
 51
270.0000000000259774
  0
LINE
  5
13593
  8
0
 10
4023.4905039936188587
 20
142.4432855045675126
 30
0.0
 11
4023.4850381360320171
 21
142.4952896657283929
 31
0.0
  0
LINE
  5
13594
  8
0
 10
4023.0092477024631989
 20
142.4362345501048992
 30
0.0
 11
4022.884616094338071
 21
142.4362345476282883
 31
0.0
  0
ARC
  5
13595
  8
0
 10
4022.884616094338071
 20
142.4441085633283137
 30
0.0
 40
0.0078740156999828
 50
185.9999999995108908
 51
270.0000000000259774
  0
LINE
  5
13596
  8
0
 10
4022.8767852133209999
 20
142.4432855045675126
 30
0.0
 11
4022.8713193557318846
 21
142.4952896657283929
 31
0.0
  0
LINE
  5
13597
  8
0
 10
4023.1151603437378981
 20
142.4952896657283929
 30
0.0
 11
4023.109694486105127
 21
142.4432855045612882
 31
0.0
  0
ARC
  5
13598
  8
0
 10
4023.1018636050880559
 20
142.444108563328399
 30
0.0
 40
0.0078740157000062
 50
270.0000000000521254
 51
353.9999999545336209
  0
LINE
  5
13599
  8
0
 10
4023.1018636050880559
 20
142.436234547628402
 30
0.0
 11
4023.009253947488105
 21
142.4362345476282883
 31
0.0
  0
ARC
  5
1359A
  8
0
 10
4023.009253947488105
 20
142.4441085633283137
 30
0.0
 40
0.0078740156999828
 50
185.9999999995108908
 51
270.0000000000259774
  0
LINE
  5
1359B
  8
0
 10
4023.0014230664701245
 20
142.4432855045675126
 30
0.0
 11
4022.9959572088810091
 21
142.4952896657283929
 31
0.0
  0
LINE
  5
1359C
  8
0
 10
4023.8309908320170507
 20
142.4952896657283077
 30
0.0
 11
4023.8255249743860986
 21
142.4432855045612882
 31
0.0
  0
ARC
  5
1359D
  8
0
 10
4023.817694093368118
 20
142.4441085633283137
 30
0.0
 40
0.0078740157000062
 50
270.0000000000521254
 51
353.9999999545336209
  0
LINE
  5
1359E
  8
0
 10
4023.817694093368118
 20
142.4362345476282883
 30
0.0
 11
4023.6377963487529996
 21
142.4362345476282883
 31
0.0
  0
ARC
  5
1359F
  8
0
 10
4023.6377963487529996
 20
142.4441085633283137
 30
0.0
 40
0.0078740156999828
 50
185.9999999995108908
 51
270.0000000000259774
  0
LINE
  5
135A0
  8
0
 10
4023.6299654677359285
 20
142.4432855045675126
 30
0.0
 11
4023.6244996101468132
 21
142.4952896657283077
 31
0.0
  0
LINE
  5
135A1
  8
0
 10
4023.7118695036651843
 20
142.4952896657283077
 30
0.0
 11
4023.7173353613138715
 21
142.4432855046283066
 31
0.0
  0
ARC
  5
135A2
  8
0
 10
4023.7251662424091592
 20
142.4441085634072977
 30
0.0
 40
0.0078740157789614
 50
186.0000000717359967
 51
269.9999994826497982
  0
LINE
  5
135A3
  8
0
 10
4024.5036515161541502
 20
142.4952896657283929
 30
0.0
 11
4024.4981856585218338
 21
142.4432855045612882
 31
0.0
  0
ARC
  5
135A4
  8
0
 10
4024.4903547775052175
 20
142.444108563328399
 30
0.0
 40
0.0078740157000062
 50
270.0000000000521254
 51
353.9999999545336209
  0
LINE
  5
135A5
  8
0
 10
4024.4903547775052175
 20
142.436234547628402
 30
0.0
 11
4024.2735241148111527
 21
142.4362345476282883
 31
0.0
  0
ARC
  5
135A6
  8
0
 10
4024.2735241148111527
 20
142.4441085633283137
 30
0.0
 40
0.0078740156999828
 50
185.9999999995108908
 51
270.0000000000259774
  0
LINE
  5
135A7
  8
0
 10
4024.2656932337918079
 20
142.4432855045675126
 30
0.0
 11
4024.2602273762040568
 21
142.4952896657283929
 31
0.0
  0
ARC
  5
135A8
  8
0
 10
4024.3554179165189453
 20
142.4441085633283137
 30
0.0
 40
0.0078740156999828
 50
185.9999999995108908
 51
270.0000000000259774
  0
LINE
  5
135A9
  8
0
 10
4024.3475870355000552
 20
142.4432855045675126
 30
0.0
 11
4024.3421211779118494
 21
142.4952896657283929
 31
0.0
  0
ARC
  5
135AA
  8
0
 10
4024.3982050911067745
 20
142.4441085633283137
 30
0.0
 40
0.0078740156999828
 50
185.9999999995108908
 51
270.0000000000259774
  0
LINE
  5
135AB
  8
0
 10
4024.3903742100887939
 20
142.4432855045675126
 30
0.0
 11
4024.3849083525001333
 21
142.4952896657283929
 31
0.0
  0
ARC
  5
135AC
  8
0
 10
4022.9788675861291267
 20
142.4441085633283137
 30
0.0
 40
0.0078740156999828
 50
185.9999999995108908
 51
270.0000000000259774
  0
LINE
  5
135AD
  8
0
 10
4022.9710367051111461
 20
142.4432855045675126
 30
0.0
 11
4022.9655708475220308
 21
142.4952896657283929
 31
0.0
  0
ARC
  5
135AE
  8
0
 10
4021.6630686164548933
 20
143.7196991144670051
 30
0.0
 40
0.0590551181631505
 50
89.9995464441104644
 51
175.5523786510995876
  0
ARC
  5
135AF
  8
0
 10
4033.7289803356979974
 20
142.7811127935814
 30
0.0
 40
12.1614172800441196
 50
175.5520179714006019
 51
179.0651057068012051
  0
ARC
  5
135B0
  8
0
 10
4010.9054465159310894
 20
142.7811127912725908
 30
0.0
 40
12.1614173638173906
 50
0.9348942976378356
 51
4.4479820088085846
  0
ARC
  5
135B1
  8
0
 10
4022.9713583191219186
 20
143.7196991146211928
 30
0.0
 40
0.0590551180089963
 50
4.4479820088110209
 51
90.0004536540391342
  0
LINE
  5
135B2
  8
0
 10
4038.0860633137381228
 20
127.686456268428401
 30
0.0
 11
4038.4394855935379383
 21
127.7623081419283011
 31
0.0
  0
ARC
  5
135B3
  8
0
 10
4038.1867848790611788
 20
100.096661607468306
 30
0.0
 40
0.8011806252030415
 50
133.3261084352749037
 51
139.9917618462143878
  0
ARC
  5
135B4
  8
0
 10
4038.119333716282199
 20
100.1681737267173986
 30
0.0
 40
0.7028767974044494
 50
112.9502266590668995
 51
133.3261084352760122
  0
ARC
  5
135B5
  8
0
 10
4038.0615370848991006
 20
100.3046635992809996
 30
0.0
 40
0.5546542083312205
 50
89.6169731301216075
 51
112.9502266590668995
  0
ARC
  5
135B6
  8
0
 10
4038.0612808364680859
 20
100.2663327770150943
 30
0.0
 40
0.5929858871209093
 50
66.421988885879145
 51
89.6169731301216075
  0
ARC
  5
135B7
  8
0
 10
4037.6333892223560724
 20
99.2859021096685836
 30
0.0
 40
1.6627220821246069
 50
58.9219109148969622
 51
66.421988885879145
  0
ARC
  5
135B8
  8
0
 10
4038.9586560545599241
 20
101.4847227714398059
 30
0.0
 40
0.9046003516901725
 50
238.9219109148974098
 51
243.6658878027297988
  0
LINE
  5
135B9
  8
0
 10
4039.4431977205467774
 20
99.3238723429283681
 30
0.0
 11
4038.6480083660881064
 21
99.323847149928369
 31
0.0
  0
ARC
  5
135BA
  8
0
 10
4038.6583044813478409
 20
99.0880000694552052
 30
0.0
 40
0.2360717165548655
 50
92.4997112969874564
 51
110.185933785795001
  0
ARC
  5
135BB
  8
0
 10
4038.650479601637926
 20
99.1275786845291265
 30
0.0
 40
0.196325521999165
 50
112.0286555548677967
 51
118.8367804225493956
  0
LINE
  5
135BC
  8
0
 10
4037.4473259821561442
 20
100.7215101382282967
 30
0.0
 11
4033.0172925211618349
 21
100.7215101382282967
 31
0.0
  0
ARC
  5
135BD
  8
0
 10
4037.433508788934887
 20
100.8610156721430968
 30
0.0
 40
0.1401881194016346
 50
275.6563584750031737
 51
354.7956259176859248
  0
ARC
  5
135BE
  8
0
 10
4033.017837669677192
 20
100.6821266421491003
 30
0.0
 40
0.03938726888635
 50
90.7930406779304207
 51
178.8956657753575996
  0
ARC
  5
135BF
  8
0
 10
4037.0404963692421916
 20
100.6045832366157953
 30
0.0
 40
4.0627932877881774
 50
178.8956657753568038
 51
181.1183384813658108
  0
ARC
  5
135C0
  8
0
 10
4034.8635639992648976
 20
100.667395946047094
 30
0.0
 40
1.8904358720593559
 50
184.3111119491186969
 51
196.1222767589445084
  0
ARC
  5
135C1
  8
0
 10
4033.7733148417928533
 20
100.3561961625794936
 30
0.0
 40
0.7566578209606116
 50
196.4091607052322104
 51
211.4312111430091079
  0
LINE
  5
135C2
  8
0
 10
4033.1276838008379855
 20
99.9616183920744845
 30
0.0
 11
4034.1939168428320954
 21
99.7736127389938474
 31
0.0
  0
ARC
  5
135C3
  8
0
 10
3824.8457295622338279
 20
-6133.356997253582449
 30
0.0
 40
6236.6452412129474396
 50
88.0691769753431259
 51
88.0763662479412659
  0
ARC
  5
135C4
  8
0
 10
4191.0683273711965739
 20
4729.931576391550152
 30
0.0
 40
4632.8146177420985623
 50
268.0691817481953763
 51
268.0808248090223174
  0
LINE
  5
135C5
  8
0
 10
4033.3258759292311879
 20
99.8946898319464367
 30
0.0
 11
4033.319261517438008
 21
99.9041357271745056
 31
0.0
  0
ARC
  5
135C6
  8
0
 10
4033.3515641338540263
 20
99.9267553732569525
 30
0.0
 40
0.0394348502749351
 50
176.6153742403151057
 51
215.0013217539251968
  0
LINE
  5
135C7
  8
0
 10
4033.325875604481098
 20
99.8946898319464367
 30
0.0
 11
4033.9849988579380806
 21
99.7784686759744943
 31
0.0
  0
LINE
  5
135C8
  8
0
 10
4033.9849988579380806
 20
99.7784686759744943
 30
0.0
 11
4033.9944446878139388
 21
99.7850827172787831
 31
0.0
  0
ARC
  5
135C9
  8
0
 10
4033.9718374688191034
 20
99.8173691719224792
 30
0.0
 40
0.039414483430857
 50
305.0000000843318162
 51
343.403208614778805
  0
ARC
  5
135CA
  8
0
 10
4036.1426960123540084
 20
96.9399346059707767
 30
0.0
 40
2.761610516276884
 50
58.9928645393349385
 51
70.9723631753355164
  0
ARC
  5
135CB
  8
0
 10
4036.0739874294140463
 20
96.4766483363497542
 30
0.0
 40
3.2231340324056901
 50
72.5028830570684448
 51
82.9506818244127828
  0
ARC
  5
135CC
  8
0
 10
4035.7790193034461481
 20
94.0090033232400799
 30
0.0
 40
5.7083343277175258
 50
83.0520574216717762
 51
88.6156434923587994
  0
LINE
  5
135CD
  8
0
 10
4033.6050336562939265
 20
99.8454667597662251
 30
0.0
 11
4033.5967352317379664
 21
99.7984040554744922
 31
0.0
  0
ARC
  5
135CE
  8
0
 10
4033.7976752701911209
 20
100.4447316134902053
 30
0.0
 40
0.6802542538965881
 50
236.4532658581842952
 51
241.2595276632663968
  0
ARC
  5
135CF
  8
0
 10
4033.7016975425249257
 20
100.2697183095477982
 30
0.0
 40
0.4806511958924317
 50
241.2595276632663968
 51
249.3576637023365947
  0
ARC
  5
135D0
  8
0
 10
4033.7454488763978588
 20
100.3513543537692954
 30
0.0
 40
0.5725991446836785
 50
248.1405052541686018
 51
254.9467384620629105
  0
LINE
  5
135D1
  8
0
 10
4033.5733929245379841
 20
99.8474018509744781
 30
0.0
 11
4033.5710295251287789
 21
99.8339983469128356
 31
0.0
  0
LINE
  5
135D2
  8
0
 10
4033.5701399056938499
 20
99.828953064397794
 30
0.0
 11
4033.5685045822428947
 21
99.8196786842736259
 31
0.0
  0
LINE
  5
135D3
  8
0
 10
4033.5679225331928137
 20
99.8163777200943514
 30
0.0
 11
4033.5669597155811061
 21
99.8109173100893656
 31
0.0
  0
LINE
  5
135D4
  8
0
 10
4033.5666727147840902
 20
99.809289647694925
 30
0.0
 11
4033.5663547118379029
 21
99.8074861633744774
 31
0.0
  0
LINE
  5
135D5
  8
0
 10
4033.5655475896369353
 20
99.807742563474477
 30
0.0
 11
4033.5658736947721081
 21
99.8095919975940262
 31
0.0
  0
LINE
  5
135D6
  8
0
 10
4033.566144647236797
 20
99.8111286453751632
 30
0.0
 11
4033.5671320006231326
 21
99.8167282046812261
 31
0.0
  0
LINE
  5
135D7
  8
0
 10
4033.5676815058691318
 20
99.8198446037885248
 30
0.0
 11
4033.5693585200178859
 21
99.8293554236414451
 31
0.0
  0
LINE
  5
135D8
  8
0
 10
4033.570202893629812
 20
99.8341441043507132
 30
0.0
 11
4033.5726217127380551
 21
99.8478619091744832
 31
0.0
  0
LINE
  5
135D9
  8
0
 10
4033.5733929245220679
 20
99.8474018510040651
 30
0.0
 11
4033.5726217127930795
 21
99.8478619091729769
 31
0.0
  0
LINE
  5
135DA
  8
0
 10
4033.5726217127930795
 20
99.8478619091729769
 30
0.0
 11
4033.55567527027506
 21
99.849927903582568
 31
0.0
  0
LINE
  5
135DB
  8
0
 10
4033.55567527027506
 20
99.849927903582568
 30
0.0
 11
4033.5544602176378248
 21
99.8430369979744938
 31
0.0
  0
LINE
  5
135DC
  8
0
 10
4033.5544602176378248
 20
99.8430369979744938
 30
0.0
 11
4033.570202893629812
 21
99.8341441043507132
 31
0.0
  0
LINE
  5
135DD
  8
0
 10
4033.570202893629812
 20
99.8341441043507132
 30
0.0
 11
4033.5710295251110438
 21
99.8339983469159762
 31
0.0
  0
LINE
  5
135DE
  8
0
 10
4033.5701399057379604
 20
99.828953064374474
 30
0.0
 11
4033.5693585200319831
 21
99.8293554236348797
 31
0.0
  0
LINE
  5
135DF
  8
0
 10
4033.5693585200319831
 20
99.8293554236348797
 30
0.0
 11
4033.5525863595380542
 21
99.8324098204744814
 31
0.0
  0
LINE
  5
135E0
  8
0
 10
4033.5525863595380542
 20
99.8324098204744814
 30
0.0
 11
4033.5517441429828978
 21
99.8276333730443497
 31
0.0
  0
LINE
  5
135E1
  8
0
 10
4033.5517441429828978
 20
99.8276333730443497
 30
0.0
 11
4033.5676815058691318
 21
99.8198446037885248
 31
0.0
  0
LINE
  5
135E2
  8
0
 10
4033.5676815058691318
 20
99.8198446037885248
 30
0.0
 11
4033.5685045822378925
 21
99.8196786842744928
 31
0.0
  0
LINE
  5
135E3
  8
0
 10
4033.5679225332378337
 20
99.8163777200744846
 30
0.0
 11
4033.5671320005621965
 21
99.8167282047085536
 31
0.0
  0
LINE
  5
135E4
  8
0
 10
4033.5671320005621965
 20
99.8167282047085536
 30
0.0
 11
4033.5505250063251879
 21
99.8207193053001731
 31
0.0
  0
LINE
  5
135E5
  8
0
 10
4033.5505250063251879
 20
99.8207193053001731
 30
0.0
 11
4033.5500292187380182
 21
99.817907554274484
 31
0.0
  0
LINE
  5
135E6
  8
0
 10
4033.5500292187380182
 20
99.817907554274484
 30
0.0
 11
4033.5661446472381613
 21
99.8111286453744952
 31
0.0
  0
LINE
  5
135E7
  8
0
 10
4033.5661446472381613
 20
99.8111286453744952
 30
0.0
 11
4033.5669597155811061
 21
99.8109173100893656
 31
0.0
  0
LINE
  5
135E8
  8
0
 10
4033.5666727148382051
 20
99.809289647674504
 30
0.0
 11
4033.565873694838956
 21
99.8095919975745005
 31
0.0
  0
LINE
  5
135E9
  8
0
 10
4033.565873694838956
 20
99.8095919975745005
 30
0.0
 11
4033.5494281742780913
 21
99.8144988621638731
 31
0.0
  0
LINE
  5
135EA
  8
0
 10
4033.5494281742780913
 20
99.8144988621638731
 30
0.0
 11
4033.5492644360278973
 21
99.8135702561959022
 31
0.0
  0
LINE
  5
135EB
  8
0
 10
4033.5492644360278973
 20
99.8135702561959022
 30
0.0
 11
4033.5563394398150194
 21
99.8108847417763201
 31
0.0
  0
LINE
  5
135EC
  8
0
 10
4033.524993283735057
 20
99.8362392572387876
 30
0.0
 11
4033.5243201460561977
 21
99.8324217036786621
 31
0.0
  0
LINE
  5
135ED
  8
0
 10
4033.5243201460561977
 20
99.8324217036786621
 30
0.0
 11
4033.5401967367251927
 21
99.8242882775954854
 31
0.0
  0
LINE
  5
135EE
  8
0
 10
4033.5401967367251927
 20
99.8242882775954854
 30
0.0
 11
4033.5567424926339299
 21
99.8199498766473567
 31
0.0
  0
LINE
  5
135EF
  8
0
 10
4033.5567424926339299
 20
99.8199498766473567
 30
0.0
 11
4033.5574077773921999
 21
99.8237228935196867
 31
0.0
  0
LINE
  5
135F0
  8
0
 10
4033.5574077773921999
 20
99.8237228935196867
 30
0.0
 11
4033.5415351130332056
 21
99.8318785866414657
 31
0.0
  0
LINE
  5
135F1
  8
0
 10
4033.5415351130332056
 20
99.8318785866414657
 30
0.0
 11
4033.5249932837377855
 21
99.8362392571744834
 31
0.0
  0
LINE
  5
135F2
  8
0
 10
4033.5275845417168057
 20
99.8509350115178762
 30
0.0
 11
4033.5442928249658507
 21
99.8475183486425095
 31
0.0
  0
LINE
  5
135F3
  8
0
 10
4033.5442928249658507
 20
99.8475183486425095
 30
0.0
 11
4033.5599677878349212
 21
99.8382414344413291
 31
0.0
  0
LINE
  5
135F4
  8
0
 10
4033.5599677878349212
 20
99.8382414344413291
 30
0.0
 11
4033.5589453536390465
 21
99.83244292197449
 31
0.0
  0
LINE
  5
135F5
  8
0
 10
4033.5589453536390465
 20
99.83244292197449
 30
0.0
 11
4033.5422353056378597
 21
99.8358495762744838
 31
0.0
  0
LINE
  5
135F6
  8
0
 10
4033.5422353056378597
 20
99.8358495762744838
 30
0.0
 11
4033.5265494272630349
 21
99.8450645854580046
 31
0.0
  0
LINE
  5
135F7
  8
0
 10
4033.5234044666481168
 20
99.8272286278264858
 30
0.0
 11
4033.5397846084511002
 21
99.8219509822466762
 31
0.0
  0
LINE
  5
135F8
  8
0
 10
4033.5397846084511002
 20
99.8219509822466762
 30
0.0
 11
4033.5558373280878186
 21
99.8148164335054844
 31
0.0
  0
LINE
  5
135F9
  8
0
 10
4033.5558373280878186
 20
99.8148164335054844
 30
0.0
 11
4033.5555093139378187
 21
99.8129561723744843
 31
0.0
  0
LINE
  5
135FA
  8
0
 10
4033.5555093139378187
 20
99.8129561723744843
 30
0.0
 11
4033.5387319479877988
 21
99.8183753593744854
 31
0.0
  0
LINE
  5
135FB
  8
0
 10
4033.5387319479877988
 20
99.8183753593744854
 30
0.0
 11
4033.5230726894637883
 21
99.8253470255306041
 31
0.0
  0
LINE
  5
135FC
  8
0
 10
4033.5055100449899328
 20
99.8630154490161459
 30
0.0
 11
4033.5173209849208433
 21
99.8548709878795648
 31
0.0
  0
LINE
  5
135FD
  8
0
 10
4033.5173209849208433
 20
99.8548709878795648
 30
0.0
 11
4033.5339653029400324
 21
99.8510915604842637
 31
0.0
  0
LINE
  5
135FE
  8
0
 10
4033.5339653029400324
 20
99.8510915604842637
 30
0.0
 11
4033.5351463841379882
 21
99.8577898044744927
 31
0.0
  0
LINE
  5
135FF
  8
0
 10
4033.5395539647688565
 20
99.8570126290843518
 30
0.0
 11
4033.5453032010250354
 21
99.8532484760666392
 31
0.0
  0
LINE
  5
13600
  8
0
 10
4033.5453032010250354
 20
99.8532484760666392
 30
0.0
 11
4033.5621858697390962
 21
99.8508208019745069
 31
0.0
  0
LINE
  5
13601
  8
0
 10
4033.5621858697390962
 20
99.8508208019745069
 30
0.0
 11
4033.5625622990978627
 21
99.852955638959628
 31
0.0
  0
LINE
  5
13602
  8
0
 10
4033.5023888553200777
 20
99.8635653655670126
 30
0.0
 11
4033.507285873517958
 21
99.8601025429830003
 31
0.0
  0
LINE
  5
13603
  8
0
 10
4033.507285873517958
 20
99.8601025429830003
 30
0.0
 11
4033.5062403845058725
 21
99.8541732799322546
 31
0.0
  0
LINE
  5
13604
  8
0
 10
4033.5062403845058725
 20
99.8541732799322546
 30
0.0
 11
4033.489832974105866
 21
99.8592962775150141
 31
0.0
  0
LINE
  5
13605
  8
0
 10
4033.489832974105866
 20
99.8592962775150141
 30
0.0
 11
4033.4778410183280357
 21
99.8678940119422265
 31
0.0
  0
LINE
  5
13606
  8
0
 10
4033.4752150887588868
 20
99.8683573088371475
 30
0.0
 11
4033.4798784021390929
 21
99.8649845945744943
 31
0.0
  0
LINE
  5
13607
  8
0
 10
4033.4798784021390929
 20
99.8649845945744943
 30
0.0
 11
4033.4790062864381071
 21
99.8600385805744963
 31
0.0
  0
LINE
  5
13608
  8
0
 10
4033.4790062864381071
 20
99.8600385805744963
 30
0.0
 11
4033.4632113353932255
 21
99.8663595600447564
 31
0.0
  0
LINE
  5
13609
  8
0
 10
4033.4632113353932255
 20
99.8663595600447564
 30
0.0
 11
4033.455646233862808
 21
99.8718077799494495
 31
0.0
  0
LINE
  5
1360A
  8
0
 10
4033.4528986313371206
 20
99.8722922561685067
 30
0.0
 11
4033.4522658419041363
 21
99.8687035290973313
 31
0.0
  0
LINE
  5
1360B
  8
0
 10
4033.4522658419041363
 20
99.8687035290973313
 30
0.0
 11
4033.4403862503409073
 21
99.8744976325154568
 31
0.0
  0
LINE
  5
1360C
  8
0
 10
4033.4326519459232259
 20
99.8758617480938966
 30
0.0
 11
4033.4359052428580981
 21
99.8740920070869009
 31
0.0
  0
LINE
  5
1360D
  8
0
 10
4033.4359052428580981
 20
99.8740920070869009
 30
0.0
 11
4033.4513114770388711
 21
99.8632910573744823
 31
0.0
  0
LINE
  5
1360E
  8
0
 10
4033.4513114770388711
 20
99.8632910573744823
 30
0.0
 11
4033.4509658693377787
 21
99.8613310186745053
 31
0.0
  0
LINE
  5
1360F
  8
0
 10
4033.4509658693377787
 20
99.8613310186745053
 30
0.0
 11
4033.4352052038680085
 21
99.870121888644718
 31
0.0
  0
LINE
  5
13610
  8
0
 10
4033.4352052038680085
 20
99.870121888644718
 30
0.0
 11
4033.4248678919088889
 21
99.8772348293852872
 31
0.0
  0
LINE
  5
13611
  8
0
 10
4033.4247804617639304
 20
99.8757893389201286
 30
0.0
 11
4033.4252087647510052
 21
99.8755727650476359
 31
0.0
  0
LINE
  5
13612
  8
0
 10
4033.4252087647510052
 20
99.8755727650476359
 30
0.0
 11
4033.4253844602390018
 21
99.8765691839744818
 31
0.0
  0
LINE
  5
13613
  8
0
 10
4033.4253844602390018
 20
99.8765691839744818
 30
0.0
 11
4033.4243056314658133
 21
99.8773340197340218
 31
0.0
  0
LINE
  5
13614
  8
0
 10
4033.4449431591701796
 20
99.8630737176454346
 30
0.0
 11
4033.4451087773550171
 21
99.8641443453804385
 31
0.0
  0
LINE
  5
13615
  8
0
 10
4033.4451087773550171
 20
99.8641443453804385
 30
0.0
 11
4033.4609398389047783
 21
99.8557527111258025
 31
0.0
  0
LINE
  5
13616
  8
0
 10
4033.4609398389047783
 20
99.8557527111258025
 30
0.0
 11
4033.476610808049827
 21
99.8464531476419239
 31
0.0
  0
LINE
  5
13617
  8
0
 10
4033.476610808049827
 20
99.8464531476419239
 30
0.0
 11
4033.4764415935469515
 21
99.8454934843254165
 31
0.0
  0
LINE
  5
13618
  8
0
 10
4033.4764415935469515
 20
99.8454934843254165
 30
0.0
 11
4033.4700493799168726
 21
99.8485644116542375
 31
0.0
  0
LINE
  5
13619
  8
0
 10
4033.4712463184328044
 20
99.8520601609450154
 30
0.0
 11
4033.4709054063509939
 21
99.8501267528416037
 31
0.0
  0
LINE
  5
1361A
  8
0
 10
4033.4709054063509939
 20
99.8501267528416037
 30
0.0
 11
4033.4866455011801918
 21
99.8412192206860141
 31
0.0
  0
LINE
  5
1361B
  8
0
 10
4033.4866455011801918
 20
99.8412192206860141
 30
0.0
 11
4033.5027303989490974
 21
99.834267162837051
 31
0.0
  0
LINE
  5
1361C
  8
0
 10
4033.5027303989490974
 20
99.834267162837051
 30
0.0
 11
4033.5030652472378279
 21
99.8361661815744839
 31
0.0
  0
LINE
  5
1361D
  8
0
 10
4033.5030652472378279
 20
99.8361661815744839
 30
0.0
 11
4033.4873211829308275
 21
99.8450512018354743
 31
0.0
  0
LINE
  5
1361E
  8
0
 10
4033.4873211829308275
 20
99.8450512018354743
 30
0.0
 11
4033.4712463184328044
 21
99.8520601609450154
 31
0.0
  0
LINE
  5
1361F
  8
0
 10
4033.472879775436013
 20
99.8613239559572463
 30
0.0
 11
4033.4721875417958472
 21
99.8573981039594827
 31
0.0
  0
LINE
  5
13620
  8
0
 10
4033.4721875417958472
 20
99.8573981039594827
 30
0.0
 11
4033.4877433667320474
 21
99.8474455253378608
 31
0.0
  0
LINE
  5
13621
  8
0
 10
4033.4877433667320474
 20
99.8474455253378608
 30
0.0
 11
4033.5039895111381156
 21
99.8414079427744952
 31
0.0
  0
LINE
  5
13622
  8
0
 10
4033.5039895111381156
 20
99.8414079427744952
 30
0.0
 11
4033.5046690634580955
 21
99.8452618755180197
 31
0.0
  0
LINE
  5
13623
  8
0
 10
4033.5046690634580955
 20
99.8452618755180197
 30
0.0
 11
4033.4891150029438904
 21
99.8552244607043775
 31
0.0
  0
LINE
  5
13624
  8
0
 10
4033.4891150029438904
 20
99.8552244607043775
 30
0.0
 11
4033.472879775436013
 21
99.8613239559572463
 31
0.0
  0
LINE
  5
13625
  8
0
 10
4033.4462677265350976
 20
99.8707170726585645
 30
0.0
 11
4033.4457436779389354
 21
99.8677450453744768
 31
0.0
  0
LINE
  5
13626
  8
0
 10
4033.4457436779389354
 20
99.8677450453744768
 30
0.0
 11
4033.4612241167369575
 21
99.8573649306680693
 31
0.0
  0
LINE
  5
13627
  8
0
 10
4033.4612241167369575
 20
99.8573649306680693
 30
0.0
 11
4033.4772321157379338
 21
99.8499767582744937
 31
0.0
  0
LINE
  5
13628
  8
0
 10
4033.4772321157379338
 20
99.8499767582744937
 30
0.0
 11
4033.4777448112558886
 21
99.8528843992471451
 31
0.0
  0
LINE
  5
13629
  8
0
 10
4033.4777448112558886
 20
99.8528843992471451
 30
0.0
 11
4033.4622606858438303
 21
99.8632436063094815
 31
0.0
  0
LINE
  5
1362A
  8
0
 10
4033.4622606858438303
 20
99.8632436063094815
 30
0.0
 11
4033.4462677265019011
 21
99.870717072674708
 31
0.0
  0
LINE
  5
1362B
  8
0
 10
4033.4999869850448704
 20
99.8547390357137772
 30
0.0
 11
4033.4991252439381242
 21
99.8498518588744872
 31
0.0
  0
LINE
  5
1362C
  8
0
 10
4033.4991252439381242
 20
99.8498518588744872
 30
0.0
 11
4033.5147491450079542
 21
99.8402853591216086
 31
0.0
  0
LINE
  5
1362D
  8
0
 10
4033.5147491450079542
 20
99.8402853591216086
 30
0.0
 11
4033.5312281322840136
 21
99.8355682944062153
 31
0.0
  0
LINE
  5
1362E
  8
0
 10
4033.5312281322840136
 20
99.8355682944062153
 30
0.0
 11
4033.5320767634448202
 21
99.8403811209146568
 31
0.0
  0
LINE
  5
1362F
  8
0
 10
4033.5320767634448202
 20
99.8403811209146568
 30
0.0
 11
4033.5164594167090399
 21
99.8499847925897939
 31
0.0
  0
LINE
  5
13630
  8
0
 10
4033.5164594167090399
 20
99.8499847925897939
 30
0.0
 11
4033.4999869850448704
 21
99.8547390357137772
 31
0.0
  0
LINE
  5
13631
  8
0
 10
4033.497878448838037
 20
99.8427809324749944
 30
0.0
 11
4033.4973716123317899
 21
99.8399065198131552
 31
0.0
  0
LINE
  5
13632
  8
0
 10
4033.4973716123317899
 20
99.8399065198131552
 30
0.0
 11
4033.5131828071048403
 21
99.8314022152123641
 31
0.0
  0
LINE
  5
13633
  8
0
 10
4033.5131828071048403
 20
99.8314022152123641
 30
0.0
 11
4033.5295004835411419
 21
99.8257703110876804
 31
0.0
  0
LINE
  5
13634
  8
0
 10
4033.5295004835411419
 20
99.8257703110876804
 30
0.0
 11
4033.5299999043381831
 21
99.8286026671744793
 31
0.0
  0
LINE
  5
13635
  8
0
 10
4033.5299999043381831
 20
99.8286026671744793
 30
0.0
 11
4033.5141889922479095
 21
99.8371085749321026
 31
0.0
  0
LINE
  5
13636
  8
0
 10
4033.5141889922479095
 20
99.8371085749321026
 30
0.0
 11
4033.4978784488430392
 21
99.8427809324735449
 31
0.0
  0
LINE
  5
13637
  8
0
 10
4033.4967573238591285
 20
99.8364227165779141
 30
0.0
 11
4033.4965900057409272
 21
99.8354738087911073
 31
0.0
  0
LINE
  5
13638
  8
0
 10
4033.4965900057409272
 20
99.8354738087911073
 30
0.0
 11
4033.512574544538893
 21
99.8279525871010236
 31
0.0
  0
LINE
  5
13639
  8
0
 10
4033.512574544538893
 20
99.8279525871010236
 30
0.0
 11
4033.5287301670568922
 21
99.8214016294361528
 31
0.0
  0
LINE
  5
1363A
  8
0
 10
4033.5287301670568922
 20
99.8214016294361528
 30
0.0
 11
4033.5288950830267822
 21
99.8223369140136043
 31
0.0
  0
LINE
  5
1363B
  8
0
 10
4033.5288950830267822
 20
99.8223369140136043
 30
0.0
 11
4033.5129067528391715
 21
99.8298366336744749
 31
0.0
  0
LINE
  5
1363C
  8
0
 10
4033.5129067528391715
 20
99.8298366336744749
 30
0.0
 11
4033.4967573238591285
 21
99.8364227165779141
 31
0.0
  0
LINE
  5
1363D
  8
0
 10
4033.5387319479877988
 20
99.8183753593744854
 30
0.0
 11
4033.5397846084511002
 21
99.8219509822466762
 31
0.0
  0
LINE
  5
1363E
  8
0
 10
4033.5401967367251927
 20
99.8242882775954854
 30
0.0
 11
4033.5415351130332056
 21
99.8318785866414657
 31
0.0
  0
LINE
  5
1363F
  8
0
 10
4033.5422353056378597
 20
99.8358495762744838
 30
0.0
 11
4033.5442928249658507
 21
99.8475183486425095
 31
0.0
  0
LINE
  5
13640
  8
0
 10
4033.5453032010250354
 20
99.8532484760666392
 30
0.0
 11
4033.5453032010250354
 21
99.8559988454144332
 31
0.0
  0
LINE
  5
13641
  8
0
 10
4033.5275845417168057
 20
99.8509350115178762
 30
0.0
 11
4033.5265494272630349
 21
99.8450645854580046
 31
0.0
  0
LINE
  5
13642
  8
0
 10
4033.5164594167090399
 20
99.8499847925897939
 30
0.0
 11
4033.5147491450079542
 21
99.8402853591216086
 31
0.0
  0
LINE
  5
13643
  8
0
 10
4033.5173209849208433
 20
99.8548709878795648
 30
0.0
 11
4033.5175911159080897
 21
99.8608852313061561
 31
0.0
  0
LINE
  5
13644
  8
0
 10
4033.5141889922479095
 20
99.8371085749321026
 30
0.0
 11
4033.5131828071048403
 21
99.8314022152123641
 31
0.0
  0
LINE
  5
13645
  8
0
 10
4033.5129067528391715
 20
99.8298366336744749
 30
0.0
 11
4033.512574544538893
 21
99.8279525871010236
 31
0.0
  0
LINE
  5
13646
  8
0
 10
4033.5234044666481168
 20
99.8272286278264858
 30
0.0
 11
4033.5230726894637883
 21
99.8253470255306041
 31
0.0
  0
LINE
  5
13647
  8
0
 10
4033.4866455011801918
 20
99.8412192206860141
 30
0.0
 11
4033.4873211829308275
 21
99.8450512018354743
 31
0.0
  0
LINE
  5
13648
  8
0
 10
4033.4877433667320474
 20
99.8474455253378608
 30
0.0
 11
4033.4891150029438904
 21
99.8552244607043775
 31
0.0
  0
LINE
  5
13649
  8
0
 10
4033.489832974105866
 20
99.8592962775150141
 30
0.0
 11
4033.489832974105866
 21
99.8657797382303869
 31
0.0
  0
LINE
  5
1364A
  8
0
 10
4033.4632113353932255
 20
99.8663595600447564
 30
0.0
 11
4033.4632113353932255
 21
99.8704738490947648
 31
0.0
  0
LINE
  5
1364B
  8
0
 10
4033.4612241167369575
 20
99.8573649306680693
 30
0.0
 11
4033.4622606858438303
 21
99.8632436063094815
 31
0.0
  0
LINE
  5
1364C
  8
0
 10
4033.4609398389047783
 20
99.8557527111258025
 30
0.0
 11
4033.460603183780222
 21
99.8538608505423184
 31
0.0
  0
LINE
  5
1364D
  8
0
 10
4033.4352052038680085
 20
99.870121888644718
 30
0.0
 11
4033.4359052428580981
 21
99.8740920070869009
 31
0.0
  0
LINE
  5
1364E
  8
0
 10
4033.6554372083469389
 20
99.8365792866229782
 30
0.0
 11
4033.6547653023430939
 21
99.8327687184886798
 31
0.0
  0
LINE
  5
1364F
  8
0
 10
4033.6547653023430939
 20
99.8327687184886798
 30
0.0
 11
4033.6371405724598844
 21
99.8309879542374148
 31
0.0
  0
LINE
  5
13650
  8
0
 10
4033.6474139117931372
 20
99.837994010280255
 30
0.0
 11
4033.6382984020378899
 21
99.8375543321744772
 31
0.0
  0
LINE
  5
13651
  8
0
 10
4033.6382984020378899
 20
99.8375543321744772
 30
0.0
 11
4033.6370076200278163
 21
99.830233943521776
 31
0.0
  0
LINE
  5
13652
  8
0
 10
4033.6370076200278163
 20
99.830233943521776
 30
0.0
 11
4033.6274552575009693
 21
99.8321412627766449
 31
0.0
  0
LINE
  5
13653
  8
0
 10
4033.6274552575009693
 20
99.8321412627766449
 30
0.0
 11
4033.6264688095989186
 21
99.8326088790528416
 31
0.0
  0
LINE
  5
13654
  8
0
 10
4033.6264688095989186
 20
99.8326088790528416
 30
0.0
 11
4033.6251674594291217
 21
99.8326128514642619
 31
0.0
  0
LINE
  5
13655
  8
0
 10
4033.6251674594291217
 20
99.8326128514642619
 30
0.0
 11
4033.6158030840920219
 21
99.8342640434016459
 31
0.0
  0
LINE
  5
13656
  8
0
 10
4033.6158030840920219
 20
99.8342640434016459
 30
0.0
 11
4033.6172365632492074
 21
99.8423937081345088
 31
0.0
  0
LINE
  5
13657
  8
0
 10
4033.6172365632492074
 20
99.8423937081345088
 30
0.0
 11
4033.6145348163590825
 21
99.8437914819083403
 31
0.0
  0
LINE
  5
13658
  8
0
 10
4033.6041460021911007
 20
99.8404326233769837
 30
0.0
 11
4033.6158862438178403
 21
99.8347356658581049
 31
0.0
  0
LINE
  5
13659
  8
0
 10
4033.620306576888197
 20
99.8427737648004552
 30
0.0
 11
4033.6276235301238557
 21
99.8391576246256705
 31
0.0
  0
LINE
  5
1365A
  8
0
 10
4033.6276235301238557
 20
99.8391576246256705
 30
0.0
 11
4033.6392411566539522
 21
99.8394350574800455
 31
0.0
  0
LINE
  5
1365B
  8
0
 10
4033.6276235301379529
 20
99.839157624574483
 30
0.0
 11
4033.6280212933370422
 21
99.8414134521745069
 31
0.0
  0
LINE
  5
1365C
  8
0
 10
4033.7058407490521859
 20
99.8276917494568892
 30
0.0
 11
4033.6975423244962258
 21
99.7806396611522501
 31
0.0
  0
ARC
  5
1365D
  8
0
 10
4033.7297774972907973
 20
100.4567038227887963
 30
0.0
 40
0.6802542538965881
 50
278.7404723264587005
 51
283.5467341315596173
  0
ARC
  5
1365E
  8
0
 10
4033.7601089844038142
 20
100.2594187963571954
 30
0.0
 40
0.4806511958924317
 50
270.6423362874073177
 51
278.7404723264587005
  0
ARC
  5
1365F
  8
0
 10
4033.746925577112961
 20
100.3481109548867067
 30
0.0
 40
0.5696159889360835
 50
265.0264590911846767
 51
271.8684086672244007
  0
LINE
  5
13660
  8
0
 10
4033.7362351513711474
 20
99.8186883727702536
 30
0.0
 11
4033.7338717519728561
 21
99.8052848687064369
 31
0.0
  0
LINE
  5
13661
  8
0
 10
4033.7329821325420198
 20
99.8002395861905711
 30
0.0
 11
4033.7313468091001596
 21
99.7909652060649108
 31
0.0
  0
LINE
  5
13662
  8
0
 10
4033.7307647600541713
 20
99.7876642418850963
 30
0.0
 11
4033.7298019424470112
 21
99.7822038318792579
 31
0.0
  0
LINE
  5
13663
  8
0
 10
4033.7295149416518143
 20
99.780576169484533
 30
0.0
 11
4033.7291969387069912
 21
99.7787726851638013
 31
0.0
  0
LINE
  5
13664
  8
0
 10
4033.7300430794821295
 20
99.7787375703950659
 30
0.0
 11
4033.7303691846159381
 21
99.780587004514615
 31
0.0
  0
LINE
  5
13665
  8
0
 10
4033.7306401370801723
 20
99.7821236522957662
 30
0.0
 11
4033.7316274904660531
 21
99.787723211601886
 31
0.0
  0
LINE
  5
13666
  8
0
 10
4033.7321769957111428
 20
99.7908396107091846
 30
0.0
 11
4033.7338540098608064
 21
99.8003504305622187
 31
0.0
  0
LINE
  5
13667
  8
0
 10
4033.7346983834709135
 20
99.8051391112715152
 30
0.0
 11
4033.7371172025800661
 21
99.8188569160954131
 31
0.0
  0
LINE
  5
13668
  8
0
 10
4033.7362351513961585
 20
99.8186883727927636
 30
0.0
 11
4033.7371172025268606
 21
99.8188569161128925
 31
0.0
  0
LINE
  5
13669
  8
0
 10
4033.7371172025268606
 20
99.8188569161128925
 30
0.0
 11
4033.753748261212877
 21
99.8150022911124069
 31
0.0
  0
LINE
  5
1366A
  8
0
 10
4033.753748261212877
 20
99.8150022911124069
 30
0.0
 11
4033.7525332086847811
 21
99.8081113854849633
 31
0.0
  0
LINE
  5
1366B
  8
0
 10
4033.7525332086847811
 20
99.8081113854849633
 30
0.0
 11
4033.7346983834709135
 21
99.8051391112715152
 31
0.0
  0
LINE
  5
1366C
  8
0
 10
4033.7346983834709135
 20
99.8051391112715152
 30
0.0
 11
4033.733871751991046
 21
99.8052848687032821
 31
0.0
  0
LINE
  5
1366D
  8
0
 10
4033.7329821324919976
 20
99.8002395861841478
 30
0.0
 11
4033.7338540098457997
 21
99.8003504305604139
 31
0.0
  0
LINE
  5
1366E
  8
0
 10
4033.7338540098457997
 20
99.8003504305604139
 30
0.0
 11
4033.7506593505399906
 21
99.7974842079928237
 31
0.0
  0
LINE
  5
1366F
  8
0
 10
4033.7506593505399906
 20
99.7974842079928237
 30
0.0
 11
4033.7498171339871078
 21
99.7927077605625072
 31
0.0
  0
LINE
  5
13670
  8
0
 10
4033.7498171339871078
 20
99.7927077605625072
 30
0.0
 11
4033.7321769957111428
 21
99.7908396107091846
 31
0.0
  0
LINE
  5
13671
  8
0
 10
4033.7321769957111428
 20
99.7908396107091846
 30
0.0
 11
4033.7313468091037976
 21
99.7909652060642429
 31
0.0
  0
LINE
  5
13672
  8
0
 10
4033.7307647600050586
 20
99.7876642418817426
 30
0.0
 11
4033.731627490532901
 21
99.7877232116064761
 31
0.0
  0
LINE
  5
13673
  8
0
 10
4033.731627490532901
 20
99.7877232116064761
 30
0.0
 11
4033.748597997266188
 21
99.7857936928293157
 31
0.0
  0
LINE
  5
13674
  8
0
 10
4033.748597997266188
 20
99.7857936928293157
 30
0.0
 11
4033.748102209714034
 21
99.7829819417975443
 31
0.0
  0
LINE
  5
13675
  8
0
 10
4033.748102209714034
 20
99.7829819417975443
 30
0.0
 11
4033.7306401370778985
 21
99.7821236522956809
 31
0.0
  0
LINE
  5
13676
  8
0
 10
4033.7306401370778985
 20
99.7821236522956809
 30
0.0
 11
4033.7298019424470112
 21
99.7822038318792579
 31
0.0
  0
LINE
  5
13677
  8
0
 10
4033.7295149415940614
 20
99.780576169483794
 30
0.0
 11
4033.7303691845481808
 21
99.7805870045186651
 31
0.0
  0
LINE
  5
13678
  8
0
 10
4033.7303691845481808
 20
99.7805870045186651
 30
0.0
 11
4033.747501165392805
 21
99.7795732496624908
 31
0.0
  0
LINE
  5
13679
  8
0
 10
4033.747501165392805
 20
99.7795732496624908
 30
0.0
 11
4033.7473374270721251
 21
99.7786446437069969
 31
0.0
  0
LINE
  5
1367A
  8
0
 10
4033.7473374270721251
 20
99.7786446437069969
 30
0.0
 11
4033.7397705981938998
 21
99.7785408794347148
 31
0.0
  0
LINE
  5
1367B
  8
0
 10
4033.7778981047681555
 20
99.7916453137159891
 30
0.0
 11
4033.7772249670601923
 21
99.787827760161079
 31
0.0
  0
LINE
  5
1367C
  8
0
 10
4033.7772249670601923
 20
99.787827760161079
 30
0.0
 11
4033.7595240564119194
 21
99.7856149535078742
 31
0.0
  0
LINE
  5
1367D
  8
0
 10
4033.7595240564119194
 20
99.7856149535078742
 30
0.0
 11
4033.7424923111648241
 21
99.7871971719616511
 31
0.0
  0
LINE
  5
1367E
  8
0
 10
4033.7424923111648241
 20
99.7871971719616511
 30
0.0
 11
4033.7431575957580208
 21
99.7909701888628007
 31
0.0
  0
LINE
  5
1367F
  8
0
 10
4033.7431575957580208
 20
99.7909701888628007
 30
0.0
 11
4033.7608624326599056
 21
99.7932052625643706
 31
0.0
  0
LINE
  5
13680
  8
0
 10
4033.7608624326599056
 20
99.7932052625643706
 30
0.0
 11
4033.7778981047440539
 21
99.7916453136567867
 31
0.0
  0
LINE
  5
13681
  8
0
 10
4033.7804893627508136
 20
99.8063410679949357
 30
0.0
 11
4033.7636201447498934
 21
99.8088450245379022
 31
0.0
  0
LINE
  5
13682
  8
0
 10
4033.7636201447498934
 20
99.8088450245379022
 30
0.0
 11
4033.7457176062857798
 21
99.8054887297698912
 31
0.0
  0
LINE
  5
13683
  8
0
 10
4033.7457176062857798
 20
99.8054887297698912
 30
0.0
 11
4033.7446951720899051
 21
99.7996902173026683
 31
0.0
  0
LINE
  5
13684
  8
0
 10
4033.7446951720899051
 20
99.7996902173026683
 30
0.0
 11
4033.7615626252791117
 21
99.7971762521950012
 31
0.0
  0
LINE
  5
13685
  8
0
 10
4033.7615626252791117
 20
99.7971762521950012
 30
0.0
 11
4033.7794542482010911
 21
99.8004706419521739
 31
0.0
  0
LINE
  5
13686
  8
0
 10
4033.7763092876962219
 20
99.7826346843010015
 30
0.0
 11
4033.7591119282178624
 21
99.7832776581449536
 31
0.0
  0
LINE
  5
13687
  8
0
 10
4033.7591119282178624
 20
99.7832776581449536
 30
0.0
 11
4033.7415871466491808
 21
99.7820637288143644
 31
0.0
  0
LINE
  5
13688
  8
0
 10
4033.7415871466491808
 20
99.7820637288143644
 30
0.0
 11
4033.741259132345931
 21
99.7802034677103933
 31
0.0
  0
LINE
  5
13689
  8
0
 10
4033.741259132345931
 20
99.7802034677103933
 30
0.0
 11
4033.7588781704398571
 21
99.779557640634934
 31
0.0
  0
LINE
  5
1368A
  8
0
 10
4033.7588781704398571
 20
99.779557640634934
 30
0.0
 11
4033.7759775103791071
 21
99.7807530820285962
 31
0.0
  0
LINE
  5
1368B
  8
0
 10
4033.805364357398048
 20
99.8101430434290364
 30
0.0
 11
4033.7914801345341402
 21
99.806529332769415
 31
0.0
  0
LINE
  5
1368C
  8
0
 10
4033.7914801345341402
 20
99.806529332769415
 30
0.0
 11
4033.7745469514147771
 21
99.8086705247725661
 31
0.0
  0
LINE
  5
1368D
  8
0
 10
4033.7745469514147771
 20
99.8086705247725661
 30
0.0
 11
4033.7757280324990461
 21
99.8153687687828892
 31
0.0
  0
LINE
  5
1368E
  8
0
 10
4033.7713204518668135
 20
99.8161459441635373
 30
0.0
 11
4033.7646305208268132
 21
99.8145751519587634
 31
0.0
  0
LINE
  5
1368F
  8
0
 10
4033.7646305208268132
 20
99.8145751519587634
 30
0.0
 11
4033.7479356881781314
 21
99.8180680973047458
 31
0.0
  0
LINE
  5
13690
  8
0
 10
4033.7479356881781314
 20
99.8180680973047458
 30
0.0
 11
4033.7483121175378074
 21
99.8202029342898669
 31
0.0
  0
LINE
  5
13691
  8
0
 10
4033.8084853988370924
 20
99.8095922862151355
 30
0.0
 11
4033.8026993518960808
 21
99.8080131762528993
 31
0.0
  0
LINE
  5
13692
  8
0
 10
4033.8026993518960808
 20
99.8080131762528993
 30
0.0
 11
4033.8016538628057788
 21
99.8020839132157533
 31
0.0
  0
LINE
  5
13693
  8
0
 10
4033.8016538628057788
 20
99.8020839132157533
 30
0.0
 11
4033.8188239536520996
 21
99.8012862913809329
 31
0.0
  0
LINE
  5
13694
  8
0
 10
4033.8188239536520996
 20
99.8012862913809329
 30
0.0
 11
4033.8330333043668361
 21
99.8052640285412878
 31
0.0
  0
LINE
  5
13695
  8
0
 10
4033.8356593278767832
 20
99.804801264406322
 30
0.0
 11
4033.830123710488806
 21
99.8032268968132854
 31
0.0
  0
LINE
  5
13696
  8
0
 10
4033.830123710488806
 20
99.8032268968132854
 30
0.0
 11
4033.8292515947600805
 21
99.7982808828186165
 31
0.0
  0
LINE
  5
13697
  8
0
 10
4033.8292515947600805
 20
99.7982808828186165
 30
0.0
 11
4033.8462558960068236
 21
99.7988184691597269
 31
0.0
  0
LINE
  5
13698
  8
0
 10
4033.8462558960068236
 20
99.7988184691597269
 30
0.0
 11
4033.8552281670431512
 21
99.8013507040895433
 31
0.0
  0
LINE
  5
13699
  8
0
 10
4033.8579757694869841
 20
99.8008662274072975
 30
0.0
 11
4033.8573429801008388
 21
99.7972775003275956
 31
0.0
  0
LINE
  5
1369A
  8
0
 10
4033.8573429801008388
 20
99.7972775003275956
 30
0.0
 11
4033.8704878447110787
 21
99.7986591169424742
 31
0.0
  0
LINE
  5
1369B
  8
0
 10
4033.8782222685058514
 20
99.7972956783783616
 30
0.0
 11
4033.8745598823088585
 21
99.7967453588982067
 31
0.0
  0
LINE
  5
1369C
  8
0
 10
4033.8745598823088585
 20
99.7967453588982067
 30
0.0
 11
4033.8563886153669955
 21
99.7918650285816256
 31
0.0
  0
LINE
  5
1369D
  8
0
 10
4033.8563886153669955
 20
99.7918650285816256
 30
0.0
 11
4033.8560430076549892
 21
99.7899049898837518
 31
0.0
  0
LINE
  5
1369E
  8
0
 10
4033.8560430076549892
 20
99.7899049898837518
 30
0.0
 11
4033.8738598433028528
 21
99.7927752404591359
 31
0.0
  0
LINE
  5
1369F
  8
0
 10
4033.8738598433028528
 20
99.7927752404591359
 30
0.0
 11
4033.8860065080812092
 21
99.7959236494650241
 31
0.0
  0
LINE
  5
136A0
  8
0
 10
4033.8855942786881315
 20
99.794535429870848
 30
0.0
 11
4033.8851177329038364
 21
99.7944784052499756
 31
0.0
  0
LINE
  5
136A1
  8
0
 10
4033.8851177329038364
 20
99.7944784052499756
 30
0.0
 11
4033.8852934284959701
 21
99.7954748241583758
 31
0.0
  0
LINE
  5
136A2
  8
0
 10
4033.8852934284959701
 20
99.7954748241583758
 30
0.0
 11
4033.8865687851689472
 21
99.7958245535059518
 31
0.0
  0
LINE
  5
136A3
  8
0
 10
4033.8622985421097837
 20
99.7894827030506946
 30
0.0
 11
4033.8625090881741926
 21
99.790545408788347
 31
0.0
  0
LINE
  5
136A4
  8
0
 10
4033.8625090881741926
 20
99.790545408788347
 30
0.0
 11
4033.8447626485049113
 21
99.7880743939463173
 31
0.0
  0
LINE
  5
136A5
  8
0
 10
4033.8447626485049113
 20
99.7880743939463173
 30
0.0
 11
4033.826856116403178
 21
99.7846954498804735
 31
0.0
  0
LINE
  5
136A6
  8
0
 10
4033.826856116403178
 20
99.7846954498804735
 30
0.0
 11
4033.8266869018370926
 21
99.7837357865750363
 31
0.0
  0
LINE
  5
136A7
  8
0
 10
4033.8266869018370926
 20
99.7837357865750363
 30
0.0
 11
4033.8337439368210653
 21
99.7844352485018788
 31
0.0
  0
LINE
  5
136A8
  8
0
 10
4033.8338147992039922
 20
99.7881295553970915
 30
0.0
 11
4033.8334738872558773
 21
99.7861961472699335
 31
0.0
  0
LINE
  5
136A9
  8
0
 10
4033.8334738872558773
 20
99.7861961472699335
 30
0.0
 11
4033.815636480869216
 21
99.7832092345269501
 31
0.0
  0
LINE
  5
136AA
  8
0
 10
4033.815636480869216
 20
99.7832092345269501
 30
0.0
 11
4033.7981438773072114
 21
99.7821777961104033
 31
0.0
  0
LINE
  5
136AB
  8
0
 10
4033.7981438773072114
 20
99.7821777961104033
 30
0.0
 11
4033.7984787255008996
 21
99.7840768148644344
 31
0.0
  0
LINE
  5
136AC
  8
0
 10
4033.7984787255008996
 20
99.7840768148644344
 30
0.0
 11
4033.8163121624561427
 21
99.7870412157052584
 31
0.0
  0
LINE
  5
136AD
  8
0
 10
4033.8163121624561427
 20
99.7870412157052584
 30
0.0
 11
4033.8338147992039922
 21
99.7881295553970915
 31
0.0
  0
LINE
  5
136AE
  8
0
 10
4033.835448256212203
 20
99.7973933504082709
 30
0.0
 11
4033.8347560225911366
 21
99.7934674984073666
 31
0.0
  0
LINE
  5
136AF
  8
0
 10
4033.8347560225911366
 20
99.7934674984073666
 30
0.0
 11
4033.8167343463219368
 21
99.7894355391960772
 31
0.0
  0
LINE
  5
136B0
  8
0
 10
4033.8167343463219368
 20
99.7894355391960772
 30
0.0
 11
4033.7994029894530286
 21
99.7893185760553934
 31
0.0
  0
LINE
  5
136B1
  8
0
 10
4033.7994029894530286
 20
99.7893185760553934
 30
0.0
 11
4033.8000825417830129
 21
99.793172508797241
 31
0.0
  0
LINE
  5
136B2
  8
0
 10
4033.8000825417830129
 20
99.793172508797241
 30
0.0
 11
4033.8181059824860313
 21
99.7972144745710494
 31
0.0
  0
LINE
  5
136B3
  8
0
 10
4033.8181059824860313
 20
99.7972144745710494
 30
0.0
 11
4033.835448256212203
 21
99.7973933504082709
 31
0.0
  0
LINE
  5
136B4
  8
0
 10
4033.8636680373078889
 20
99.7971181360747437
 30
0.0
 11
4033.8631439887099077
 21
99.7941461087908834
 31
0.0
  0
LINE
  5
136B5
  8
0
 10
4033.8631439887099077
 20
99.7941461087908834
 30
0.0
 11
4033.8450469262829756
 21
99.7896866134983327
 31
0.0
  0
LINE
  5
136B6
  8
0
 10
4033.8450469262829756
 20
99.7896866134983327
 30
0.0
 11
4033.8274774239671387
 21
99.7882190605348569
 31
0.0
  0
LINE
  5
136B7
  8
0
 10
4033.8274774239671387
 20
99.7882190605348569
 30
0.0
 11
4033.8279901195551247
 21
99.7911267014952159
 31
0.0
  0
LINE
  5
136B8
  8
0
 10
4033.8279901195551247
 20
99.7911267014952159
 30
0.0
 11
4033.8460834954280472
 21
99.7955652891330089
 31
0.0
  0
LINE
  5
136B9
  8
0
 10
4033.8460834954280472
 20
99.7955652891330089
 30
0.0
 11
4033.8636680373438139
 21
99.7971181360786943
 31
0.0
  0
LINE
  5
136BA
  8
0
 10
4033.8077236360068127
 20
99.8004767611679569
 30
0.0
 11
4033.8068618948418589
 21
99.7955895843388419
 31
0.0
  0
LINE
  5
136BB
  8
0
 10
4033.8068618948418589
 20
99.7955895843388419
 30
0.0
 11
4033.788908294680823
 21
99.7919437040009427
 31
0.0
  0
LINE
  5
136BC
  8
0
 10
4033.788908294680823
 20
99.7919437040009427
 30
0.0
 11
4033.7718097807901358
 21
99.7931472586891033
 31
0.0
  0
LINE
  5
136BD
  8
0
 10
4033.7718097807901358
 20
99.7931472586891033
 30
0.0
 11
4033.7726584119641302
 21
99.7979600851953279
 31
0.0
  0
LINE
  5
136BE
  8
0
 10
4033.7726584119641302
 20
99.7979600851953279
 30
0.0
 11
4033.7906185666111014
 21
99.8016431374286981
 31
0.0
  0
LINE
  5
136BF
  8
0
 10
4033.7906185666111014
 20
99.8016431374286981
 30
0.0
 11
4033.8077236360068127
 21
99.8004767611679569
 31
0.0
  0
LINE
  5
136C0
  8
0
 10
4033.80561509973586
 20
99.7885186579405712
 30
0.0
 11
4033.8051082632291582
 21
99.7856442452786894
 31
0.0
  0
LINE
  5
136C1
  8
0
 10
4033.8051082632291582
 20
99.7856442452786894
 30
0.0
 11
4033.7873419566958546
 21
99.7830605601062075
 31
0.0
  0
LINE
  5
136C2
  8
0
 10
4033.7873419566958546
 20
99.7830605601062075
 30
0.0
 11
4033.7700821319058377
 21
99.7833492753953806
 31
0.0
  0
LINE
  5
136C3
  8
0
 10
4033.7700821319058377
 20
99.7833492753953806
 30
0.0
 11
4033.770581552702879
 21
99.7861816314823358
 31
0.0
  0
LINE
  5
136C4
  8
0
 10
4033.770581552702879
 20
99.7861816314823358
 30
0.0
 11
4033.7883481419130476
 21
99.7887669198129856
 31
0.0
  0
LINE
  5
136C5
  8
0
 10
4033.7883481419130476
 20
99.7887669198129856
 30
0.0
 11
4033.8056150997308578
 21
99.788518657940557
 31
0.0
  0
LINE
  5
136C6
  8
0
 10
4033.8044939746928321
 20
99.7821604420545043
 30
0.0
 11
4033.8043266567151477
 21
99.7812115342431127
 31
0.0
  0
LINE
  5
136C7
  8
0
 10
4033.8043266567151477
 20
99.7812115342431127
 30
0.0
 11
4033.7867336942399561
 21
99.7796109319753839
 31
0.0
  0
LINE
  5
136C8
  8
0
 10
4033.7867336942399561
 20
99.7796109319753839
 30
0.0
 11
4033.7693118154948024
 21
99.7789805937310348
 31
0.0
  0
LINE
  5
136C9
  8
0
 10
4033.7693118154948024
 20
99.7789805937310348
 30
0.0
 11
4033.7694767313410011
 21
99.7799158783305131
 31
0.0
  0
LINE
  5
136CA
  8
0
 10
4033.7694767313410011
 20
99.7799158783305131
 30
0.0
 11
4033.7870659024320048
 21
99.7814949785677925
 31
0.0
  0
LINE
  5
136CB
  8
0
 10
4033.7870659024320048
 20
99.7814949785677925
 30
0.0
 11
4033.8044939746928321
 21
99.7821604420545043
 31
0.0
  0
LINE
  5
136CC
  8
0
 10
4033.7588781704398571
 20
99.779557640634934
 30
0.0
 11
4033.7591119282178624
 21
99.7832776581449536
 31
0.0
  0
LINE
  5
136CD
  8
0
 10
4033.7595240564119194
 20
99.7856149535078742
 30
0.0
 11
4033.7608624326599056
 21
99.7932052625643706
 31
0.0
  0
LINE
  5
136CE
  8
0
 10
4033.7615626252791117
 20
99.7971762521950012
 30
0.0
 11
4033.7636201447498934
 21
99.8088450245379022
 31
0.0
  0
LINE
  5
136CF
  8
0
 10
4033.7646305208268132
 20
99.8145751519587634
 30
0.0
 11
4033.765571202546198
 21
99.8171596537391537
 31
0.0
  0
LINE
  5
136D0
  8
0
 10
4033.7804893627508136
 20
99.8063410679949357
 30
0.0
 11
4033.7794542482010911
 21
99.8004706419521739
 31
0.0
  0
LINE
  5
136D1
  8
0
 10
4033.7906185666111014
 20
99.8016431374286981
 30
0.0
 11
4033.788908294680823
 21
99.7919437040009427
 31
0.0
  0
LINE
  5
136D2
  8
0
 10
4033.7914801345341402
 20
99.806529332769415
 30
0.0
 11
4033.7932832868391415
 21
99.8122732631756691
 31
0.0
  0
LINE
  5
136D3
  8
0
 10
4033.7883481419130476
 20
99.7887669198129856
 30
0.0
 11
4033.7873419566958546
 21
99.7830605601062075
 31
0.0
  0
LINE
  5
136D4
  8
0
 10
4033.7870659024320048
 20
99.7814949785677925
 30
0.0
 11
4033.7867336942399561
 21
99.7796109319753839
 31
0.0
  0
LINE
  5
136D5
  8
0
 10
4033.7763092876962219
 20
99.7826346843010015
 30
0.0
 11
4033.7759775103791071
 21
99.7807530820285962
 31
0.0
  0
LINE
  5
136D6
  8
0
 10
4033.815636480869216
 20
99.7832092345269501
 30
0.0
 11
4033.8163121624561427
 21
99.7870412157052584
 31
0.0
  0
LINE
  5
136D7
  8
0
 10
4033.8167343463219368
 20
99.7894355391960772
 30
0.0
 11
4033.8181059824860313
 21
99.7972144745710494
 31
0.0
  0
LINE
  5
136D8
  8
0
 10
4033.8188239536520996
 20
99.8012862913809329
 30
0.0
 11
4033.8210414278169083
 21
99.8073787515718749
 31
0.0
  0
LINE
  5
136D9
  8
0
 10
4033.8462558960068236
 20
99.7988184691597269
 30
0.0
 11
4033.8476630657378337
 21
99.802684636219567
 31
0.0
  0
LINE
  5
136DA
  8
0
 10
4033.8450469262829756
 20
99.7896866134983327
 30
0.0
 11
4033.8460834954280472
 21
99.7955652891330089
 31
0.0
  0
LINE
  5
136DB
  8
0
 10
4033.8447626485049113
 20
99.7880743939463173
 30
0.0
 11
4033.8444319464138061
 21
99.7861814836824976
 31
0.0
  0
LINE
  5
136DC
  8
0
 10
4033.8738598433028528
 20
99.7927752404591359
 30
0.0
 11
4033.8745598823088585
 21
99.7967453588982067
 31
0.0
  0
LINE
  5
136DD
  8
0
 10
4033.6554372082910049
 20
99.8365792866328832
 30
0.0
 11
4033.6547653023430939
 21
99.8327687184886798
 31
0.0
  0
LINE
  5
136DE
  8
0
 10
4033.6547653023430939
 20
99.8327687184886798
 30
0.0
 11
4033.6707180737130329
 21
99.8250673348186837
 31
0.0
  0
LINE
  5
136DF
  8
0
 10
4033.6634605048448066
 20
99.8351645629750806
 30
0.0
 11
4033.671875903326054
 21
99.8316337127495501
 31
0.0
  0
LINE
  5
136E0
  8
0
 10
4033.671875903326054
 20
99.8316337127495501
 30
0.0
 11
4033.6705851212777816
 21
99.824313324103727
 31
0.0
  0
LINE
  5
136E1
  8
0
 10
4033.6705851212777816
 20
99.824313324103727
 30
0.0
 11
4033.680213747461039
 21
99.8228385175304567
 31
0.0
  0
LINE
  5
136E2
  8
0
 10
4033.680213747461039
 20
99.8228385175304567
 30
0.0
 11
4033.6813006394618242
 21
99.8229405480412169
 31
0.0
  0
LINE
  5
136E3
  8
0
 10
4033.6813006394618242
 20
99.8229405480412169
 30
0.0
 11
4033.6825248672580528
 21
99.8224991929152452
 31
0.0
  0
LINE
  5
136E4
  8
0
 10
4033.6825248672580528
 20
99.8224991929152452
 30
0.0
 11
4033.6918892425628655
 21
99.8208480007978238
 31
0.0
  0
LINE
  5
136E5
  8
0
 10
4033.6918892425628655
 20
99.8208480007978238
 30
0.0
 11
4033.6933227218760294
 21
99.8289776655030749
 31
0.0
  0
LINE
  5
136E6
  8
0
 10
4033.6933227218760294
 20
99.8289776655030749
 30
0.0
 11
4033.6963396002779518
 21
99.8293670913447215
 31
0.0
  0
LINE
  5
136E7
  8
0
 10
4033.7049530950130247
 20
99.8226576130562648
 30
0.0
 11
4033.6919724023618983
 21
99.8213196232413367
 31
0.0
  0
LINE
  5
136E8
  8
0
 10
4033.6905678397488373
 20
99.8303848084530046
 30
0.0
 11
4033.6824553600049512
 21
99.8294892936109335
 31
0.0
  0
LINE
  5
136E9
  8
0
 10
4033.6824553600049512
 20
99.8294892936109335
 30
0.0
 11
4033.6716332497089752
 21
99.833723457509862
 31
0.0
  0
LINE
  5
136EA
  8
0
 10
4033.6824553599749379
 20
99.8294892935676756
 30
0.0
 11
4033.6828531233099966
 21
99.8317451211437685
 31
0.0
  0
ENDSEC
  0
EOF
