  0
SECTION
  2
HEADER
  9
$ACADVER
  1
AC1009
  9
$INSBASE
 10
4630.8381561708920344
 20
91.7928021558630149
 30
0.0
  9
$EXTMIN
 10
4625.9194831683626035
 20
67.9950281309775448
 30
0.0
  9
$EXTMAX
 10
4640.2169083226453949
 20
97.0694737770719343
 30
0.0
  9
$LIMMIN
 10
0.0
 20
0.0
  9
$LIMMAX
 10
11.6929133858000007
 20
8.2677165353999982
  9
$ORTHOMODE
 70
     0
  9
$REGENMODE
 70
     1
  9
$FILLMODE
 70
     1
  9
$QTEXTMODE
 70
     0
  9
$MIRRTEXT
 70
     0
  9
$DRAGMODE
 70
     2
  9
$LTSCALE
 40
0.6431102362
  9
$OSMODE
 70
  4095
  9
$ATTMODE
 70
     1
  9
$TEXTSIZE
 40
0.2
  9
$TRACEWID
 40
0.05
  9
$TEXTSTYLE
  7
STANDARD
  9
$CLAYER
  8
0
  9
$CELTYPE
  6
BYLAYER
  9
$CECOLOR
 62
   256
  9
$DIMSCALE
 40
1.0
  9
$DIMASZ
 40
0.1875
  9
$DIMEXO
 40
0.0625
  9
$DIMDLI
 40
0.4443307087
  9
$DIMRND
 40
0.0
  9
$DIMDLE
 40
0.0
  9
$DIMEXE
 40
0.125
  9
$DIMTP
 40
0.01
  9
$DIMTM
 40
0.01
  9
$DIMTXT
 40
2.0
  9
$DIMCEN
 40
0.1052362205
  9
$DIMTSZ
 40
0.0
  9
$DIMTOL
 70
     1
  9
$DIMLIM
 70
     0
  9
$DIMTIH
 70
     1
  9
$DIMTOH
 70
     1
  9
$DIMSE1
 70
     0
  9
$DIMSE2
 70
     0
  9
$DIMTAD
 70
     0
  9
$DIMZIN
 70
     0
  9
$DIMBLK
  1

  9
$DIMASO
 70
     1
  9
$DIMSHO
 70
     1
  9
$DIMPOST
  1
\X
  9
$DIMAPOST
  1

  9
$DIMALT
 70
     1
  9
$DIMALTD
 70
     2
  9
$DIMALTF
 40
25.3999999999999986
  9
$DIMLFAC
 40
1.0
  9
$DIMTOFL
 70
     0
  9
$DIMTVP
 40
0.0
  9
$DIMTIX
 70
     0
  9
$DIMSOXD
 70
     0
  9
$DIMSAH
 70
     0
  9
$DIMBLK1
  1

  9
$DIMBLK2
  1

  9
$DIMSTYLE
  2
STANDARD
  9
$DIMCLRD
 70
     0
  9
$DIMCLRE
 70
     0
  9
$DIMCLRT
 70
     0
  9
$DIMTFAC
 40
1.0
  9
$DIMGAP
 40
0.09
  9
$LUNITS
 70
     2
  9
$LUPREC
 70
     4
  9
$SKETCHINC
 40
0.1
  9
$FILLETRAD
 40
0.0
  9
$AUNITS
 70
     0
  9
$AUPREC
 70
     0
  9
$MENU
  1
.
  9
$ELEVATION
 40
0.0
  9
$PELEVATION
 40
0.0
  9
$THICKNESS
 40
0.0
  9
$LIMCHECK
 70
     0
  9
$BLIPMODE
 70
     0
  9
$CHAMFERA
 40
0.0
  9
$CHAMFERB
 40
0.0
  9
$SKPOLY
 70
     0
  9
$TDCREATE
 40
2458060.468368056230247
  9
$TDUPDATE
 40
2459929.6819560187868774
  9
$TDINDWG
 40
0.4565811343
  9
$TDUSRTIMER
 40
0.4565811343
  9
$USRTIMER
 70
     1
  9
$ANGBASE
 50
0.0
  9
$ANGDIR
 70
     0
  9
$PDMODE
 70
     0
  9
$PDSIZE
 40
0.3125
  9
$PLINEWID
 40
0.0
  9
$COORDS
 70
     1
  9
$SPLFRAME
 70
     0
  9
$SPLINETYPE
 70
     6
  9
$SPLINESEGS
 70
     8
  9
$ATTDIA
 70
     1
  9
$ATTREQ
 70
     1
  9
$HANDLING
 70
     1
  9
$HANDSEED
  5
16949
  9
$SURFTAB1
 70
     6
  9
$SURFTAB2
 70
     6
  9
$SURFTYPE
 70
     6
  9
$SURFU
 70
     6
  9
$SURFV
 70
     6
  9
$UCSNAME
  2

  9
$UCSORG
 10
0.0
 20
0.0
 30
0.0
  9
$UCSXDIR
 10
1.0
 20
0.0
 30
0.0
  9
$UCSYDIR
 10
0.0
 20
1.0
 30
0.0
  9
$PUCSNAME
  2

  9
$PUCSORG
 10
0.0
 20
0.0
 30
0.0
  9
$PUCSXDIR
 10
1.0
 20
0.0
 30
0.0
  9
$PUCSYDIR
 10
0.0
 20
1.0
 30
0.0
  9
$USERI1
 70
     0
  9
$USERI2
 70
     0
  9
$USERI3
 70
     0
  9
$USERI4
 70
     0
  9
$USERI5
 70
     0
  9
$USERR1
 40
0.0
  9
$USERR2
 40
0.0
  9
$USERR3
 40
0.0
  9
$USERR4
 40
0.0
  9
$USERR5
 40
0.0
  9
$WORLDVIEW
 70
     1
  9
$SHADEDGE
 70
     3
  9
$SHADEDIF
 70
    70
  9
$TILEMODE
 70
     1
  9
$MAXACTVP
 70
    64
  9
$PLIMCHECK
 70
     0
  9
$PEXTMIN
 10
1.0000000000000000E+20
 20
1.0000000000000000E+20
 30
1.0000000000000000E+20
  9
$PEXTMAX
 10
-1.0000000000000000E+20
 20
-1.0000000000000000E+20
 30
-1.0000000000000000E+20
  9
$PLIMMIN
 10
0.0
 20
0.0
  9
$PLIMMAX
 10
12.0
 20
9.0
  9
$UNITMODE
 70
     0
  9
$VISRETAIN
 70
     1
  9
$PLINEGEN
 70
     0
  9
$PSLTSCALE
 70
     1
  0
ENDSEC
  0
SECTION
  2
TABLES
  0
TABLE
  2
VPORT
 70
     1
  0
VPORT
  2
*ACTIVE
 70
     0
 10
0.0
 20
0.0
 11
1.0
 21
1.0
 12
840.8915291400106753
 22
-29.9752020625019
 13
0.0
 23
0.0
 14
1.0
 24
1.0
 15
0.0
 25
0.0
 16
0.0
 26
0.0
 36
5.1040778033513332
 17
3792.35791015625
 27
120.1806564331053977
 37
0.0
 40
16.021631257410661
 41
2.498684210526315
 42
50.0
 43
0.0
 44
0.0
 50
0.0
 51
0.0
 71
     0
 72
   100
 73
     1
 74
     1
 75
     0
 76
     0
 77
     0
 78
     0
  0
ENDTAB
  0
TABLE
  2
LTYPE
 70
     2
  0
LTYPE
  2
CONTINUOUS
 70
     0
  3
Solid line
 72
    65
 73
     0
 40
0.0
  0
LTYPE
  2
PHANTOM2
 70
     0
  3
___ _ _ ___ _ _ ___ _ _ ___ _ _
 72
    65
 73
     6
 40
1.25
 49
0.625
 49
-0.125
 49
0.125
 49
-0.125
 49
0.125
 49
-0.125
  0
ENDTAB
  0
TABLE
  2
LAYER
 70
     2
  0
LAYER
  2
0
 70
     0
 62
   255
  6
CONTINUOUS
  0
LAYER
  2
DEFPOINTS
 70
     0
 62
     7
  6
CONTINUOUS
  0
ENDTAB
  0
TABLE
  2
STYLE
 70
     1
  0
STYLE
  2
STANDARD
 70
     0
 40
0.0
 41
0.8
 50
0.0
 71
     0
 42
0.2
  3
txt
  4

  0
ENDTAB
  0
TABLE
  2
VIEW
 70
     0
  0
ENDTAB
  0
TABLE
  2
UCS
 70
     0
  0
ENDTAB
  0
TABLE
  2
APPID
 70
     9
  0
APPID
  2
ACAD
 70
     0
  0
APPID
  2
ACAD_MLEADERVER
 70
     0
  0
APPID
  2
ACAD_EXEMPT_FROM_CAD_STANDARDS
 70
     0
  0
APPID
  2
ACAD_NAV_VCDISPLAY
 70
     0
  0
APPID
  2
ACAECLAYERSTANDARD
 70
     0
  0
APPID
  2
ACCMTRANSPARENCY
 70
     0
  0
APPID
  2
ACAD_DSTYLE_DIMJAG
 70
     0
  0
APPID
  2
ACAD_DSTYLE_DIMTALN
 70
     0
  0
APPID
  2
ACDBATTR
 70
     0
  0
ENDTAB
  0
TABLE
  2
DIMSTYLE
 70
     1
  0
DIMSTYLE
  2
STANDARD
 70
     0
  3

  4

  5

  6

  7

 40
1.0
 41
0.1875
 42
0.0625
 43
0.38
 44
0.125
 45
0.0
 46
0.0
 47
0.01
 48
0.01
140
0.15625
141
0.09
142
0.0
143
25.3999999999999986
144
1.0
145
0.0
146
1.0
147
0.09
 71
     1
 72
     0
 73
     1
 74
     1
 75
     0
 76
     0
 77
     0
 78
     4
170
     0
171
     2
172
     0
173
     0
174
     0
175
     0
176
     0
177
     0
178
     0
  0
ENDTAB
  0
ENDSEC
  0
SECTION
  2
BLOCKS
  0
BLOCK
  8
0
  2
$MODEL_SPACE
 70
     0
 10
0.0
 20
0.0
 30
0.0
  3
$MODEL_SPACE
  1

  0
ENDBLK
  5
21
  8
0
  0
BLOCK
 67
     1
  8
0
  2
$PAPER_SPACE
 70
     0
 10
0.0
 20
0.0
 30
0.0
  3
$PAPER_SPACE
  1

  0
ENDBLK
  5
1D
 67
     1
  8
0
  0
BLOCK
  8
0
  2
_FILLED
 70
     0
 10
0.0
 20
0.0
 30
0.0
  3
_FILLED
  1

  0
SOLID
  5
13FEA
  8
0
  6
BYBLOCK
 62
     0
 10
0.0
 20
0.0
 30
0.0
 11
-1.0
 21
0.1666666667
 31
0.0
 12
-1.0
 22
-0.1666666667
 32
0.0
 13
-1.0
 23
-0.1666666667
 33
0.0
  0
ENDBLK
  5
13FEB
  8
0
  6
BYBLOCK
 62
     0
  0
ENDSEC
  0
SECTION
  2
ENTITIES
  0
ARC
  5
167FC
  8
0
 10
4631.025633678244958
 20
91.5180076463845467
 30
0.0
 40
0.9403582669152882
 50
166.4728487835097042
 51
177.8772284986623049
  0
ARC
  5
167FD
  8
0
 10
4631.0000090390722107
 20
91.5285809188901851
 30
0.0
 40
0.9144003556787541
 50
181.4968980310324014
 51
196.241405993913304
  0
ARC
  5
167FE
  8
0
 10
4630.9438526917174386
 20
91.5377632001979578
 30
0.0
 40
0.8562250100811764
 50
143.8494592892907917
 51
166.4780980820254968
  0
ARC
  5
167FF
  8
0
 10
4630.8790556078047302
 20
91.5853237630071391
 30
0.0
 40
0.7758469426692183
 50
123.540319556332804
 51
143.8627038893970109
  0
ARC
  5
16800
  8
0
 10
4630.8406314670683059
 20
91.6459149928047339
 30
0.0
 40
0.7041155710515046
 50
90.2014219283704222
 51
123.6584462569949068
  0
ARC
  5
16801
  8
0
 10
4639.8169928302831977
 20
94.5957149851936094
 30
0.0
 40
10.2485341267927392
 50
198.9189071846988952
 51
200.3817323131403043
  0
ARC
  5
16802
  8
0
 10
4627.9209117960590447
 20
90.2365163920935345
 30
0.0
 40
2.4216282106616331
 50
13.67537051931461
 51
19.0376354308686899
  0
ARC
  5
16803
  8
0
 10
4625.85129812244395
 20
89.7378251336431845
 30
0.0
 40
4.5368801040533864
 50
1.6100578635217819
 51
5.7995411697491877
  0
ARC
  5
16804
  8
0
 10
4625.6703947748055725
 20
89.8361962343097957
 30
0.0
 40
4.7083500724428218
 50
4.3860012568987887
 51
9.6553808906478888
  0
ARC
  5
16805
  8
0
 10
4627.4949248702832847
 20
90.134492307604944
 30
0.0
 40
2.859659784943748
 50
9.8946657191509928
 51
13.6437088316208595
  0
ARC
  5
16806
  8
0
 10
4628.554766516471318
 20
90.0308366685511743
 30
0.0
 40
1.7915393193018869
 50
12.5154408584092796
 51
20.0685206473630586
  0
ARC
  5
16807
  8
0
 10
4629.1279316351274247
 20
89.8702460792496254
 30
0.0
 40
1.257988962912937
 50
3.8415349588600818
 51
8.9072833898907202
  0
ARC
  5
16808
  8
0
 10
4624.1870611083431868
 20
89.0779044841186334
 30
0.0
 40
6.2619817076110849
 50
9.0697984851754327
 51
12.3671653599053197
  0
ARC
  5
16809
  8
0
 10
4630.8416997841013654
 20
91.588864102124532
 30
0.0
 40
0.8296935264344076
 50
90.2447104767903454
 51
121.5004333248671031
  0
ARC
  5
1680A
  8
0
 10
4630.9344992963224286
 20
91.4586088644454662
 30
0.0
 40
0.9893039525846541
 50
122.1412910187980003
 51
162.0909596991994874
  0
ARC
  5
1680B
  8
0
 10
4631.0822217423201437
 20
91.4005493309826846
 30
0.0
 40
1.1477643540819129
 50
161.6007116420387035
 51
178.7373255569293065
  0
ARC
  5
1680C
  8
0
 10
4631.1292422249625815
 20
91.4088222475957366
 30
0.0
 40
1.194778609424566
 50
181.2236763943110986
 51
187.3398148156396985
  0
ARC
  5
1680D
  8
0
 10
4631.0438822173864537
 20
91.3988531708550482
 30
0.0
 40
1.1088449288978419
 50
187.392399964954393
 51
203.548271386454104
  0
ARC
  5
1680E
  8
0
 10
4630.9861522573482944
 20
91.3747834986853462
 30
0.0
 40
1.0463066246747661
 50
203.6029833100822088
 51
212.3135292810578107
  0
ARC
  5
1680F
  8
0
 10
4630.9772123130787804
 20
91.3752985090860932
 30
0.0
 40
1.039039541871225
 50
212.6010527114036961
 51
224.6109708712905046
  0
ARC
  5
16810
  8
0
 10
4630.8533847428725494
 20
91.6706645007499361
 30
0.0
 40
0.9262516929092205
 50
90.9420465547834738
 51
120.017629339191501
  0
ARC
  5
16811
  8
0
 10
4630.8991644194447872
 20
91.6184911501240862
 30
0.0
 40
0.9944213143754513
 50
120.7977179202810021
 51
157.4387805648891003
  0
ARC
  5
16812
  8
0
 10
4631.0015558538516416
 20
91.5760394669164839
 30
0.0
 40
1.105267034679861
 50
157.4754980238051871
 51
177.8132837772353128
  0
ARC
  5
16813
  8
0
 10
4631.217417199925876
 20
91.6042958098541504
 30
0.0
 40
1.321139285786884
 50
182.0135854722030047
 51
191.3600265952630934
  0
ARC
  5
16814
  8
0
 10
4631.0620766838401323
 20
91.5839192606016042
 30
0.0
 40
1.1648768503043549
 50
191.8824199523130005
 51
196.3406126414591881
  0
ARC
  5
16815
  8
0
 10
4631.0334342595942871
 20
91.793934394111659
 30
0.0
 40
1.1796390685292171
 50
152.6921771192293136
 51
178.8334332815836092
  0
ARC
  5
16816
  8
0
 10
4631.0295187220126536
 20
91.7954187192337656
 30
0.0
 40
1.175479031406673
 50
180.0
 51
180.124517626107604
  0
ARC
  5
16817
  8
0
 10
4630.8384898431359034
 20
91.9857226456146435
 30
0.0
 40
0.8956442820031323
 50
90.0213455409664931
 51
105.0447199883619049
  0
ARC
  5
16818
  8
0
 10
4630.9585326661917861
 20
91.8303451362477432
 30
0.0
 40
1.096382566830985
 50
136.3416165439024041
 51
152.587150343903204
  0
ARC
  5
16819
  8
0
 10
4630.8659904480637124
 20
91.9154540315040265
 30
0.0
 40
0.9706783882611135
 50
105.5357178063313057
 51
136.2050556027589039
  0
ARC
  5
1681A
  8
0
 10
4631.0851524831696224
 20
91.797780503256277
 30
0.0
 40
1.2314813588616429
 50
181.4018203204281008
 51
191.7880684796625133
  0
LINE
  5
1681B
  8
0
 10
4629.8796431244445557
 20
91.5461984624656964
 30
0.0
 11
4629.919438676777645
 21
91.3578933690159971
 31
0.0
  0
ARC
  5
1681C
  8
0
 10
4625.3884740744706505
 20
89.7054631943651231
 30
0.0
 40
4.8019252845397551
 50
0.521310320178344
 51
8.2380107525685808
  0
ARC
  5
1681D
  8
0
 10
4624.6663035487326852
 20
89.5674063490579755
 30
0.0
 40
5.5365248417836117
 50
8.58113089098374
 51
12.6874534931395999
  0
ARC
  5
1681E
  8
0
 10
4624.4596772946897545
 20
89.5648935115612659
 30
0.0
 40
5.7388183105940058
 50
12.2588369760582694
 51
14.0268203862169205
  0
LINE
  5
1681F
  8
0
 10
4630.3863870580453295
 20
89.8652983651652164
 30
0.0
 11
4630.445352894044845
 21
87.9185778865656857
 31
0.0
  0
LINE
  5
16820
  8
0
 10
4630.2297804384543269
 20
86.0923925960915142
 30
0.0
 11
4630.1902005986448785
 21
89.7491533001656876
 31
0.0
  0
ARC
  5
16821
  8
0
 10
4630.9605111121099981
 20
87.9353544638137379
 30
0.0
 40
0.5154310459628852
 50
181.8653443082581873
 51
190.603765916526612
  0
ARC
  5
16822
  8
0
 10
4630.8977362192990768
 20
87.911846122847507
 30
0.0
 40
0.4495526256951521
 50
189.1216621415144914
 51
222.0219376010994097
  0
ARC
  5
16823
  8
0
 10
4630.8694995007372199
 20
87.8893644592339029
 30
0.0
 40
0.4135321810443421
 50
222.3268528243727928
 51
227.7945920525937993
  0
ARC
  5
16824
  8
0
 10
4630.8382813038269887
 20
87.8344719913723679
 30
0.0
 40
0.3493725498104241
 50
264.8438984033402903
 51
269.979478670509593
  0
ARC
  5
16825
  8
0
 10
4630.8608192368283198
 20
87.8798263362935614
 30
0.0
 40
0.4006355822046479
 50
227.7977681496099081
 51
232.7562757346524052
  0
ARC
  5
16826
  8
0
 10
4630.8508900462284146
 20
87.8664068165130914
 30
0.0
 40
0.3839435757873074
 50
232.7238524908441946
 51
243.0672717657145085
  0
ARC
  5
16827
  8
0
 10
4630.8404249030054416
 20
87.8456327839260638
 30
0.0
 40
0.360682601106159
 50
243.0546601186275097
 51
264.6640899791439097
  0
ARC
  5
16828
  8
0
 10
4630.8402771118644523
 20
86.0010890574292546
 30
0.0
 40
0.5835485961609317
 50
231.950312296194511
 51
269.7917547319901246
  0
ARC
  5
16829
  8
0
 10
4630.9633994802743473
 20
86.097654780182026
 30
0.0
 40
0.7336379141661113
 50
180.4109704786432076
 51
195.8884610359253884
  0
ARC
  5
1682A
  8
0
 10
4630.8663414616248701
 20
86.0310013232539887
 30
0.0
 40
0.6231719263756847
 50
192.4352368534194113
 51
231.7582631209409101
  0
ARC
  5
1682B
  8
0
 10
4630.6763033027109486
 20
91.5285809188901851
 30
0.0
 40
0.9144003556787723
 50
343.758594006086696
 51
358.5031019689672007
  0
ARC
  5
1682C
  8
0
 10
4630.6506786635382014
 20
91.5180076463845324
 30
0.0
 40
0.9403582669153331
 50
2.1227715013377022
 51
13.5271512164902603
  0
ARC
  5
1682D
  8
0
 10
4630.7324596500666303
 20
91.5377632001979578
 30
0.0
 40
0.8562250100811764
 50
13.5219019179744802
 51
36.1505407107092225
  0
ARC
  5
1682E
  8
0
 10
4630.7972567339784291
 20
91.5853237630071391
 30
0.0
 40
0.7758469426692183
 50
36.1372961106030033
 51
56.4596804436672102
  0
ARC
  5
1682F
  8
0
 10
4630.8356808747148534
 20
91.6459149928047196
 30
0.0
 40
0.704115571051522
 50
56.3415537430050932
 51
89.798578071629592
  0
ARC
  5
16830
  8
0
 10
4621.8593195115008712
 20
94.5957149851936094
 30
0.0
 40
10.2485341267927392
 50
339.6182676868597241
 51
341.0810928153010764
  0
ARC
  5
16831
  8
0
 10
4633.7554005457241146
 20
90.2365163920935345
 30
0.0
 40
2.4216282106616331
 50
160.9623645691312959
 51
166.3246294806853882
  0
ARC
  5
16832
  8
0
 10
4635.8250142193392094
 20
89.7378251336431845
 30
0.0
 40
4.5368801040533864
 50
174.2004588302507955
 51
178.3899421364781972
  0
ARC
  5
16833
  8
0
 10
4636.0059175669775868
 20
89.8361962343097957
 30
0.0
 40
4.7083500724428218
 50
170.3446191093520952
 51
175.613998743100808
  0
ARC
  5
16834
  8
0
 10
4634.1813874714998747
 20
90.134492307604944
 30
0.0
 40
2.859659784943748
 50
166.3562911683791015
 51
170.1053342808490072
  0
ARC
  5
16835
  8
0
 10
4633.1215458253127508
 20
90.0308366685511743
 30
0.0
 40
1.7915393193018869
 50
159.9314793526372966
 51
167.4845591415906938
  0
ARC
  5
16836
  8
0
 10
4632.5483807066566442
 20
89.8702460792496254
 30
0.0
 40
1.257988962912937
 50
171.0927166101091927
 51
176.1584650411398911
  0
ARC
  5
16837
  8
0
 10
4637.4892512334408821
 20
89.0779044841186334
 30
0.0
 40
6.2619817076110849
 50
167.6328346400946998
 51
170.9302015148246028
  0
ARC
  5
16838
  8
0
 10
4630.8346125054549702
 20
91.5888639184460942
 30
0.0
 40
0.8296937103342383
 50
58.4995702275385909
 51
89.7552859707722916
  0
ARC
  5
16839
  8
0
 10
4630.7418130454625498
 20
91.4586088644454662
 30
0.0
 40
0.9893039525846541
 50
17.9090403008004593
 51
57.8587089812019499
  0
ARC
  5
1683A
  8
0
 10
4630.5470701168196683
 20
91.4088222475957508
 30
0.0
 40
1.1947786094248201
 50
352.6601851843611257
 51
358.7763236056883898
  0
ARC
  5
1683B
  8
0
 10
4630.5940905994630157
 20
91.4005493309826846
 30
0.0
 40
1.147764354081914
 50
1.2626744430707051
 51
18.3992883579612716
  0
ARC
  5
1683C
  8
0
 10
4630.6324301243967057
 20
91.3988531708550482
 30
0.0
 40
1.1088449288978419
 50
336.4517286135459244
 51
352.6076000350454933
  0
ARC
  5
1683D
  8
0
 10
4630.6901600844357745
 20
91.3747834986853462
 30
0.0
 40
1.0463066246747661
 50
327.6864707189420756
 51
336.3970166899179048
  0
ARC
  5
1683E
  8
0
 10
4630.6991000287061979
 20
91.3752985090860932
 30
0.0
 40
1.039039541871225
 50
315.3890291287091827
 51
327.3989472885962755
  0
ARC
  5
1683F
  8
0
 10
4630.82292759891061
 20
91.6706645007499361
 30
0.0
 40
0.9262516929092205
 50
59.982370660808499
 51
89.057953445216512
  0
ARC
  5
16840
  8
0
 10
4630.7771479223392816
 20
91.6184911501240862
 30
0.0
 40
0.9944213143754513
 50
22.561219435110889
 51
59.2022820797189127
  0
ARC
  5
16841
  8
0
 10
4630.6747549238079955
 20
91.5760389755189834
 30
0.0
 40
1.1052686677291179
 50
2.186738482300322
 51
22.5244944455370195
  0
ARC
  5
16842
  8
0
 10
4630.4588875132021712
 20
91.6042970213498933
 30
0.0
 40
1.3211470036216979
 50
348.6399870605683873
 51
357.9863737226775129
  0
ARC
  5
16843
  8
0
 10
4630.6142356579439365
 20
91.5839192606016042
 30
0.0
 40
1.1648768503043549
 50
343.6593873585408119
 51
348.1175800476869995
  0
ARC
  5
16844
  8
0
 10
4630.6428780821888722
 20
91.7939343941116448
 30
0.0
 40
1.179639068529245
 50
1.16656671841766
 51
27.3078228807706616
  0
ARC
  5
16845
  8
0
 10
4630.8378224986481655
 20
91.9857226456146435
 30
0.0
 40
0.8956442820031323
 50
74.9552800116381093
 51
89.9786544590335069
  0
ARC
  5
16846
  8
0
 10
4630.7177796755913732
 20
91.8303451362477432
 30
0.0
 40
1.096382566830985
 50
27.4128496560967996
 51
43.6583834560976172
  0
ARC
  5
16847
  8
0
 10
4630.8103218937203565
 20
91.9154540315040265
 30
0.0
 40
0.9706783882611135
 50
43.794944397241359
 51
74.4642821936687085
  0
ARC
  5
16848
  8
0
 10
4630.5911598586126274
 20
91.7977805032562628
 30
0.0
 40
1.2314813588614211
 50
348.2119315203366909
 51
358.5981796795717855
  0
LINE
  5
16849
  8
0
 10
4631.7966692173376941
 20
91.5461984624656964
 30
0.0
 11
4631.7568736650073333
 21
91.3578933690159971
 31
0.0
  0
ARC
  5
1684A
  8
0
 10
4636.2878382673134183
 20
89.7054631943651231
 30
0.0
 40
4.8019252845397551
 50
171.7619892474318135
 51
179.4786896798215992
  0
ARC
  5
1684B
  8
0
 10
4637.0100087930513837
 20
89.5674063490579755
 30
0.0
 40
5.5365248417836117
 50
167.3125465068604001
 51
171.4188691090162138
  0
ARC
  5
1684C
  8
0
 10
4637.2166350470934049
 20
89.5648935115612659
 30
0.0
 40
5.7388183105940058
 50
165.9731796137826905
 51
167.7411630239417093
  0
LINE
  5
1684D
  8
0
 10
4631.2899252837387394
 20
89.8652983651652164
 30
0.0
 11
4631.2309594477392238
 21
87.9185778865656857
 31
0.0
  0
LINE
  5
1684E
  8
0
 10
4631.4465319033306514
 20
86.0923925960915142
 30
0.0
 11
4631.4861117431382809
 21
89.7491533001656876
 31
0.0
  0
ARC
  5
1684F
  8
0
 10
4630.7158012296731613
 20
87.9353544638137379
 30
0.0
 40
0.5154310459628852
 50
349.3962340834734164
 51
358.1346556917417843
  0
ARC
  5
16850
  8
0
 10
4630.7785761224840826
 20
87.911846122847507
 30
0.0
 40
0.4495526256951521
 50
317.9780623989005903
 51
350.8783378584851107
  0
ARC
  5
16851
  8
0
 10
4630.8068128410459394
 20
87.8893644592339029
 30
0.0
 40
0.4135321810443421
 50
312.2054079474060018
 51
317.6731471756272072
  0
ARC
  5
16852
  8
0
 10
4630.8380310379561706
 20
87.8344719913723679
 30
0.0
 40
0.3493725498104241
 50
270.020521329490407
 51
275.1561015966597097
  0
ARC
  5
16853
  8
0
 10
4630.8154931049548395
 20
87.8798263362935614
 30
0.0
 40
0.4006355822046479
 50
307.2437242653472822
 51
312.2022318503902056
  0
ARC
  5
16854
  8
0
 10
4630.8254222955547448
 20
87.8664068165130914
 30
0.0
 40
0.3839435757873074
 50
296.9327282342853778
 51
307.2761475091556918
  0
ARC
  5
16855
  8
0
 10
4630.8358874387804462
 20
87.8456327839260638
 30
0.0
 40
0.360682601106159
 50
275.335910020856204
 51
296.9453398813726039
  0
ARC
  5
16856
  8
0
 10
4630.8360352299196165
 20
86.0010890574292546
 30
0.0
 40
0.5835485961609317
 50
270.2082452680098754
 51
308.0496877038053753
  0
ARC
  5
16857
  8
0
 10
4630.712912861510631
 20
86.097654780182026
 30
0.0
 40
0.7336379141661113
 50
344.1115389640744979
 51
359.5890295213566787
  0
ARC
  5
16858
  8
0
 10
4630.8099708801591987
 20
86.0310013232539887
 30
0.0
 40
0.6231719263756847
 50
308.2417368790590899
 51
347.5647631465802192
  0
LINE
  5
16870
  8
0
 10
4631.5903916107818077
 20
91.5046941963614131
 30
0.0
 11
4631.5903916107818077
 21
91.5528393408662708
 31
0.0
  0
LINE
  5
16871
  8
0
 10
4630.0859207310022612
 20
91.5046941963614131
 30
0.0
 11
4630.0859207310022612
 21
91.5528393408662708
 31
0.0
  0
LINE
  5
16872
  8
0
 10
4629.9347360919018683
 20
91.3833070831185097
 30
0.0
 11
4629.9347360919018683
 21
91.425841515206173
 31
0.0
  0
LINE
  5
16873
  8
0
 10
4631.7415762498822005
 20
91.3833070831185239
 30
0.0
 11
4631.7415762498822005
 21
91.4258415152061445
 31
0.0
  0
LINE
  5
16874
  8
0
 10
4631.8222726511767178
 20
91.7676536181161566
 30
0.0
 11
4631.8222726511767178
 21
91.8179506936098306
 31
0.0
  0
LINE
  5
16876
  8
0
 10
4629.8540396906064416
 20
91.767653618116185
 30
0.0
 11
4629.8540396906064416
 21
91.8179506936098164
 31
0.0
  0
LINE
  5
1687A
  8
0
 10
4629.8970936861205701
 20
91.5578756488846324
 30
0.0
 11
4629.8970936861205701
 21
91.6182121832212175
 31
0.0
  0
LINE
  5
1687C
  8
0
 10
4631.7792187070153886
 20
91.5578756488846039
 30
0.0
 11
4631.7792187070153886
 21
91.6182121832212033
 31
0.0
  0
ATTDEF
  5
16881
  8
DEFPOINTS
 10
4630.8400184147285472
 20
91.7898700263937428
 30
0.0
 40
0.001
  1
K-33094T-4
  3

  2
MODELNUMBER
 70
     0
1001
ACDBATTR
1070
     0
1070
     1
  0
ATTDEF
  5
16882
  8
DEFPOINTS
 10
4630.8400184147285472
 20
91.7882033597270635
 30
0.0
 40
0.001
  1
ACCLIV
  3

  2
TRADENAME
 70
     0
1001
ACDBATTR
1070
     0
1070
     1
  0
ATTDEF
  5
16883
  8
DEFPOINTS
 10
4630.8400184147285472
 20
91.7865366930604267
 30
0.0
 40
0.001
  1
BATHROOM SINK FAUCET
  3

  2
PRODUCT
 70
     0
1001
ACDBATTR
1070
     0
1070
     1
  0
ENDSEC
  0
EOF
