  0
SECTION
  2
HEADER
  9
$ACADVER
  1
AC1009
  9
$INSBASE
 10
4449.829663125496154
 20
215.0135836381278125
 30
0.0
  9
$EXTMIN
 10
4444.698839268435222
 20
191.4095991007490056
 30
-0.0015258207003583
  9
$EXTMAX
 10
4455.1915131144542102
 20
215.014473624001198
 30
0.0000000349246037
  9
$LIMMIN
 10
0.0
 20
0.0
  9
$LIMMAX
 10
11.6929133858000007
 20
8.2677165353999982
  9
$ORTHOMODE
 70
     0
  9
$REGENMODE
 70
     1
  9
$FILLMODE
 70
     1
  9
$QTEXTMODE
 70
     0
  9
$MIRRTEXT
 70
     0
  9
$DRAGMODE
 70
     2
  9
$LTSCALE
 40
0.6431102362
  9
$OSMODE
 70
  4095
  9
$ATTMODE
 70
     1
  9
$TEXTSIZE
 40
0.2
  9
$TRACEWID
 40
0.05
  9
$TEXTSTYLE
  7
STANDARD
  9
$CLAYER
  8
0
  9
$CELTYPE
  6
BYLAYER
  9
$CECOLOR
 62
   256
  9
$DIMSCALE
 40
1.0
  9
$DIMASZ
 40
0.1875
  9
$DIMEXO
 40
0.0625
  9
$DIMDLI
 40
0.4443307087
  9
$DIMRND
 40
0.0
  9
$DIMDLE
 40
0.0
  9
$DIMEXE
 40
0.125
  9
$DIMTP
 40
0.01
  9
$DIMTM
 40
0.01
  9
$DIMTXT
 40
2.0
  9
$DIMCEN
 40
0.1052362205
  9
$DIMTSZ
 40
0.0
  9
$DIMTOL
 70
     1
  9
$DIMLIM
 70
     0
  9
$DIMTIH
 70
     1
  9
$DIMTOH
 70
     1
  9
$DIMSE1
 70
     0
  9
$DIMSE2
 70
     0
  9
$DIMTAD
 70
     0
  9
$DIMZIN
 70
     0
  9
$DIMBLK
  1

  9
$DIMASO
 70
     1
  9
$DIMSHO
 70
     1
  9
$DIMPOST
  1
\X
  9
$DIMAPOST
  1

  9
$DIMALT
 70
     1
  9
$DIMALTD
 70
     2
  9
$DIMALTF
 40
25.3999999999999986
  9
$DIMLFAC
 40
1.0
  9
$DIMTOFL
 70
     0
  9
$DIMTVP
 40
0.0
  9
$DIMTIX
 70
     0
  9
$DIMSOXD
 70
     0
  9
$DIMSAH
 70
     0
  9
$DIMBLK1
  1

  9
$DIMBLK2
  1

  9
$DIMSTYLE
  2
STANDARD
  9
$DIMCLRD
 70
     0
  9
$DIMCLRE
 70
     0
  9
$DIMCLRT
 70
     0
  9
$DIMTFAC
 40
1.0
  9
$DIMGAP
 40
0.09
  9
$LUNITS
 70
     2
  9
$LUPREC
 70
     4
  9
$SKETCHINC
 40
0.1
  9
$FILLETRAD
 40
0.0
  9
$AUNITS
 70
     0
  9
$AUPREC
 70
     0
  9
$MENU
  1
.
  9
$ELEVATION
 40
0.0
  9
$PELEVATION
 40
0.0
  9
$THICKNESS
 40
0.0
  9
$LIMCHECK
 70
     0
  9
$BLIPMODE
 70
     0
  9
$CHAMFERA
 40
0.0
  9
$CHAMFERB
 40
0.0
  9
$SKPOLY
 70
     0
  9
$TDCREATE
 40
2458060.468368056230247
  9
$TDUPDATE
 40
2459323.9457638887688518
  9
$TDINDWG
 40
0.4084329861
  9
$TDUSRTIMER
 40
0.4084329861
  9
$USRTIMER
 70
     1
  9
$ANGBASE
 50
0.0
  9
$ANGDIR
 70
     0
  9
$PDMODE
 70
     0
  9
$PDSIZE
 40
0.3125
  9
$PLINEWID
 40
0.0
  9
$COORDS
 70
     1
  9
$SPLFRAME
 70
     0
  9
$SPLINETYPE
 70
     6
  9
$SPLINESEGS
 70
     8
  9
$ATTDIA
 70
     1
  9
$ATTREQ
 70
     1
  9
$HANDLING
 70
     1
  9
$HANDSEED
  5
E302
  9
$SURFTAB1
 70
     6
  9
$SURFTAB2
 70
     6
  9
$SURFTYPE
 70
     6
  9
$SURFU
 70
     6
  9
$SURFV
 70
     6
  9
$UCSNAME
  2

  9
$UCSORG
 10
0.0
 20
0.0
 30
0.0
  9
$UCSXDIR
 10
1.0
 20
0.0
 30
0.0
  9
$UCSYDIR
 10
0.0
 20
1.0
 30
0.0
  9
$PUCSNAME
  2

  9
$PUCSORG
 10
0.0
 20
0.0
 30
0.0
  9
$PUCSXDIR
 10
1.0
 20
0.0
 30
0.0
  9
$PUCSYDIR
 10
0.0
 20
1.0
 30
0.0
  9
$USERI1
 70
     0
  9
$USERI2
 70
     0
  9
$USERI3
 70
     0
  9
$USERI4
 70
     0
  9
$USERI5
 70
     0
  9
$USERR1
 40
0.0
  9
$USERR2
 40
0.0
  9
$USERR3
 40
0.0
  9
$USERR4
 40
0.0
  9
$USERR5
 40
0.0
  9
$WORLDVIEW
 70
     1
  9
$SHADEDGE
 70
     3
  9
$SHADEDIF
 70
    70
  9
$TILEMODE
 70
     1
  9
$MAXACTVP
 70
    64
  9
$PLIMCHECK
 70
     0
  9
$PEXTMIN
 10
1.0000000000000000E+20
 20
1.0000000000000000E+20
 30
1.0000000000000000E+20
  9
$PEXTMAX
 10
-1.0000000000000000E+20
 20
-1.0000000000000000E+20
 30
-1.0000000000000000E+20
  9
$PLIMMIN
 10
0.0
 20
0.0
  9
$PLIMMAX
 10
12.0
 20
9.0
  9
$UNITMODE
 70
     0
  9
$VISRETAIN
 70
     1
  9
$PLINEGEN
 70
     0
  9
$PSLTSCALE
 70
     1
  0
ENDSEC
  0
SECTION
  2
TABLES
  0
TABLE
  2
VPORT
 70
     1
  0
VPORT
  2
*ACTIVE
 70
     0
 10
0.0
 20
0.0
 11
1.0
 21
1.0
 12
646.4011088086316477
 22
77.216774165625182
 13
0.0
 23
0.0
 14
1.0
 24
1.0
 15
0.0
 25
0.0
 16
0.0
 26
0.0
 36
17.1152628219792007
 17
3803.5440673828129547
 27
125.9952621967499056
 37
0.0
 40
23.9217184765844308
 41
2.8789237668161429
 42
50.0
 43
0.0
 44
0.0
 50
0.0
 51
0.0
 71
     0
 72
   100
 73
     1
 74
     1
 75
     0
 76
     0
 77
     0
 78
     0
  0
ENDTAB
  0
TABLE
  2
LTYPE
 70
     2
  0
LTYPE
  2
CONTINUOUS
 70
     0
  3
Solid line
 72
    65
 73
     0
 40
0.0
  0
LTYPE
  2
PHANTOM2
 70
     0
  3
___ _ _ ___ _ _ ___ _ _ ___ _ _
 72
    65
 73
     6
 40
1.25
 49
0.625
 49
-0.125
 49
0.125
 49
-0.125
 49
0.125
 49
-0.125
  0
ENDTAB
  0
TABLE
  2
LAYER
 70
     2
  0
LAYER
  2
0
 70
     0
 62
   255
  6
CONTINUOUS
  0
LAYER
  2
DEFPOINTS
 70
     0
 62
     7
  6
CONTINUOUS
  0
ENDTAB
  0
TABLE
  2
STYLE
 70
     1
  0
STYLE
  2
STANDARD
 70
     0
 40
0.0
 41
0.8
 50
0.0
 71
     0
 42
0.2
  3
txt
  4

  0
ENDTAB
  0
TABLE
  2
VIEW
 70
     0
  0
ENDTAB
  0
TABLE
  2
UCS
 70
     0
  0
ENDTAB
  0
TABLE
  2
APPID
 70
     9
  0
APPID
  2
ACAD
 70
     0
  0
APPID
  2
ACAD_MLEADERVER
 70
     0
  0
APPID
  2
ACAD_EXEMPT_FROM_CAD_STANDARDS
 70
     0
  0
APPID
  2
ACAD_NAV_VCDISPLAY
 70
     0
  0
APPID
  2
ACAECLAYERSTANDARD
 70
     0
  0
APPID
  2
ACCMTRANSPARENCY
 70
     0
  0
APPID
  2
ACAD_DSTYLE_DIMJAG
 70
     0
  0
APPID
  2
ACAD_DSTYLE_DIMTALN
 70
     0
  0
APPID
  2
ACDBATTR
 70
     0
  0
ENDTAB
  0
TABLE
  2
DIMSTYLE
 70
     1
  0
DIMSTYLE
  2
STANDARD
 70
     0
  3

  4

  5

  6

  7

 40
1.0
 41
0.1875
 42
0.0625
 43
0.38
 44
0.125
 45
0.0
 46
0.0
 47
0.01
 48
0.01
140
0.15625
141
0.09
142
0.0
143
25.3999999999999986
144
1.0
145
0.0
146
1.0
147
0.09
 71
     1
 72
     0
 73
     1
 74
     1
 75
     0
 76
     0
 77
     0
 78
     4
170
     0
171
     2
172
     0
173
     0
174
     0
175
     0
176
     0
177
     0
178
     0
  0
ENDTAB
  0
ENDSEC
  0
SECTION
  2
BLOCKS
  0
BLOCK
  8
0
  2
$MODEL_SPACE
 70
     0
 10
0.0
 20
0.0
 30
0.0
  3
$MODEL_SPACE
  1

  0
ENDBLK
  5
21
  8
0
  0
BLOCK
 67
     1
  8
0
  2
$PAPER_SPACE
 70
     0
 10
0.0
 20
0.0
 30
0.0
  3
$PAPER_SPACE
  1

  0
ENDBLK
  5
1D
 67
     1
  8
0
  0
ENDSEC
  0
SECTION
  2
ENTITIES
  0
ATTDEF
  5
3930
  8
DEFPOINTS
 10
4449.8253980943018178
 20
215.0113034482758962
 30
0.0
 40
0.001
  1
K-33096T-4
  3

  2
MODELNUMBER
 70
     0
1001
ACDBATTR
1070
     0
1070
     1
  0
ATTDEF
  5
3931
  8
DEFPOINTS
 10
4449.8253980943018178
 20
215.0096367816092027
 30
0.0
 40
0.001
  1

  3

  2
TRADENAME
 70
     0
1001
ACDBATTR
1070
     0
1070
     1
  0
ATTDEF
  5
3932
  8
DEFPOINTS
 10
4449.8253980943018178
 20
215.0079701149425944
 30
0.0
 40
0.001
  1
BATH AND SHOWER FAUCET
  3

  2
PRODUCT
 70
     0
1001
ACDBATTR
1070
     0
1070
     1
  0
LINE
  5
E0D6
  8
0
 10
4448.1594607172955875
 20
215.0135836381278125
 30
0.0
 11
4445.6004355203958767
 21
215.0135836381278125
 31
0.0
  0
LINE
  5
E0D7
  8
0
 10
4448.1791607172963268
 20
214.8718755493271999
 30
0.0
 11
4448.1791607172963268
 21
214.9938836381278975
 31
0.0
  0
LINE
  5
E0D8
  8
0
 10
4445.5807355203960469
 20
214.8718755493271999
 30
0.0
 11
4445.5807355203960469
 21
214.9938836381278975
 31
0.0
  0
LINE
  5
E0D9
  8
0
 10
4446.262912905453959
 20
214.2428656170164913
 30
0.0
 11
4445.656411775912602
 21
214.7167162319356919
 31
0.0
  0
LINE
  5
E0DA
  8
0
 10
4447.4969833322384147
 20
214.2428656170164913
 30
0.0
 11
4448.1034844617788622
 21
214.7167162319356919
 31
0.0
  0
LINE
  5
E0DB
  8
0
 10
4447.4485307741342694
 20
214.2261820633279115
 30
0.0
 11
4446.3113654635590137
 21
214.2261820633279115
 31
0.0
  0
ARC
  5
E0DC
  8
0
 10
4447.4485307741342694
 20
214.3048820633277955
 30
0.0
 40
0.0787
 50
270.0
 51
307.9999999969982127
  0
ARC
  5
E0DD
  8
0
 10
4446.3113654635590137
 20
214.3048820633277955
 30
0.0
 40
0.0787
 50
232.0000000030017873
 51
270.0
  0
ARC
  5
E0DE
  8
0
 10
4445.7776355203959611
 20
214.8718755493271999
 30
0.0
 40
0.1969
 50
180.0
 51
232.0000000030017873
  0
ARC
  5
E0DF
  8
0
 10
4447.9822607172964126
 20
214.8718755493271999
 30
0.0
 40
0.1969
 50
307.9999999969982127
 51
359.9999999999869829
  0
ARC
  5
E0E0
  8
0
 10
4448.1594607172955875
 20
214.9938836381278975
 30
0.0
 40
0.0197
 50
359.9999999999544116
 51
90.0
  0
ARC
  5
E0E1
  8
0
 10
4445.6004355203958767
 20
214.9938836381278975
 30
0.0
 40
0.0197
 50
90.0
 51
180.0000000000194973
  0
LINE
  5
E0E2
  8
0
 10
4446.3090819770814051
 20
213.6198828508277927
 30
0.0
 11
4447.4508142605809553
 21
213.6198828508277927
 31
0.0
  0
LINE
  5
E0E3
  8
0
 10
4446.2697118983824112
 20
213.6592529295278098
 30
0.0
 11
4446.3090819770814051
 21
213.6198828508277927
 31
0.0
  0
LINE
  5
E0E4
  8
0
 10
4446.2697118983824112
 20
213.6592529295278098
 30
0.0
 11
4446.2697118983824112
 21
214.1316938743277092
 31
0.0
  0
LINE
  5
E0E5
  8
0
 10
4447.4901843392799492
 20
213.6592529295278098
 30
0.0
 11
4447.4901843392799492
 21
214.1316938743277092
 31
0.0
  0
LINE
  5
E0E6
  8
0
 10
4447.4901843392799492
 20
213.6592529295278098
 30
0.0
 11
4447.4508142605809553
 21
213.6198828508277927
 31
0.0
  0
LINE
  5
E0E7
  8
0
 10
4447.3945150479967197
 20
214.1710639531277991
 30
0.0
 11
4447.3945150479967197
 21
214.2261820633277978
 31
0.0
  0
LINE
  5
E0E8
  8
0
 10
4446.3090819770814051
 20
214.1710639531277991
 30
0.0
 11
4447.4508142605809553
 21
214.1710639531277991
 31
0.0
  0
LINE
  5
E0E9
  8
0
 10
4447.4508142605809553
 20
214.1710639531277991
 30
0.0
 11
4447.4901843392799492
 21
214.1316938743277092
 31
0.0
  0
LINE
  5
E0EA
  8
0
 10
4446.2697118983824112
 20
214.1316938743277092
 30
0.0
 11
4446.3090819770814051
 21
214.1710639531277991
 31
0.0
  0
LINE
  5
E0EB
  8
0
 10
4446.365381189695654
 20
214.2261820633279115
 30
0.0
 11
4446.365381189695654
 21
214.1710639531277991
 31
0.0
  0
LINE
  5
E0EC
  8
0
 10
4451.0698206057959396
 20
215.0135836381278125
 30
0.0
 11
4448.5895056451963683
 21
215.0135836381278125
 31
0.0
  0
LINE
  5
E0ED
  8
0
 10
4451.0403202974966916
 20
214.6198828507278051
 30
0.0
 11
4448.6190059534947068
 21
214.6198828507278051
 31
0.0
  0
LINE
  5
E0EE
  8
0
 10
4451.0600135468002918
 20
214.6390671648460966
 30
0.0
 11
4451.0698206057959396
 21
215.0135836381278125
 31
0.0
  0
LINE
  5
E0EF
  8
0
 10
4448.5993127041920161
 20
214.6390671648460966
 30
0.0
 11
4448.5895056451963683
 21
215.0135836381278125
 31
0.0
  0
LINE
  5
E0F0
  8
0
 10
4450.3217891096956009
 20
212.9269694648278062
 30
0.0
 11
4450.3217891096956009
 21
214.6198828507278051
 31
0.0
  0
LINE
  5
E0F1
  8
0
 10
4449.3375378130949684
 20
212.9269694648278062
 30
0.0
 11
4449.3375371564670786
 21
214.6198828507278051
 31
0.0
  0
LINE
  5
E0F2
  8
0
 10
4449.3375376832964321
 20
213.2616151341279078
 30
0.0
 11
4450.3217891096956009
 21
213.2616151341279078
 31
0.0
  0
ARC
  5
E0F3
  8
0
 10
4451.0403202974966916
 20
214.6395828507278054
 30
0.0
 40
0.0197
 50
270.0
 51
358.4999999998149178
  0
ARC
  5
E0F4
  8
0
 10
4448.6190059534947068
 20
214.6395828507278054
 30
0.0
 40
0.0197
 50
181.5000000001915907
 51
270.0
  0
LINE
  5
E0F5
  8
0
 10
4449.4359623380951234
 20
212.1592529294277938
 30
0.0
 11
4449.4359623380951234
 21
196.4112214333277961
 31
0.0
  0
LINE
  5
E0F6
  8
0
 10
4450.223363912896275
 20
212.1592529294277938
 30
0.0
 11
4450.223363912896275
 21
196.4112214333277961
 31
0.0
  0
ARC
  5
E0F7
  8
0
 10
4449.829663125496154
 20
212.1592529294277938
 30
0.0
 40
0.3937007874
 50
0.0
 51
180.0
  0
LINE
  5
E0F8
  8
0
 10
4449.5147024954958397
 20
212.7501843796109995
 30
0.0
 11
4449.5147024954958397
 21
213.2616151341279078
 31
0.0
  0
LINE
  5
E0F9
  8
0
 10
4450.1446237553964238
 20
212.750184592784592
 30
0.0
 11
4450.1446237553964238
 21
213.2616151341279078
 31
0.0
  0
ARC
  5
E0FA
  8
0
 10
4449.829663125496154
 20
212.1592529294277938
 30
0.0
 40
0.6496062992000005
 50
307.3052009664606885
 51
232.6947990335393968
  0
ARC
  5
E0FB
  8
0
 10
4450.1840699739877891
 20
212.7501659822607962
 30
0.0
 40
0.0394462229854254
 50
179.9729681466965872
 51
237.9307856444252991
  0
ARC
  5
E0FC
  8
0
 10
4449.475256276802611
 20
212.7501659822607962
 30
0.0
 40
0.0394462229854254
 50
302.0692071341812266
 51
0.0267222177490295
  0
ARC
  5
E0FD
  8
0
 10
4449.829663125496154
 20
212.1592529294277938
 30
0.0
 40
0.4330708660999977
 50
335.3800226828889208
 51
204.6199773171111929
  0
LINE
  5
E0FE
  8
0
 10
4449.4359623380951234
 20
212.1198828494489987
 30
0.0
 11
4449.3983855211899936
 21
212.1198828494489987
 31
0.0
  0
LINE
  5
E0FF
  8
0
 10
4449.4379357880279713
 20
212.1986230065234906
 30
0.0
 11
4449.3983855211799892
 21
212.1986230065234906
 31
0.0
  0
ARC
  5
E100
  8
0
 10
4449.8296631254970634
 20
212.1592529280414965
 30
0.0
 40
0.401574881201844
 50
174.3737301879999109
 51
185.6262698278536902
  0
ARC
  5
E101
  8
0
 10
4449.829663125496154
 20
212.1592529280414965
 30
0.0
 40
0.4212598575998363
 50
174.6374286098291861
 51
185.3625714052832052
  0
ARC
  5
E102
  8
0
 10
4449.829663125496154
 20
196.4112214333277961
 30
0.0
 40
0.3937007874000002
 50
180.0
 51
0.0
  0
ARC
  5
E103
  8
0
 10
4449.8297373354698721
 20
196.4109581656771866
 30
0.0
 40
0.413536655581974
 50
162.2156851426686046
 51
17.8515179710726599
  0
ARC
  5
E104
  8
0
 10
4449.829663125496154
 20
196.4247588700795006
 30
0.0
 40
0.4879454727516622
 50
143.7896938721611946
 51
36.2103061278388196
  0
ARC
  5
E105
  8
0
 10
4449.2391119432359119
 20
212.3784562509310945
 30
0.0
 40
0.0196850382399001
 50
159.6336891836523932
 51
180.0000003007866098
  0
ARC
  5
E106
  8
0
 10
4449.2391119443964271
 20
211.9400496080276923
 30
0.0
 40
0.0196850393998762
 50
179.9999999999153033
 51
200.3610441532740936
  0
LINE
  5
E107
  8
0
 10
4449.2194269049959985
 20
212.3784562508276963
 30
0.0
 11
4449.2194269049959985
 21
211.940049608027806
 31
0.0
  0
LINE
  5
E108
  8
0
 10
4450.4398993459972189
 20
212.3784562508276963
 30
0.0
 11
4450.4398993459972189
 21
211.940049608027806
 31
0.0
  0
ARC
  5
E109
  8
0
 10
4450.4202143086768046
 20
211.9400496078424112
 30
0.0
 40
0.0196850373190435
 50
339.6379424026299034
 51
0.0000140659130055
  0
ARC
  5
E10A
  8
0
 10
4450.4202143073107436
 20
212.3784562508915883
 30
0.0
 40
0.0196850386842164
 50
359.9999998144029973
 51
20.3610447041058293
  0
ARC
  5
E10B
  8
0
 10
4446.3855635379322848
 20
213.7872056856485017
 30
0.0
 40
0.16732283482083
 50
229.8808331448234981
 51
310.1191668551765019
  0
ARC
  5
E10C
  8
0
 10
4446.8799481188316349
 20
214.2301190720610862
 30
0.0
 40
0.6102362212333003
 50
249.3064587925348121
 51
290.6935412074652163
  0
ARC
  5
E10D
  8
0
 10
4447.3743326997318945
 20
213.7872056856485017
 30
0.0
 40
0.1673228348208017
 50
229.8808331448171884
 51
310.1191668551828116
  0
ARC
  5
E10E
  8
0
 10
4446.3855635379322848
 20
214.0037411182067899
 30
0.0
 40
0.16732283482083
 50
49.8808331448234767
 51
130.1191668551765019
  0
ARC
  5
E10F
  8
0
 10
4446.8799481188316349
 20
213.5608277317944044
 30
0.0
 40
0.6102362212333003
 50
69.3064587925348405
 51
110.6935412074652021
  0
ARC
  5
E110
  8
0
 10
4447.3743326997318945
 20
214.0037411182069889
 30
0.0
 40
0.1673228348208017
 50
49.8808331448171813
 51
130.1191668551828116
  0
LINE
  5
E111
  8
0
 10
4446.26971189833057
 20
214.1316938742778859
 30
0.0
 11
4446.2777441368307336
 21
214.1316938743277092
 31
0.0
  0
LINE
  5
E112
  8
0
 10
4446.2777441368307336
 20
214.1316938743277092
 30
0.0
 11
4446.2777441368307336
 21
213.6592529295278098
 31
0.0
  0
LINE
  5
E113
  8
0
 10
4446.2777441368307336
 20
213.6592529295278098
 30
0.0
 11
4446.2697118983824112
 21
213.6592529295278098
 31
0.0
  0
LINE
  5
E114
  8
0
 10
4446.493382939030198
 20
213.6592529295278098
 30
0.0
 11
4446.493382939030198
 21
214.1316938743277092
 31
0.0
  0
LINE
  5
E115
  8
0
 10
4446.493382939030198
 20
214.1316938743277092
 30
0.0
 11
4446.664309316631261
 21
214.1316938743277092
 31
0.0
  0
LINE
  5
E116
  8
0
 10
4446.664309316631261
 20
214.1316938743277092
 30
0.0
 11
4446.664309316631261
 21
213.6592529295278098
 31
0.0
  0
LINE
  5
E117
  8
0
 10
4446.664309316631261
 20
213.6592529295278098
 30
0.0
 11
4446.493382939030198
 21
213.6592529295278098
 31
0.0
  0
LINE
  5
E118
  8
0
 10
4447.0955869210310993
 20
213.6592529295278098
 30
0.0
 11
4447.2665132986312528
 21
213.6592529295278098
 31
0.0
  0
LINE
  5
E119
  8
0
 10
4447.2665132986312528
 20
213.6592529295278098
 30
0.0
 11
4447.2665132986312528
 21
214.1316938743277092
 31
0.0
  0
LINE
  5
E11A
  8
0
 10
4447.2665132986312528
 20
214.1316938743277092
 30
0.0
 11
4447.0955869210310993
 21
214.1316938743277092
 31
0.0
  0
LINE
  5
E11B
  8
0
 10
4447.0955869210310993
 20
214.1316938743277092
 30
0.0
 11
4447.0955869210310993
 21
213.6592529295278098
 31
0.0
  0
LINE
  5
E11C
  8
0
 10
4445.656411775919878
 20
214.716716231969599
 30
0.0
 11
4448.1034844617788622
 21
214.7167162319356919
 31
0.0
  0
ARC
  5
E11D
  8
0
 10
4449.829663125496154
 20
196.4112214333277961
 30
0.0
 40
4.9997203197000033
 50
94.5164067818196969
 51
85.4835932181803031
  0
ARC
  5
E11E
  8
0
 10
4449.829663125496154
 20
196.4112214333277961
 30
0.0
 40
4.9409448819000001
 50
94.5702456483213041
 51
85.429754351678838
  0
ARC
  5
E11F
  8
0
 10
4449.829663125496154
 20
196.4112214333277961
 30
0.0
 40
4.9485883382999978
 50
94.5631715952603997
 51
85.4368284047394582
  0
ARC
  5
E120
  8
0
 10
4449.829663125496154
 20
196.4112214333277961
 30
0.0
 40
0.7480314949999965
 50
121.7568639095339051
 51
58.2431360904661233
  0
ARC
  5
E121
  8
0
 10
4449.829663125496154
 20
196.4112214333277961
 30
0.0
 40
0.7874015747999934
 50
120.0000000000004974
 51
59.99999999999946
  0
ARC
  5
E122
  8
0
 10
4449.829663125496154
 20
196.4112214333277961
 30
0.0
 40
0.8070866142000028
 50
119.1964044084616035
 51
60.8035955915384179
  0
LINE
  5
E123
  8
0
 10
4447.4821521008307172
 20
214.1316938743277092
 30
0.0
 11
4447.4821521008307172
 21
213.6592529295278098
 31
0.0
  0
LINE
  5
E124
  8
0
 10
4447.4821521008307172
 20
213.6592529295278098
 30
0.0
 11
4447.4901843392799492
 21
213.6592529295278098
 31
0.0
  0
LINE
  5
E125
  8
0
 10
4447.4821521008307172
 20
214.1316938743277092
 30
0.0
 11
4447.4901843392799492
 21
214.1316938743277092
 31
0.0
  0
LINE
  5
E126
  8
0
 10
4446.4586882765988776
 20
213.5883867878276874
 30
0.0
 11
4446.4586882765988776
 21
213.5017726144488961
 31
0.0
  0
LINE
  5
E127
  8
0
 10
4446.4712867017988174
 20
213.6198828508277927
 30
0.0
 11
4446.4586882765988776
 21
213.5883867878276874
 31
0.0
  0
LINE
  5
E128
  8
0
 10
4447.3012079616992196
 20
213.5883867878278011
 30
0.0
 11
4447.3012079616992196
 21
213.5017726144488961
 31
0.0
  0
LINE
  5
E129
  8
0
 10
4447.2886095364983703
 20
213.6198828508277927
 30
0.0
 11
4447.3012079616992196
 21
213.5883867878278011
 31
0.0
  0
LINE
  5
E12A
  8
0
 10
4447.3012079616992196
 20
213.5883867878278011
 30
0.0
 11
4446.4586882765988776
 21
213.5883867878278011
 31
0.0
  0
LINE
  5
E12B
  8
0
 10
4446.8912756438803626
 20
211.397893340706986
 30
0.0
 11
4447.5125422336341217
 21
211.391536457027712
 31
0.0
  0
LINE
  5
E12C
  8
0
 10
4447.5581275645299684
 20
211.391536457027712
 30
0.0
 11
4449.4359623380951234
 21
211.391536457027712
 31
0.0
  0
LINE
  5
E12D
  8
0
 10
4450.223363912896275
 20
211.391536457027712
 30
0.0
 11
4450.6489741703098844
 21
211.391536457027712
 31
0.0
  0
LINE
  5
E12E
  8
0
 10
4447.5581273451480229
 20
212.9269694648278062
 30
0.0
 11
4449.5147024954958397
 21
212.9269694648278062
 31
0.0
  0
LINE
  5
E12F
  8
0
 10
4450.1446237553964238
 20
212.9269694648278062
 30
0.0
 11
4451.7112371684643222
 21
212.9269694648278062
 31
0.0
  0
LINE
  5
E130
  8
0
 10
4451.7545222078642837
 20
212.9269694648278062
 30
0.0
 11
4453.2923346144361858
 21
212.9269694648278062
 31
0.0
  0
LINE
  5
E131
  8
0
 10
4447.5125422337687269
 20
212.9269694648278062
 30
0.0
 11
4446.8913279650232653
 21
212.9206129464189132
 31
0.0
  0
ARC
  5
E132
  8
0
 10
4471.7421666358677612
 20
212.1583620956218112
 30
0.0
 40
24.8931496877445397
 50
178.3163496936485046
 51
181.6795414962755046
  0
ARC
  5
E133
  8
0
 10
4446.891497650655765
 20
211.4296925657446025
 30
0.0
 40
0.0318
 50
181.6795414962624875
 51
269.5999951397261043
  0
ARC
  5
E134
  8
0
 10
4446.8915499690965589
 20
212.8888137213623963
 30
0.0
 40
0.0318
 50
90.3999999946252473
 51
178.3163496936485046
  0
LINE
  5
E135
  8
0
 10
4451.7230371684654529
 20
212.3918658095890066
 30
0.0
 11
4451.7230371684654529
 21
212.9151694648278124
 31
0.0
  0
LINE
  5
E136
  8
0
 10
4451.7427222078640625
 20
212.3972247778376072
 30
0.0
 11
4451.7427222078640625
 21
212.9151694648278124
 31
0.0
  0
LINE
  5
E137
  8
0
 10
4451.734848192064419
 20
212.3950965370493122
 30
0.0
 11
4451.734848192064419
 21
212.848158833288295
 31
0.0
  0
ARC
  5
E138
  8
0
 10
4451.7466591255315507
 20
212.8481629570329119
 30
0.0
 40
0.0118109341865477
 50
109.4709098857551055
 51
180.0200046127525866
  0
ARC
  5
E139
  8
0
 10
4451.71894886584505
 20
212.8240991398567985
 30
0.0
 40
0.0160379738072938
 50
7.5393239777650241
 51
75.2315159948461343
  0
ARC
  5
E13A
  8
0
 10
4451.7545222078642837
 20
212.9151694648278124
 30
0.0
 40
0.0118
 50
90.0
 51
179.999999999980389
  0
ARC
  5
E13B
  8
0
 10
4451.7112371684643222
 20
212.9151694648278124
 30
0.0
 40
0.0118
 50
0.0000000000130276
 51
90.0
  0
ARC
  5
E13C
  8
0
 10
4446.5929438611574369
 20
212.159252821589007
 30
0.0
 40
1.2204731066376151
 50
321.7893082348790017
 51
38.2107083081410224
  0
ARC
  5
E13D
  8
0
 10
4447.5581273451480229
 20
212.9190694648277997
 30
0.0
 40
0.0079
 50
90.0
 51
218.2107083081398002
  0
ARC
  5
E13E
  8
0
 10
4447.5581275645299684
 20
211.3994364570278037
 30
0.0
 40
0.0079
 50
141.7893082348325891
 51
270.0
  0
ARC
  5
E13F
  8
0
 10
4446.5929414874708527
 20
212.159252961009912
 30
0.0
 40
1.200790041900768
 50
320.4349136969213987
 51
39.5650862928511415
  0
ARC
  5
E140
  8
0
 10
4447.5125422336341217
 20
211.3994364570278037
 30
0.0
 40
0.0079
 50
270.0
 51
320.4349136969697156
  0
ARC
  5
E141
  8
0
 10
4447.5125422337687269
 20
212.9190694648279134
 30
0.0
 40
0.0079
 50
39.5650862927689886
 51
90.0000000000521254
  0
LINE
  5
E142
  8
0
 10
4447.7886608108919972
 20
212.0490167404277884
 30
0.0
 11
4447.8084283778980534
 21
212.0490167404277884
 31
0.0
  0
LINE
  5
E143
  8
0
 10
4447.7886608109056397
 20
212.2694891814277867
 30
0.0
 11
4447.8084283526241052
 21
212.2694891814277867
 31
0.0
  0
ARC
  5
E144
  8
0
 10
4421.3702735083388689
 20
212.1592425569519094
 30
0.0
 40
26.4317107104087796
 50
359.8055551878509846
 51
0.1944891396465817
  0
ARC
  5
E145
  8
0
 10
4447.825613673800035
 20
212.2490449150600114
 30
0.0
 40
0.0237818711661552
 50
148.5241283900330131
 51
180.1944891396400124
  0
ARC
  5
E146
  8
0
 10
4447.8271288818850735
 20
212.0698859868645911
 30
0.0
 40
0.0252992200003887
 50
180.7804758927746036
 51
210.5115182531685889
  0
LINE
  5
E147
  8
0
 10
4447.8053329179456341
 20
212.0570412802277929
 30
0.0
 11
4447.8091294575360735
 21
212.0570412802277929
 31
0.0
  0
LINE
  5
E148
  8
0
 10
4447.8053310642253564
 20
212.2614623683026025
 30
0.0
 11
4447.8091296251686799
 21
212.2614623683026025
 31
0.0
  0
LINE
  5
E149
  8
0
 10
4447.5502273451465953
 20
212.9190694648277997
 30
0.0
 11
4447.5502273451465953
 21
212.8841671017333965
 31
0.0
  0
LINE
  5
E14A
  8
0
 10
4447.5502275645294503
 20
211.3994364570278037
 30
0.0
 11
4447.5502275645294503
 21
211.4343391099912139
 31
0.0
  0
LINE
  5
E14B
  8
0
 10
4450.2824190313631334
 20
213.2616151341279078
 30
0.0
 11
4450.2824190313631334
 21
212.9269694648278062
 31
0.0
  0
LINE
  5
E14C
  8
0
 10
4449.3769072203640462
 20
213.2616151341279078
 30
0.0
 11
4449.3769072203640462
 21
212.9269694648278062
 31
0.0
  0
ARC
  5
E14D
  8
0
 10
4449.7513389720779742
 20
212.4264859986276974
 30
0.0
 40
0.9613361033639547
 50
31.3733369691091504
 51
53.601840976855982
  0
ARC
  5
E14E
  8
0
 10
4449.900246551717828
 20
212.4337169422468889
 30
0.0
 40
0.9514211083361132
 50
126.2592874244199947
 51
148.7724896879693972
  0
LINE
  5
E14F
  8
0
 10
4451.4998655336967204
 20
215.0135836381278125
 30
0.0
 11
4454.0588907305964312
 21
215.0135836381278125
 31
0.0
  0
LINE
  5
E150
  8
0
 10
4451.4801655336959811
 20
214.8718755493271999
 30
0.0
 11
4451.4801655336959811
 21
214.9938836381278975
 31
0.0
  0
LINE
  5
E151
  8
0
 10
4454.078590730596261
 20
214.8718755493271999
 30
0.0
 11
4454.078590730596261
 21
214.9938836381278975
 31
0.0
  0
LINE
  5
E152
  8
0
 10
4453.3964133455383489
 20
214.2428656170164913
 30
0.0
 11
4454.0029144750787964
 21
214.7167162319356919
 31
0.0
  0
LINE
  5
E153
  8
0
 10
4452.1623429187538932
 20
214.2428656170164913
 30
0.0
 11
4451.5558417892116267
 21
214.7167162319356919
 31
0.0
  0
LINE
  5
E154
  8
0
 10
4452.2107954768589479
 20
214.2261820633279115
 30
0.0
 11
4453.3479607874342037
 21
214.2261820633279115
 31
0.0
  0
ARC
  5
E155
  8
0
 10
4452.2107954768589479
 20
214.3048820633277955
 30
0.0
 40
0.0787
 50
232.0000000030017873
 51
270.0
  0
ARC
  5
E156
  8
0
 10
4453.3479607874342037
 20
214.3048820633277955
 30
0.0
 40
0.0787
 50
270.0
 51
307.9999999969982127
  0
ARC
  5
E157
  8
0
 10
4453.8816907305963468
 20
214.8718755493271999
 30
0.0
 40
0.1969
 50
307.9999999969982127
 51
359.9999999999935199
  0
ARC
  5
E158
  8
0
 10
4451.6770655336958953
 20
214.8718755493271999
 30
0.0
 40
0.1969
 50
180.0000000000065086
 51
232.0000000030017873
  0
ARC
  5
E159
  8
0
 10
4451.4998655336967204
 20
214.9938836381278975
 30
0.0
 40
0.0197
 50
90.0
 51
180.0000000000391083
  0
ARC
  5
E15A
  8
0
 10
4454.0588907305964312
 20
214.9938836381278975
 30
0.0
 40
0.0197
 50
359.9999999999805027
 51
90.0
  0
LINE
  5
E15B
  8
0
 10
4453.350244273881799
 20
213.6198828508277927
 30
0.0
 11
4452.2085119903813393
 21
213.6198828508277927
 31
0.0
  0
LINE
  5
E15C
  8
0
 10
4453.3896143525807929
 20
213.6592529295278098
 30
0.0
 11
4453.350244273881799
 21
213.6198828508277927
 31
0.0
  0
LINE
  5
E15D
  8
0
 10
4453.3896143525807929
 20
213.6592529295278098
 30
0.0
 11
4453.3896143525807929
 21
214.1316938743277092
 31
0.0
  0
LINE
  5
E15E
  8
0
 10
4452.1691419116814359
 20
213.6592529295278098
 30
0.0
 11
4452.1691419116814359
 21
214.1316938743277092
 31
0.0
  0
LINE
  5
E15F
  8
0
 10
4452.1691419116814359
 20
213.6592529295278098
 30
0.0
 11
4452.2085119903813393
 21
213.6198828508277927
 31
0.0
  0
LINE
  5
E160
  8
0
 10
4452.2648112029955882
 20
214.1710639531277991
 30
0.0
 11
4452.2648112029955882
 21
214.2261820633277978
 31
0.0
  0
LINE
  5
E161
  8
0
 10
4453.350244273881799
 20
214.1710639531277991
 30
0.0
 11
4452.2085119903813393
 21
214.1710639531277991
 31
0.0
  0
LINE
  5
E162
  8
0
 10
4452.2085119903813393
 20
214.1710639531277991
 30
0.0
 11
4452.1691419116814359
 21
214.1316938743277092
 31
0.0
  0
LINE
  5
E163
  8
0
 10
4453.3896143525807929
 20
214.1316938743277092
 30
0.0
 11
4453.350244273881799
 21
214.1710639531277991
 31
0.0
  0
LINE
  5
E164
  8
0
 10
4453.2939450612957444
 20
214.2261820633279115
 30
0.0
 11
4453.2939450612957444
 21
214.1710639531277991
 31
0.0
  0
ARC
  5
E165
  8
0
 10
4453.2737627130300098
 20
213.7872056856485017
 30
0.0
 40
0.16732283482083
 50
229.8808331448234981
 51
310.1191668551765019
  0
ARC
  5
E166
  8
0
 10
4452.7793781321306597
 20
214.2301190720610862
 30
0.0
 40
0.6102362212333003
 50
249.3064587925348121
 51
290.6935412074652163
  0
ARC
  5
E167
  8
0
 10
4452.2849935512313095
 20
213.7872056856485017
 30
0.0
 40
0.1673228348208017
 50
229.8808331448171884
 51
310.1191668551828116
  0
ARC
  5
E168
  8
0
 10
4453.2737627130300098
 20
214.0037411182067899
 30
0.0
 40
0.16732283482083
 50
49.8808331448234767
 51
130.1191668551765019
  0
ARC
  5
E169
  8
0
 10
4452.7793781321306597
 20
213.5608277317944044
 30
0.0
 40
0.6102362212333003
 50
69.3064587925348405
 51
110.6935412074652021
  0
ARC
  5
E16A
  8
0
 10
4452.2849935512313095
 20
214.0037411182069889
 30
0.0
 40
0.1673228348208017
 50
49.8808331448171813
 51
130.1191668551828116
  0
LINE
  5
E16B
  8
0
 10
4453.3896143526317246
 20
214.1316938742778859
 30
0.0
 11
4453.381582114131561
 21
214.1316938743277092
 31
0.0
  0
LINE
  5
E16C
  8
0
 10
4453.381582114131561
 20
214.1316938743277092
 30
0.0
 11
4453.381582114131561
 21
213.6592529295278098
 31
0.0
  0
LINE
  5
E16D
  8
0
 10
4453.381582114131561
 20
213.6592529295278098
 30
0.0
 11
4453.3896143525807929
 21
213.6592529295278098
 31
0.0
  0
LINE
  5
E16E
  8
0
 10
4453.1659433119311871
 20
213.6592529295278098
 30
0.0
 11
4453.1659433119311871
 21
214.1316938743277092
 31
0.0
  0
LINE
  5
E16F
  8
0
 10
4453.1659433119311871
 20
214.1316938743277092
 30
0.0
 11
4452.9950169343301241
 21
214.1316938743277092
 31
0.0
  0
LINE
  5
E170
  8
0
 10
4452.9950169343301241
 20
214.1316938743277092
 30
0.0
 11
4452.9950169343301241
 21
213.6592529295278098
 31
0.0
  0
LINE
  5
E171
  8
0
 10
4452.9950169343301241
 20
213.6592529295278098
 30
0.0
 11
4453.1659433119311871
 21
213.6592529295278098
 31
0.0
  0
LINE
  5
E172
  8
0
 10
4452.5637393299311952
 20
213.6592529295278098
 30
0.0
 11
4452.3928129523310417
 21
213.6592529295278098
 31
0.0
  0
LINE
  5
E173
  8
0
 10
4452.3928129523310417
 20
213.6592529295278098
 30
0.0
 11
4452.3928129523310417
 21
214.1316938743277092
 31
0.0
  0
LINE
  5
E174
  8
0
 10
4452.3928129523310417
 20
214.1316938743277092
 30
0.0
 11
4452.5637393299311952
 21
214.1316938743277092
 31
0.0
  0
LINE
  5
E175
  8
0
 10
4452.5637393299311952
 20
214.1316938743277092
 30
0.0
 11
4452.5637393299311952
 21
213.6592529295278098
 31
0.0
  0
LINE
  5
E176
  8
0
 10
4454.0029144750733394
 20
214.716716231969599
 30
0.0
 11
4451.5558417892116267
 21
214.7167162319356919
 31
0.0
  0
LINE
  5
E177
  8
0
 10
4452.1771741501315773
 20
214.1316938743277092
 30
0.0
 11
4452.1771741501315773
 21
213.6592529295278098
 31
0.0
  0
LINE
  5
E178
  8
0
 10
4452.1771741501315773
 20
213.6592529295278098
 30
0.0
 11
4452.1691419116814359
 21
213.6592529295278098
 31
0.0
  0
LINE
  5
E179
  8
0
 10
4452.1771741501315773
 20
214.1316938743277092
 30
0.0
 11
4452.1691419116814359
 21
214.1316938743277092
 31
0.0
  0
LINE
  5
E17A
  8
0
 10
4453.200637974363417
 20
213.5883867878276874
 30
0.0
 11
4453.200637974363417
 21
213.5017726145277948
 31
0.0
  0
LINE
  5
E17B
  8
0
 10
4453.1880395491625677
 20
213.6198828508277927
 30
0.0
 11
4453.200637974363417
 21
213.5883867878276874
 31
0.0
  0
LINE
  5
E17C
  8
0
 10
4452.358118289263075
 20
213.5883867878278011
 30
0.0
 11
4452.358118289263075
 21
213.5017726145277948
 31
0.0
  0
LINE
  5
E17D
  8
0
 10
4452.3707167144630148
 20
213.6198828508277927
 30
0.0
 11
4452.358118289263075
 21
213.5883867878278011
 31
0.0
  0
LINE
  5
E17E
  8
0
 10
4452.358118289263075
 20
213.5883867878278011
 30
0.0
 11
4453.200637974363417
 21
213.5883867878278011
 31
0.0
  0
ARC
  5
E17F
  8
0
 10
4453.2923346144361858
 20
212.8993694648277994
 30
0.0
 40
0.0276
 50
1.776788370221247
 51
90.0
  0
LINE
  5
E180
  8
0
 10
4453.1744736171413024
 20
212.5114332807278004
 30
0.0
 11
4453.2922089219637201
 21
212.5114332807278004
 31
0.0
  0
ARC
  5
E181
  8
0
 10
4453.2923766003623314
 20
212.5392131115432903
 30
0.0
 40
0.0279919719553442
 50
270.2624979645801773
 51
355.564471404887513
  0
ARC
  5
E182
  8
0
 10
4451.5357379014103572
 20
212.7168513376321073
 30
0.0
 40
1.7935820419846931
 50
354.2465472367932762
 51
5.8681120053479621
  0
LINE
  5
E184
  8
0
 10
4454.9650878519805701
 20
211.5486344560256953
 30
0.0
 11
4454.9706372023956646
 21
210.7553666330969975
 31
0.0
  0
ARC
  5
E185
  8
0
 10
4452.9924131556090288
 20
209.1491444051812039
 30
0.0
 40
3.365378591641317
 50
73.059570814843525
 51
86.8686894785264769
  0
ARC
  5
E186
  8
0
 10
4453.514218328795323
 20
210.5163260449145923
 30
0.0
 40
1.908143397306217
 50
50.0492067585227929
 51
76.0876234205800728
  0
ARC
  5
E187
  8
0
 10
4454.3385354055781136
 20
211.4946248445515948
 30
0.0
 40
0.6288759863647224
 50
4.926789482516722
 51
50.3884812342498165
  0
ARC
  5
E188
  8
0
 10
4453.4327224123171618
 20
211.919964927312094
 30
0.0
 40
2.046018242376149
 50
281.0670476314746224
 51
310.2557967986401195
  0
ARC
  5
E189
  8
0
 10
4454.3369183567037908
 20
210.8428399360342951
 30
0.0
 40
0.6397274060971156
 50
310.7920049433726035
 51
352.141025563793221
  0
ARC
  5
E18A
  8
0
 10
4453.1984217656372493
 20
213.2759125474136965
 30
0.0
 40
2.684500414906271
 50
278.2382305410868071
 51
300.9755559743812228
  0
ARC
  5
E18B
  8
0
 10
4454.1724045758628563
 20
211.6637628998182947
 30
0.0
 40
0.8010002089941187
 50
300.5927710111066062
 51
351.7362073597902281
  0
LINE
  5
E18C
  8
0
 10
4450.6500733300508728
 20
211.5486344560256953
 30
0.0
 11
4450.6445231115530987
 21
210.7553666330969975
 31
0.0
  0
ARC
  5
E18D
  8
0
 10
4452.618741262281219
 20
209.1405196715282955
 30
0.0
 40
3.37246757333001
 50
93.3475167439004423
 51
106.8326159483216031
  0
ARC
  5
E18E
  8
0
 10
4452.1009428532370293
 20
210.5163260449145923
 30
0.0
 40
1.908143397306217
 50
103.9123765794202967
 51
129.9507932414771858
  0
ARC
  5
E18F
  8
0
 10
4451.2766257764560578
 20
211.4946248445515948
 30
0.0
 40
0.6288759863647224
 50
129.6115187657501906
 51
175.0732105174832896
  0
ARC
  5
E190
  8
0
 10
4452.1824387697170096
 20
211.919964927312094
 30
0.0
 40
2.046018242376149
 50
229.7442032013588005
 51
258.9329523685253776
  0
ARC
  5
E191
  8
0
 10
4451.2782481093117894
 20
210.8428441952169123
 30
0.0
 40
0.6397340827717264
 50
187.8592769738702941
 51
229.2078859843396117
  0
ARC
  5
E192
  8
0
 10
4452.4167394163960125
 20
213.2759125474136965
 30
0.0
 40
2.684500414906271
 50
239.0244440256188057
 51
261.7617694589131929
  0
ARC
  5
E193
  8
0
 10
4451.4427566061704056
 20
211.6637628998182947
 30
0.0
 40
0.8010002089941187
 50
188.2637926402096866
 51
239.4072289888933085
  0
ARC
  5
E194
  8
0
 10
4452.8075805910166309
 20
215.1316101716448941
 30
0.0
 40
4.578648809753151
 50
260.2486092431865927
 51
279.7513907568131231
  0
ARC
  5
E195
  8
0
 10
4452.8075805910166309
 20
214.3080243796752882
 30
0.0
 40
4.512334915559574
 50
256.9630395638617983
 51
283.036960436138088
  0
ARC
  5
E196
  8
0
 10
4452.8052574922821805
 20
212.171602499339798
 30
0.0
 40
0.5018022586984385
 50
42.3272811337955304
 51
137.5798343973798978
  0
ARC
  5
E197
  8
0
 10
4452.4678517619704508
 20
212.493671697139888
 30
0.0
 40
0.0338803496105067
 50
91.2210460444316453
 51
148.7232898545813953
  0
ARC
  5
E198
  8
0
 10
4452.398638792788006
 20
212.6432829285051014
 30
0.0
 40
0.1380101497128975
 50
279.6680966481035853
 51
285.1976282561611811
  0
ARC
  5
E199
  8
0
 10
4452.4314979768241756
 20
212.5294825937342011
 30
0.0
 40
0.0196654737043577
 50
279.7197956040521944
 51
292.0957252198767264
  0
ARC
  5
E19A
  8
0
 10
4453.148569268002575
 20
212.4995447558123089
 30
0.0
 40
0.0280047729659478
 50
59.289048218172951
 51
91.0997678864016649
  0
LINE
  5
E19B
  8
0
 10
4452.4671297831137053
 20
212.5275443533126065
 30
0.0
 11
4453.1480317614168598
 21
212.5275443700157894
 31
0.0
  0
LINE
  5
E19C
  8
0
 10
4446.3677001109572302
 20
213.4820875751215965
 30
0.0
 11
4446.3677001109572302
 21
212.7497637314845917
 31
0.0
  0
LINE
  5
E19D
  8
0
 10
4447.5568612546521763
 20
213.5017726144488961
 30
0.0
 11
4446.373390044676853
 21
213.5017726144488961
 31
0.0
  0
LINE
  5
E19E
  8
0
 10
4447.5776088424572663
 20
213.5214576539277971
 30
0.0
 11
4449.3375375825107767
 21
213.5214576539277971
 31
0.0
  0
LINE
  5
E19F
  8
0
 10
4450.3217891096956009
 20
213.5214576539277971
 30
0.0
 11
4452.0776824679787751
 21
213.5214576539277971
 31
0.0
  0
ARC
  5
E1A0
  8
0
 10
4447.5883197694638511
 20
213.4893923137125
 30
0.0
 40
0.0338069519540896
 50
108.4710930864352036
 51
158.5181935457262057
  0
ARC
  5
E1A1
  8
0
 10
4446.414157277628874
 20
213.4793240480207999
 30
0.0
 40
0.0465392889647861
 50
151.1605245707575023
 51
176.5957443115788976
  0
ARC
  5
E1A2
  8
0
 10
4449.6539366610886646
 20
238.6280928544923086
 30
0.0
 40
26.1161521107071302
 50
262.83761000981508
 51
263.8258815050194812
  0
ARC
  5
E1A3
  8
0
 10
4446.4020001109556688
 20
212.7497637314845917
 30
0.0
 40
0.0343
 50
180.0
 51
262.8376100098669212
  0
LINE
  5
E1A4
  8
0
 10
4448.3336033282957942
 20
213.5411426933277994
 30
0.0
 11
4448.5698206057959396
 21
213.5411426933277994
 31
0.0
  0
LINE
  5
E1A5
  8
0
 10
4448.5698206057959396
 20
213.5411426933277994
 30
0.0
 11
4448.5698206057959396
 21
213.5214576539277971
 31
0.0
  0
LINE
  5
E1A6
  8
0
 10
4448.3336033282957942
 20
213.5214576539277971
 30
0.0
 11
4448.3336033282957942
 21
213.5411426933277994
 31
0.0
  0
LINE
  5
E1A7
  8
0
 10
4453.2916261400350777
 20
213.4822029500332974
 30
0.0
 11
4453.2916261400350777
 21
212.9728128370556135
 31
0.0
  0
LINE
  5
E1A8
  8
0
 10
4452.1043183192196011
 20
213.5017726145277948
 30
0.0
 11
4453.2856243257492679
 21
213.5017726145277948
 31
0.0
  0
ARC
  5
E1A9
  8
0
 10
4452.0702886680783195
 20
213.4835900727225066
 30
0.0
 40
0.0385826642880444
 50
28.1162439927943417
 51
78.9517669595901168
  0
ARC
  5
E1AA
  8
0
 10
4453.2433924411207045
 20
213.4781153515118035
 30
0.0
 40
0.0484065922419123
 50
4.8439967170929741
 51
29.2564764081193012
  0
ARC
  5
E1AB
  8
0
 10
4451.1401012672413344
 20
212.3652667427093945
 30
0.0
 40
1.5824057262508391
 50
109.2039943897542997
 51
121.1400472756445055
  0
ARC
  5
E1AC
  8
0
 10
4450.9231803037373538
 20
214.1904767630202002
 30
0.0
 40
0.4490336416062522
 50
227.4617491659793131
 51
260.4731889298030865
  0
ARC
  5
E1AD
  8
0
 10
4451.0106182194140274
 20
215.0662092503523866
 30
0.0
 40
1.3284579657537721
 50
263.0061366800638893
 51
283.7439030564067934
  0
ARC
  5
E1AE
  8
0
 10
4448.5657899726429605
 20
226.3723920396151925
 30
0.0
 40
12.8955219066530802
 50
282.3605274747803264
 51
286.2259858459493103
  0
ARC
  5
E1AF
  8
0
 10
4450.8077613845725864
 20
213.2917911823710995
 30
0.0
 40
1.1694816522120819
 50
98.6355335519637322
 51
114.553643585706098
  0
ARC
  5
E1B0
  8
0
 10
4450.690552050153201
 20
214.063564263666791
 30
0.0
 40
0.3888590051619578
 50
37.5212845500475112
 51
98.6355335519637322
  0
ARC
  5
E1B1
  8
0
 10
4450.0370234742013054
 20
220.4312150280624962
 30
0.0
 40
6.2058208755954114
 50
278.9171791459814926
 51
286.9041867304287052
  0
ARC
  5
E1B2
  8
0
 10
4454.2716008323477581
 20
213.6496085440658135
 30
0.0
 40
1.351338040265013
 50
72.1122730290483673
 51
98.2115747082490032
  0
ARC
  5
E1B3
  8
0
 10
4454.532866339031898
 20
214.4590949295809992
 30
0.0
 40
0.5007336237952815
 50
33.2573891728630002
 51
72.1122730290483673
  0
ARC
  5
E1B4
  8
0
 10
4454.5065358536558051
 20
214.4418270511378068
 30
0.0
 40
0.5322213052924645
 50
347.1903945642554845
 51
33.2573891728630002
  0
ARC
  5
E1B5
  8
0
 10
4453.5272523066741996
 20
214.6644874684965885
 30
0.0
 40
1.5364991188724531
 50
326.6769362367068084
 51
347.1903945642554845
  0
ARC
  5
E1B6
  8
0
 10
4450.0947563489999084
 20
216.9211943062327919
 30
0.0
 40
5.644388388429074
 50
307.8820008652252795
 51
326.6769362367068084
  0
ARC
  5
E1B7
  8
0
 10
4448.4611327875200004
 20
218.3501540382231099
 30
0.0
 40
7.228379100632818
 50
311.3868448821253878
 51
324.4505632978879248
  0
ARC
  5
E1B8
  8
0
 10
4453.751581148256264
 20
214.5696223807356091
 30
0.0
 40
0.725974662975323
 50
324.4505632978879248
 51
348.8730193127752273
  0
ARC
  5
E1B9
  8
0
 10
4454.2137344022521575
 20
213.2689281061742008
 30
0.0
 40
1.1872500997620821
 50
77.8355927222648489
 51
100.0262947304080967
  0
ARC
  5
E1BA
  8
0
 10
4454.496829213084311
 20
210.3182499389405962
 30
0.0
 40
4.1488098050739932
 50
96.7799679785992168
 51
103.3296082157043969
  0
LINE
  5
E1BB
  8
0
 10
4448.9257936343310575
 20
209.79723107412579
 30
0.0
 11
4448.9257936343310575
 21
210.7473706822277961
 31
0.0
  0
ARC
  5
E1BC
  8
0
 10
4449.5697985483957382
 20
209.4870445421244938
 30
0.0
 40
0.5313905830920986
 50
243.2297184998652142
 51
255.4123754226532128
  0
ARC
  5
E1BD
  8
0
 10
4449.4292200901991237
 20
209.2083874493914095
 30
0.0
 40
0.219281502417613
 50
227.1285742359407038
 51
243.2297184998652142
  0
ARC
  5
E1BE
  8
0
 10
4449.3508485818656482
 20
209.1239652692617028
 30
0.0
 40
0.1040894982838997
 50
195.3035034802989003
 51
227.1285742359374069
  0
ARC
  5
E1BF
  8
0
 10
4644.0406560342198645
 20
237.4198671006211896
 30
0.0
 40
196.838608807947395
 50
188.1734119722410981
 51
188.2730853596389977
  0
ARC
  5
E1C0
  8
0
 10
4449.0717627974927382
 20
209.4328101287750883
 30
0.0
 40
0.1297355953907513
 50
1.14299385158664
 51
33.7737339421987173
  0
ARC
  5
E1C1
  8
0
 10
4448.6447918683197713
 20
209.1472613732667867
 30
0.0
 40
0.643391381041199
 50
33.7737339421987173
 51
43.7259749300161786
  0
ARC
  5
E1C2
  8
0
 10
4448.4900899838248733
 20
208.9992908024148903
 30
0.0
 40
0.8574660476983647
 50
43.7259749300161786
 51
54.2006510050086021
  0
ARC
  5
E1C3
  8
0
 10
4449.1074867958850518
 20
209.8553530956365023
 30
0.0
 40
0.1980061089303971
 50
215.0116062330291129
 51
234.2006510050086945
  0
ARC
  5
E1C4
  8
0
 10
4449.0347144156603463
 20
209.8043753545196921
 30
0.0
 40
0.1091548319952669
 50
183.7527420992244913
 51
215.0116062330291129
  0
ARC
  5
E1C5
  8
0
 10
4448.9933003605192425
 20
209.7965330000814959
 30
0.0
 40
0.0675103354167946
 50
129.9322372237944876
 51
179.4075365044718069
  0
ARC
  5
E1C6
  8
0
 10
4449.3065623058610072
 20
209.3499745402247925
 30
0.0
 40
0.6127714574767781
 50
105.0989740041628977
 51
125.5870316290477007
  0
ARC
  5
E1C7
  8
0
 10
4449.621343987137152
 20
208.1832586972006993
 30
0.0
 40
1.8212057193339479
 50
95.8422913577920355
 51
105.0989740041628977
  0
ARC
  5
E1C8
  8
0
 10
4449.7131598575679163
 20
212.0824492847515046
 30
0.0
 40
1.6025280198199889
 50
253.8422368921247028
 51
259.9607598587517145
  0
ARC
  5
E1C9
  8
0
 10
4449.5030103652752587
 20
211.3571146317929959
 30
0.0
 40
0.8473636881054663
 50
238.8832998281804123
 51
253.8422368921247028
  0
ARC
  5
E1CA
  8
0
 10
4449.180116146583714
 20
210.8221993439518087
 30
0.0
 40
0.2225476818838729
 50
214.5955915936044107
 51
238.8832998281812081
  0
ARC
  5
E1CB
  8
0
 10
4449.0877691708919883
 20
210.7585039187289908
 30
0.0
 40
0.1103644785343689
 50
188.2426055489312091
 51
214.5955915936096972
  0
ARC
  5
E1CC
  8
0
 10
4449.0078365941781158
 20
210.746924779254897
 30
0.0
 40
0.0295975713815704
 50
179.4817451229205005
 51
188.242605548916714
  0
LINE
  5
E1CD
  8
0
 10
4448.958541039460215
 20
210.7670706822277964
 30
0.0
 11
4448.9454936343299778
 21
210.7670706822277964
 31
0.0
  0
ARC
  5
E1CE
  8
0
 10
4448.958541039458396
 20
210.7473706822227086
 30
0.0
 40
0.0197
 50
359.4817451378688133
 51
89.9999999937988804
  0
ARC
  5
E1CF
  8
0
 10
4448.9454936343299778
 20
210.7473706822277961
 30
0.0
 40
0.0197
 50
90.0
 51
180.0000000000406999
  0
ARC
  5
E1D0
  8
0
 10
4449.6432518437613908
 20
211.8390625595889105
 30
0.0
 40
1.384298705167329
 50
246.9022507132106057
 51
260.6171745443568284
  0
ARC
  5
E1D1
  8
0
 10
4449.2590412312247281
 20
210.9381953252814128
 30
0.0
 40
0.4049215721720952
 50
221.0840220374203966
 51
246.9022507132106057
  0
ARC
  5
E1D2
  8
0
 10
4449.0369920181710768
 20
210.7445984697816925
 30
0.0
 40
0.1103276220009048
 50
189.0777050583689061
 51
221.0840220374167018
  0
ARC
  5
E1D3
  8
0
 10
4449.1639668389352664
 20
210.7648858680034039
 30
0.0
 40
0.2389129385605068
 50
184.5099081106982055
 51
189.0777050583689061
  0
ARC
  5
E1D4
  8
0
 10
4449.1098358997496689
 20
211.0539845791755056
 30
0.0
 40
0.3275596048401461
 50
246.0474497490336034
 51
260.477757994952583
  0
ARC
  5
E1D5
  8
0
 10
4449.6394403223021072
 20
206.6439466102760889
 30
0.0
 40
4.3238624869273448
 50
92.6972960247752553
 51
95.4450818740273945
  0
ARC
  5
E1D6
  8
0
 10
4449.3632984660307557
 20
209.5408915509524093
 30
0.0
 40
1.4137861453009051
 50
95.4450818740273945
 51
101.7331119345641071
  0
ARC
  5
E1D7
  8
0
 10
4449.0979790035453334
 20
210.8183525189577949
 30
0.0
 40
0.1090635916706614
 50
101.7331119345641071
 51
123.1997912658937935
  0
ARC
  5
E1D8
  8
0
 10
4449.056991399043909
 20
210.9172097151401886
 30
0.0
 40
0.0202130358828816
 50
202.0749847602214118
 51
249.8245550592544078
  0
ARC
  5
E1D9
  8
0
 10
4451.242841911148389
 20
210.8882546316806952
 30
0.0
 40
2.192844627438832
 50
179.2650370759945986
 51
186.7186948730912093
  0
ARC
  5
E1DA
  8
0
 10
4449.6631035055588654
 20
206.1338987928567121
 30
0.0
 40
4.841961914956566
 50
92.6887878267789347
 51
95.4937431920292852
  0
ARC
  5
E1DB
  8
0
 10
4449.3523182099233964
 20
209.2769551336496079
 30
0.0
 40
1.68361024489069
 50
95.2061485303675141
 51
101.344903383968699
  0
ARC
  5
E1DC
  8
0
 10
4449.0345353592783795
 20
210.8014786673238063
 30
0.0
 40
0.1269006027080372
 50
96.0649904444331639
 51
134.1401599833106104
  0
ARC
  5
E1DD
  8
0
 10
4449.0031155143678916
 20
210.936060028304496
 30
0.0
 40
0.071675011287137
 50
217.378824371754007
 51
258.2997245087717033
  0
ARC
  5
E1DE
  8
0
 10
4449.1466935616390401
 20
211.4070432304123131
 30
0.0
 40
0.5637939278636239
 50
253.7132368088043961
 51
260.1560649892539914
  0
LINE
  5
E1DF
  8
0
 10
4448.946159751995765
 20
210.8925474051276865
 30
0.0
 11
4448.946159751995765
 21
211.391536457027712
 31
0.0
  0
LINE
  5
E1E0
  8
0
 10
4450.7335326166621599
 20
209.79723107412579
 30
0.0
 11
4450.7335326166621599
 21
210.5073673275701935
 31
0.0
  0
ARC
  5
E1E1
  8
0
 10
4450.0895277025965697
 20
209.4870445421244938
 30
0.0
 40
0.5313905830920986
 50
284.5876245773467872
 51
296.7702815001347858
  0
ARC
  5
E1E2
  8
0
 10
4450.2301061607931842
 20
209.2083874493914095
 30
0.0
 40
0.219281502417613
 50
296.7702815001347858
 51
312.8714257640593246
  0
ARC
  5
E1E3
  8
0
 10
4450.3084776691266597
 20
209.1239652692617028
 30
0.0
 40
0.1040894982838997
 50
312.8714257640626784
 51
344.6964965197012134
  0
ARC
  5
E1E4
  8
0
 10
4255.6186702167733529
 20
237.4198671006211896
 30
0.0
 40
196.838608807947395
 50
351.7269146403609739
 51
351.8265880277572251
  0
ARC
  5
E1E5
  8
0
 10
4450.5875634534977507
 20
209.4328101287750883
 30
0.0
 40
0.1297355953907513
 50
146.2262660578012969
 51
178.8570061484134044
  0
ARC
  5
E1E6
  8
0
 10
4451.0145343826734461
 20
209.1472613732667867
 30
0.0
 40
0.643391381041199
 50
136.2740250699837929
 51
146.2262660578012969
  0
ARC
  5
E1E7
  8
0
 10
4451.1692362671674346
 20
208.9992908024148903
 30
0.0
 40
0.8574660476983647
 50
125.799348994991405
 51
136.2740250699837929
  0
ARC
  5
E1E8
  8
0
 10
4450.5518394551072561
 20
209.8553530956365023
 30
0.0
 40
0.1980061089303971
 50
305.7993489949914192
 51
324.9883937669708871
  0
ARC
  5
E1E9
  8
0
 10
4450.6246118353319616
 20
209.8043753545196921
 30
0.0
 40
0.1091548319952669
 50
324.9883937669708871
 51
356.247257900773775
  0
ARC
  5
E1EA
  8
0
 10
4450.6660258904721559
 20
209.7965330000814959
 30
0.0
 40
0.0675103354167946
 50
0.5924634955281658
 51
50.0677627762055195
  0
ARC
  5
E1EB
  8
0
 10
4450.3527639451313007
 20
209.3499745402247925
 30
0.0
 40
0.6127714574767781
 50
54.412968370952278
 51
74.9010259958370739
  0
ARC
  5
E1EC
  8
0
 10
4450.0379822638551559
 20
208.1832586972006993
 30
0.0
 40
1.8212057193339479
 50
74.9010259958370739
 51
84.1577086422079788
  0
ARC
  5
E1ED
  8
0
 10
4449.9461663934225726
 20
212.0824492847515046
 30
0.0
 40
1.6025280198199889
 50
280.0392401412481718
 51
286.1577631078753257
  0
ARC
  5
E1EE
  8
0
 10
4450.1563158857170492
 20
211.3571146317929959
 30
0.0
 40
0.8473636881054663
 50
286.1577631078753257
 51
301.116700171819673
  0
ARC
  5
E1EF
  8
0
 10
4450.4792101044085939
 20
210.8221993439518087
 30
0.0
 40
0.2225476818838729
 50
301.1167001718188203
 51
323.1692053046850788
  0
ARC
  5
E1F0
  8
0
 10
4450.0160744072318266
 20
211.8390625595889105
 30
0.0
 40
1.384298705167329
 50
279.3828254556431716
 51
293.0977492867893943
  0
ARC
  5
E1F1
  8
0
 10
4450.4002850197666703
 20
210.9381953252814128
 30
0.0
 40
0.4049215721720952
 50
293.0977492867893943
 51
312.1766715979894116
  0
ARC
  5
E1F2
  8
0
 10
4450.549490351242639
 20
211.0539845791755056
 30
0.0
 40
0.3275596048401461
 50
279.522242005047417
 51
287.2537995537177267
  0
ARC
  5
E1F3
  8
0
 10
4450.0198859286902007
 20
206.6439466102760889
 30
0.0
 40
4.3238624869273448
 50
84.5549181259725771
 51
87.3027039752247447
  0
ARC
  5
E1F4
  8
0
 10
4450.2960277849597333
 20
209.5408915509524093
 30
0.0
 40
1.4137861453009051
 50
78.2668880654358787
 51
84.5549181259725771
  0
ARC
  5
E1F5
  8
0
 10
4450.5613472474469745
 20
210.8183525189577949
 30
0.0
 40
0.1090635916706614
 50
56.8002087341061497
 51
78.2668880654358787
  0
ARC
  5
E1F6
  8
0
 10
4450.6023348519483989
 20
210.9172097151401886
 30
0.0
 40
0.0202130358828816
 50
290.1754449407455922
 51
337.9250152397785882
  0
ARC
  5
E1F7
  8
0
 10
4448.4164843398430094
 20
210.8882546316806952
 30
0.0
 40
2.192844627438832
 50
353.2813051269088191
 51
0.7349629240070056
  0
ARC
  5
E1F8
  8
0
 10
4449.9962227454334425
 20
206.1338987928567121
 30
0.0
 40
4.841961914956566
 50
84.5062568079707148
 51
87.3112121732210795
  0
ARC
  5
E1F9
  8
0
 10
4450.3070080410680021
 20
209.2769551336496079
 30
0.0
 40
1.68361024489069
 50
78.6550966160312441
 51
84.7938514696324717
  0
ARC
  5
E1FA
  8
0
 10
4450.6247908917139284
 20
210.8014786673238063
 30
0.0
 40
0.1269006027080372
 50
80.5064417910749768
 51
83.9350095555668219
  0
ARC
  5
E1FB
  8
0
 10
4450.5126326893532678
 20
211.4070432304123131
 30
0.0
 40
0.5637939278636239
 50
279.8439350107460086
 51
283.6046309437493846
  0
ENDSEC
  0
EOF
