  0
SECTION
  2
HEADER
  9
$ACADVER
  1
AC1009
  9
$INSBASE
 10
4409.7261552135496459
 20
168.6848792184310923
 30
0.0
  9
$EXTMIN
 10
4385.9709262071173725
 20
163.7625718614006871
 30
-0.0000000000000058
  9
$EXTMAX
 10
4409.8596515521003312
 20
228.9559575736855095
 30
0.0000000000000104
  9
$LIMMIN
 10
0.0
 20
0.0
  9
$LIMMAX
 10
11.6929133858000007
 20
8.2677165353999982
  9
$ORTHOMODE
 70
     0
  9
$REGENMODE
 70
     1
  9
$FILLMODE
 70
     1
  9
$QTEXTMODE
 70
     0
  9
$MIRRTEXT
 70
     0
  9
$DRAGMODE
 70
     2
  9
$LTSCALE
 40
0.6431102362
  9
$OSMODE
 70
  4095
  9
$ATTMODE
 70
     1
  9
$TEXTSIZE
 40
0.2
  9
$TRACEWID
 40
0.05
  9
$TEXTSTYLE
  7
STANDARD
  9
$CLAYER
  8
0
  9
$CELTYPE
  6
BYLAYER
  9
$CECOLOR
 62
   256
  9
$DIMSCALE
 40
1.0
  9
$DIMASZ
 40
0.1875
  9
$DIMEXO
 40
0.0625
  9
$DIMDLI
 40
0.4443307087
  9
$DIMRND
 40
0.0
  9
$DIMDLE
 40
0.0
  9
$DIMEXE
 40
0.125
  9
$DIMTP
 40
0.01
  9
$DIMTM
 40
0.01
  9
$DIMTXT
 40
2.0
  9
$DIMCEN
 40
0.1052362205
  9
$DIMTSZ
 40
0.0
  9
$DIMTOL
 70
     1
  9
$DIMLIM
 70
     0
  9
$DIMTIH
 70
     1
  9
$DIMTOH
 70
     1
  9
$DIMSE1
 70
     0
  9
$DIMSE2
 70
     0
  9
$DIMTAD
 70
     0
  9
$DIMZIN
 70
     0
  9
$DIMBLK
  1

  9
$DIMASO
 70
     1
  9
$DIMSHO
 70
     1
  9
$DIMPOST
  1
\X
  9
$DIMAPOST
  1

  9
$DIMALT
 70
     1
  9
$DIMALTD
 70
     2
  9
$DIMALTF
 40
25.3999999999999986
  9
$DIMLFAC
 40
1.0
  9
$DIMTOFL
 70
     0
  9
$DIMTVP
 40
0.0
  9
$DIMTIX
 70
     0
  9
$DIMSOXD
 70
     0
  9
$DIMSAH
 70
     0
  9
$DIMBLK1
  1

  9
$DIMBLK2
  1

  9
$DIMSTYLE
  2
STANDARD
  9
$DIMCLRD
 70
     0
  9
$DIMCLRE
 70
     0
  9
$DIMCLRT
 70
     0
  9
$DIMTFAC
 40
1.0
  9
$DIMGAP
 40
0.09
  9
$LUNITS
 70
     2
  9
$LUPREC
 70
     4
  9
$SKETCHINC
 40
0.1
  9
$FILLETRAD
 40
0.0
  9
$AUNITS
 70
     0
  9
$AUPREC
 70
     0
  9
$MENU
  1
.
  9
$ELEVATION
 40
0.0
  9
$PELEVATION
 40
0.0
  9
$THICKNESS
 40
0.0
  9
$LIMCHECK
 70
     0
  9
$BLIPMODE
 70
     0
  9
$CHAMFERA
 40
0.0
  9
$CHAMFERB
 40
0.0
  9
$SKPOLY
 70
     0
  9
$TDCREATE
 40
2458060.468368056230247
  9
$TDUPDATE
 40
2459323.945474537089467
  9
$TDINDWG
 40
0.4084792824
  9
$TDUSRTIMER
 40
0.4084792824
  9
$USRTIMER
 70
     1
  9
$ANGBASE
 50
0.0
  9
$ANGDIR
 70
     0
  9
$PDMODE
 70
     0
  9
$PDSIZE
 40
0.3125
  9
$PLINEWID
 40
0.0
  9
$COORDS
 70
     1
  9
$SPLFRAME
 70
     0
  9
$SPLINETYPE
 70
     6
  9
$SPLINESEGS
 70
     8
  9
$ATTDIA
 70
     1
  9
$ATTREQ
 70
     1
  9
$HANDLING
 70
     1
  9
$HANDSEED
  5
DDC1
  9
$SURFTAB1
 70
     6
  9
$SURFTAB2
 70
     6
  9
$SURFTYPE
 70
     6
  9
$SURFU
 70
     6
  9
$SURFV
 70
     6
  9
$UCSNAME
  2

  9
$UCSORG
 10
0.0
 20
0.0
 30
0.0
  9
$UCSXDIR
 10
1.0
 20
0.0
 30
0.0
  9
$UCSYDIR
 10
0.0
 20
1.0
 30
0.0
  9
$PUCSNAME
  2

  9
$PUCSORG
 10
0.0
 20
0.0
 30
0.0
  9
$PUCSXDIR
 10
1.0
 20
0.0
 30
0.0
  9
$PUCSYDIR
 10
0.0
 20
1.0
 30
0.0
  9
$USERI1
 70
     0
  9
$USERI2
 70
     0
  9
$USERI3
 70
     0
  9
$USERI4
 70
     0
  9
$USERI5
 70
     0
  9
$USERR1
 40
0.0
  9
$USERR2
 40
0.0
  9
$USERR3
 40
0.0
  9
$USERR4
 40
0.0
  9
$USERR5
 40
0.0
  9
$WORLDVIEW
 70
     1
  9
$SHADEDGE
 70
     3
  9
$SHADEDIF
 70
    70
  9
$TILEMODE
 70
     1
  9
$MAXACTVP
 70
    64
  9
$PLIMCHECK
 70
     0
  9
$PEXTMIN
 10
1.0000000000000000E+20
 20
1.0000000000000000E+20
 30
1.0000000000000000E+20
  9
$PEXTMAX
 10
-1.0000000000000000E+20
 20
-1.0000000000000000E+20
 30
-1.0000000000000000E+20
  9
$PLIMMIN
 10
0.0
 20
0.0
  9
$PLIMMAX
 10
12.0
 20
9.0
  9
$UNITMODE
 70
     0
  9
$VISRETAIN
 70
     1
  9
$PLINEGEN
 70
     0
  9
$PSLTSCALE
 70
     1
  0
ENDSEC
  0
SECTION
  2
TABLES
  0
TABLE
  2
VPORT
 70
     1
  0
VPORT
  2
*ACTIVE
 70
     0
 10
0.0
 20
0.0
 11
1.0
 21
1.0
 12
594.3712214967963519
 22
70.3640025207931643
 13
0.0
 23
0.0
 14
1.0
 24
1.0
 15
0.0
 25
0.0
 16
0.0
 26
0.0
 36
17.1152628219792007
 17
3803.5440673828129547
 27
125.9952621967499056
 37
0.0
 40
66.0684647151342404
 41
2.8789237668161429
 42
50.0
 43
0.0
 44
0.0
 50
0.0
 51
0.0
 71
     0
 72
   100
 73
     1
 74
     1
 75
     0
 76
     0
 77
     0
 78
     0
  0
ENDTAB
  0
TABLE
  2
LTYPE
 70
     2
  0
LTYPE
  2
CONTINUOUS
 70
     0
  3
Solid line
 72
    65
 73
     0
 40
0.0
  0
LTYPE
  2
PHANTOM2
 70
     0
  3
___ _ _ ___ _ _ ___ _ _ ___ _ _
 72
    65
 73
     6
 40
1.25
 49
0.625
 49
-0.125
 49
0.125
 49
-0.125
 49
0.125
 49
-0.125
  0
ENDTAB
  0
TABLE
  2
LAYER
 70
     2
  0
LAYER
  2
0
 70
     0
 62
   255
  6
CONTINUOUS
  0
LAYER
  2
DEFPOINTS
 70
     0
 62
     7
  6
CONTINUOUS
  0
ENDTAB
  0
TABLE
  2
STYLE
 70
     1
  0
STYLE
  2
STANDARD
 70
     0
 40
0.0
 41
0.8
 50
0.0
 71
     0
 42
0.2
  3
txt
  4

  0
ENDTAB
  0
TABLE
  2
VIEW
 70
     0
  0
ENDTAB
  0
TABLE
  2
UCS
 70
     0
  0
ENDTAB
  0
TABLE
  2
APPID
 70
     9
  0
APPID
  2
ACAD
 70
     0
  0
APPID
  2
ACAD_MLEADERVER
 70
     0
  0
APPID
  2
ACAD_EXEMPT_FROM_CAD_STANDARDS
 70
     0
  0
APPID
  2
ACAD_NAV_VCDISPLAY
 70
     0
  0
APPID
  2
ACAECLAYERSTANDARD
 70
     0
  0
APPID
  2
ACCMTRANSPARENCY
 70
     0
  0
APPID
  2
ACAD_DSTYLE_DIMJAG
 70
     0
  0
APPID
  2
ACAD_DSTYLE_DIMTALN
 70
     0
  0
APPID
  2
ACDBATTR
 70
     0
  0
ENDTAB
  0
TABLE
  2
DIMSTYLE
 70
     1
  0
DIMSTYLE
  2
STANDARD
 70
     0
  3

  4

  5

  6

  7

 40
1.0
 41
0.1875
 42
0.0625
 43
0.38
 44
0.125
 45
0.0
 46
0.0
 47
0.01
 48
0.01
140
0.15625
141
0.09
142
0.0
143
25.3999999999999986
144
1.0
145
0.0
146
1.0
147
0.09
 71
     1
 72
     0
 73
     1
 74
     1
 75
     0
 76
     0
 77
     0
 78
     4
170
     0
171
     2
172
     0
173
     0
174
     0
175
     0
176
     0
177
     0
178
     0
  0
ENDTAB
  0
ENDSEC
  0
SECTION
  2
BLOCKS
  0
BLOCK
  8
0
  2
$MODEL_SPACE
 70
     0
 10
0.0
 20
0.0
 30
0.0
  3
$MODEL_SPACE
  1

  0
ENDBLK
  5
21
  8
0
  0
BLOCK
 67
     1
  8
0
  2
$PAPER_SPACE
 70
     0
 10
0.0
 20
0.0
 30
0.0
  3
$PAPER_SPACE
  1

  0
ENDBLK
  5
1D
 67
     1
  8
0
  0
ENDSEC
  0
SECTION
  2
ENTITIES
  0
ATTDEF
  5
3930
  8
DEFPOINTS
 10
4409.727516991464654
 20
168.6847022681650969
 30
0.0
 40
0.001
  1
K-33096T-4
  3

  2
MODELNUMBER
 70
     0
1001
ACDBATTR
1070
     0
1070
     1
  0
ATTDEF
  5
3931
  8
DEFPOINTS
 10
4409.727516991464654
 20
168.6830356014984034
 30
0.0
 40
0.001
  1

  3

  2
TRADENAME
 70
     0
1001
ACDBATTR
1070
     0
1070
     1
  0
ATTDEF
  5
3932
  8
DEFPOINTS
 10
4409.727516991464654
 20
168.6813689348317951
 30
0.0
 40
0.001
  1
BATH AND SHOWER FAUCET
  3

  2
PRODUCT
 70
     0
1001
ACDBATTR
1070
     0
1070
     1
  0
LINE
  5
D6E5
  8
0
 10
4406.3329153415652399
 20
214.8577697628768135
 30
0.0
 11
4407.5017308041769866
 21
214.8577697628768135
 31
0.0
  0
LINE
  5
D6E6
  8
0
 10
4406.2222182057766986
 20
216.0782272431769115
 30
0.0
 11
4406.2222182057766986
 21
215.0735657862653909
 31
0.0
  0
LINE
  5
D6E7
  8
0
 10
4407.5214308041777258
 20
215.1234878730768969
 30
0.0
 11
4407.5214308041777258
 21
214.877469762876899
 31
0.0
  0
LINE
  5
D6E8
  8
0
 10
4406.2419182057783473
 20
216.0979272431767981
 30
0.0
 11
4407.5017308041769866
 21
216.0979272431767981
 31
0.0
  0
LINE
  5
D6E9
  8
0
 10
4406.3206434026778879
 20
216.1806044084767962
 30
0.0
 11
4406.3206434026778879
 21
216.0979272431767981
 31
0.0
  0
LINE
  5
D6EA
  8
0
 10
4407.4230056073793094
 20
216.0979272431767981
 30
0.0
 11
4407.4230056073793094
 21
216.1806044084767962
 31
0.0
  0
ARC
  5
D6EB
  8
0
 10
4406.2419182057783473
 20
216.0782272431769115
 30
0.0
 40
0.0197
 50
90.0000000000521254
 51
180.0000000000065086
  0
ARC
  5
D6EC
  8
0
 10
4407.5017308041769866
 20
216.0782272431769115
 30
0.0
 40
0.0197
 50
0.0000000000130276
 51
90.0
  0
LINE
  5
D6ED
  8
0
 10
4406.2222182057766986
 20
216.2003044084769101
 30
0.0
 11
4406.2222182057766986
 21
216.5939752745769056
 31
0.0
  0
ARC
  5
D6EE
  8
0
 10
4406.2419182057783473
 20
216.2003044084769101
 30
0.0
 40
0.0197
 50
180.0
 51
270.0
  0
LINE
  5
D6EF
  8
0
 10
4407.5214308041777258
 20
216.5939752745769056
 30
0.0
 11
4407.5214308041777258
 21
216.2003044084769101
 31
0.0
  0
LINE
  5
D6F0
  8
0
 10
4393.0922937963769073
 20
228.1648516525769139
 30
0.0
 11
4404.9033237175781323
 21
228.1648516525769139
 31
0.0
  0
LINE
  5
D6F1
  8
0
 10
4404.9033252923782129
 20
228.9522579517768861
 30
0.0
 11
4393.0922922215768267
 21
228.9522579517768861
 31
0.0
  0
LINE
  5
D6F2
  8
0
 10
4391.5174937963784032
 20
225.8026516525767988
 30
0.0
 11
4391.5174937963784032
 21
226.5900516525769035
 31
0.0
  0
LINE
  5
D6F3
  8
0
 10
4390.7300922215781611
 20
225.8026516525767988
 30
0.0
 11
4390.7300922215781611
 21
226.5900498867135866
 31
0.0
  0
ARC
  5
D6F4
  8
0
 10
4393.0922937963769073
 20
226.5900516525769035
 30
0.0
 40
1.5747999999999991
 50
90.0
 51
180.0
  0
ARC
  5
D6F5
  8
0
 10
4404.9033237175781323
 20
226.5900516525769035
 30
0.0
 40
1.5747999999999991
 50
0.0
 51
90.0
  0
ARC
  5
D6F6
  8
0
 10
4404.9033172273029777
 20
226.5900498867135866
 30
0.0
 40
2.3622080650771009
 50
0.0
 51
89.9998043801555099
  0
ARC
  5
D6F7
  8
0
 10
4393.0923002866520619
 20
226.5900498867135866
 30
0.0
 40
2.3622080650771129
 50
90.0001956198445043
 51
180.0
  0
ARC
  5
D6F8
  8
0
 10
4407.5017308041769866
 20
214.877469762876899
 30
0.0
 40
0.0197
 50
270.0000000000521254
 51
359.9999999999674856
  0
LINE
  5
D6F9
  8
0
 10
4409.7261552135778402
 20
214.2376910226768985
 30
0.0
 11
4409.7261552135778402
 21
216.7180059832768961
 31
0.0
  0
LINE
  5
D6FA
  8
0
 10
4409.3324544261768096
 20
214.2671913309756917
 30
0.0
 11
4409.3324544261768096
 21
216.6885056749781029
 31
0.0
  0
LINE
  5
D6FB
  8
0
 10
4409.351638740296039
 20
214.2474980816737116
 30
0.0
 11
4409.7261552135778402
 21
214.2376910226768985
 31
0.0
  0
LINE
  5
D6FC
  8
0
 10
4409.351638740296039
 20
216.7081989242801114
 30
0.0
 11
4409.7261552135778402
 21
216.7180059832768961
 31
0.0
  0
LINE
  5
D6FD
  8
0
 10
4407.9741867096790884
 20
214.9857225187768961
 30
0.0
 11
4409.3324544261768096
 21
214.9857225187768961
 31
0.0
  0
LINE
  5
D6FE
  8
0
 10
4407.9741867096790884
 20
215.9699744872768861
 30
0.0
 11
4409.3324544261768096
 21
215.9699744872768861
 31
0.0
  0
LINE
  5
D6FF
  8
0
 10
4407.9741867096790884
 20
215.9699744872768861
 30
0.0
 11
4407.9741867096790884
 21
214.9857225187768961
 31
0.0
  0
LINE
  5
D700
  8
0
 10
4407.9741867096790884
 20
215.1628878730768974
 30
0.0
 11
4407.5608308041782948
 21
215.1628878730768974
 31
0.0
  0
LINE
  5
D701
  8
0
 10
4407.9741867096790884
 20
215.7928091328768971
 30
0.0
 11
4407.5608308041782948
 21
215.7928091328768971
 31
0.0
  0
ARC
  5
D702
  8
0
 10
4409.3521544261775489
 20
214.2671913309756917
 30
0.0
 40
0.0197
 50
180.0000000000065086
 51
268.499999999801787
  0
ARC
  5
D703
  8
0
 10
4409.3521544261775489
 20
216.6885056749781029
 30
0.0
 40
0.0197
 50
91.5000000001981988
 51
180.0
  0
ARC
  5
D704
  8
0
 10
4407.5608308041782948
 20
215.1234878730768969
 30
0.0
 40
0.0394
 50
90.0
 51
180.0000000000065086
  0
LINE
  5
D705
  8
0
 10
4407.5214308041777258
 20
215.8322091328768977
 30
0.0
 11
4407.5214308041777258
 21
216.0782272431769115
 31
0.0
  0
ARC
  5
D706
  8
0
 10
4407.5608308041782948
 20
215.8322091328768977
 30
0.0
 40
0.0394
 50
179.9999999999870113
 51
270.0
  0
ARC
  5
D707
  8
0
 10
4408.217675379272805
 20
215.4944655682838004
 30
0.0
 40
0.7889112489321983
 50
181.2069267946189086
 51
208.0498823003987923
  0
ARC
  5
D708
  8
0
 10
4408.2260515212738028
 20
215.4590451812865126
 30
0.0
 40
0.7973341142382361
 50
152.0945075489123894
 51
178.6486833560664138
  0
LINE
  5
D709
  8
0
 10
4390.7300922215781611
 20
225.8026516525767988
 30
0.0
 11
4391.5174937963784032
 21
225.8026516525767988
 31
0.0
  0
LINE
  5
D70A
  8
0
 10
4390.7596073679778783
 20
225.6845290131772117
 30
0.0
 11
4390.7596073679778783
 21
225.8026516525767988
 31
0.0
  0
ARC
  5
D70B
  8
0
 10
4390.7497772607821389
 20
224.7935328240465083
 30
0.0
 40
0.019685039496224
 50
0.0000000882877197
 51
69.9999997456436489
  0
ARC
  5
D70C
  8
0
 10
4390.7497772608776359
 20
224.6659862765768878
 30
0.0
 40
0.0196850393999891
 50
316.4847259471756047
 51
0.0000000000130276
  0
ARC
  5
D70D
  8
0
 10
4391.1237930088782377
 20
224.3108690392768949
 30
0.0
 40
0.4960629920999942
 50
136.4847257597037924
 51
158.8228789146153019
  0
ARC
  5
D70E
  8
0
 10
4387.8983834208738699
 20
224.7297595525778888
 30
0.0
 40
2.8717870676497839
 50
358.7275379892914202
 51
1.272461920868307
  0
ARC
  5
D70F
  8
0
 10
4390.4696481575419966
 20
224.4310177943686995
 30
0.0
 40
0.0590551180082231
 50
89.9999993829630256
 51
175.5518357766127053
  0
ARC
  5
D710
  8
0
 10
4386.1398183221781437
 20
223.6633012586758014
 30
0.0
 40
0.0157480315010972
 50
90.0000000016154047
 51
180.9999999962489881
  0
ARC
  5
D711
  8
0
 10
4386.1900728240207172
 20
223.2656634741242954
 30
0.0
 40
0.0590551431071795
 50
181.0000099827506119
 51
270.0398863814079959
  0
LINE
  5
D712
  8
0
 10
4386.1240726891792292
 20
223.6630264176305047
 30
0.0
 11
4386.1310266754762779
 21
223.2646328095536035
 31
0.0
  0
ARC
  5
D713
  8
0
 10
4402.5355594082720927
 20
223.4924314880501868
 30
0.0
 40
12.1614168116983699
 50
175.5520169845075031
 51
179.0651057406234941
  0
ARC
  5
D714
  8
0
 10
4391.4978087569743366
 20
224.7935328240465083
 30
0.0
 40
0.0196850394962488
 50
110.0000002543610975
 51
179.9999999116666913
  0
ARC
  5
D715
  8
0
 10
4391.4978087568770206
 20
224.6659862765768878
 30
0.0
 40
0.0196850393999891
 50
179.9999999999870113
 51
223.5152740528243953
  0
ARC
  5
D716
  8
0
 10
4391.1237930088782377
 20
224.3108690392768949
 30
0.0
 40
0.4960629920999942
 50
21.1771210853846696
 51
43.5152742402962005
  0
ARC
  5
D717
  8
0
 10
4394.3492025968826056
 20
224.7297595525778888
 30
0.0
 40
2.8717870676497839
 50
178.7275380791251962
 51
181.2724620107150884
  0
ARC
  5
D718
  8
0
 10
4391.7779378602126599
 20
224.4310177943686995
 30
0.0
 40
0.0590551180082231
 50
4.4481642233937748
 51
90.0000006169848632
  0
ARC
  5
D719
  8
0
 10
4396.1077676955774223
 20
223.6633012586758014
 30
0.0
 40
0.0157480315010972
 50
359.0000000037445034
 51
89.9999999983324841
  0
ARC
  5
D71A
  8
0
 10
4396.0575132185040275
 20
223.2656634634824968
 30
0.0
 40
0.0590551181555839
 50
270.0000000714430826
 51
358.999999921078313
  0
LINE
  5
D71B
  8
0
 10
4396.1235133285781558
 20
223.6630264176305047
 30
0.0
 11
4396.1165593422792881
 21
223.2646328095536035
 31
0.0
  0
ARC
  5
D71C
  8
0
 10
4379.7120266094825638
 20
223.4924314880501868
 30
0.0
 40
12.1614168116983699
 50
0.9348942593699918
 51
4.4479830154924596
  0
LINE
  5
D71D
  8
0
 10
4391.9230056072783555
 20
223.6790492901768914
 30
0.0
 11
4391.9111945836766608
 21
223.6908603138768967
 31
0.0
  0
LINE
  5
D71E
  8
0
 10
4386.1901139351766687
 20
223.206608345326913
 30
0.0
 11
4396.0575132185776965
 21
223.206608345326913
 31
0.0
  0
LINE
  5
D71F
  8
0
 10
4396.1077676955774223
 20
223.6790492901768914
 30
0.0
 11
4386.1398183221781437
 21
223.6790492901768914
 31
0.0
  0
LINE
  5
D720
  8
0
 10
4390.4696481581777334
 20
224.4900729123768031
 30
0.0
 11
4391.7779378602126599
 21
224.4900729123768031
 31
0.0
  0
LINE
  5
D721
  8
0
 10
4390.3363914340779957
 20
223.6908603138768967
 30
0.0
 11
4391.9111945836766608
 21
223.6908603138768967
 31
0.0
  0
LINE
  5
D722
  8
0
 10
4390.6513520639782655
 20
225.6514902351769081
 30
0.0
 11
4391.59623395377821
 21
225.6514902351769933
 31
0.0
  0
LINE
  5
D723
  8
0
 10
4390.7565099408939204
 20
224.81203071037109
 30
0.0
 11
4391.4910760768625551
 21
224.81203071037109
 31
0.0
  0
LINE
  5
D724
  8
0
 10
4390.7694623001780201
 20
224.6659862765768878
 30
0.0
 11
4391.4781237174793205
 21
224.6659862765768878
 31
0.0
  0
LINE
  5
D725
  8
0
 10
4390.6513525863783798
 20
225.6514902351769081
 30
0.0
 11
4390.6513520639782655
 21
225.336529605276894
 31
0.0
  0
LINE
  5
D726
  8
0
 10
4390.6513520639782655
 20
225.336529605276894
 30
0.0
 11
4390.6907221427773038
 21
225.336529605276894
 31
0.0
  0
LINE
  5
D727
  8
0
 10
4390.6907221427773038
 20
225.336529605276894
 30
0.0
 11
4390.6907221427773038
 21
224.8359755106768887
 31
0.0
  0
LINE
  5
D728
  8
0
 10
4390.6907221427773038
 20
224.8359755106768887
 30
0.0
 11
4390.7565099408939204
 21
224.81203071037109
 31
0.0
  0
LINE
  5
D729
  8
0
 10
4391.5962334313780957
 20
225.6514902351769081
 30
0.0
 11
4391.5962334313780957
 21
225.336529605276894
 31
0.0
  0
LINE
  5
D72A
  8
0
 10
4391.5962334313780957
 20
225.336529605276894
 30
0.0
 11
4391.5568638749782622
 21
225.336529605276894
 31
0.0
  0
LINE
  5
D72B
  8
0
 10
4391.5568638749782622
 20
225.336529605276894
 30
0.0
 11
4391.5568638749782622
 21
224.8359813771768074
 31
0.0
  0
LINE
  5
D72C
  8
0
 10
4391.5568638749782622
 20
224.8359813771768074
 30
0.0
 11
4391.4910760768625551
 21
224.81203071037109
 31
0.0
  0
ARC
  5
D72D
  8
0
 10
4387.1745160721884531
 20
223.1554272431714878
 30
0.0
 40
0.0078740158945971
 50
270.0000013514260786
 51
353.9999994564881263
  0
ARC
  5
D72E
  8
0
 10
4387.0818786984264079
 20
223.1553538818378115
 30
0.0
 40
0.0078009342257496
 50
185.5148405992503058
 51
270.4851595498421943
  0
LINE
  5
D72F
  8
0
 10
4387.1878511494269333
 20
223.2066083452768908
 30
0.0
 11
4387.1823457448854242
 21
223.1545927662280917
 31
0.0
  0
LINE
  5
D730
  8
0
 10
4387.0741276801127242
 20
223.1544728086736882
 30
0.0
 11
4387.0686480144313464
 21
223.2066083452768908
 31
0.0
  0
LINE
  5
D731
  8
0
 10
4387.1745160723730805
 20
223.1475532272768021
 30
0.0
 11
4387.0819447530739126
 21
223.1475532272768021
 31
0.0
  0
ARC
  5
D732
  8
0
 10
4387.4877366878372413
 20
223.1554272431714878
 30
0.0
 40
0.0078740158945971
 50
270.0000013514260786
 51
353.9999994564881263
  0
ARC
  5
D733
  8
0
 10
4387.3950993140751962
 20
223.1553538818378115
 30
0.0
 40
0.0078009342257496
 50
185.5148405992503058
 51
270.4851595498421943
  0
LINE
  5
D734
  8
0
 10
4387.501071765076631
 20
223.2066083452768908
 30
0.0
 11
4387.4955675690407588
 21
223.154604184316014
 31
0.0
  0
LINE
  5
D735
  8
0
 10
4387.3873482957633314
 20
223.1544728086736882
 30
0.0
 11
4387.3818686300810441
 21
223.2066083452768908
 31
0.0
  0
LINE
  5
D736
  8
0
 10
4387.4877366880218688
 20
223.1475532272768021
 30
0.0
 11
4387.3951653687227008
 21
223.1475532272768021
 31
0.0
  0
ARC
  5
D737
  8
0
 10
4387.9128626543870269
 20
223.1554272431714878
 30
0.0
 40
0.0078740158945971
 50
270.0000013514260786
 51
353.9999994564881263
  0
ARC
  5
D738
  8
0
 10
4387.8202252806258912
 20
223.1553538818378115
 30
0.0
 40
0.0078009342257496
 50
185.5148405992503058
 51
270.4851595498421943
  0
LINE
  5
D739
  8
0
 10
4387.926197731627326
 20
223.2066083452768908
 30
0.0
 11
4387.920692327083998
 21
223.1545927662280917
 31
0.0
  0
LINE
  5
D73A
  8
0
 10
4387.8124742623140264
 20
223.1544728086732903
 30
0.0
 11
4387.8069945966317391
 21
223.2066083452768908
 31
0.0
  0
LINE
  5
D73B
  8
0
 10
4387.9128626545725638
 20
223.1475532272768021
 30
0.0
 11
4387.8202913352733958
 21
223.1475532272768021
 31
0.0
  0
ARC
  5
D73C
  8
0
 10
4388.3034638497865672
 20
223.1554272431714878
 30
0.0
 40
0.0078740158945971
 50
270.0000013514260786
 51
353.9999994564881263
  0
ARC
  5
D73D
  8
0
 10
4388.2108264760254315
 20
223.1553538818378115
 30
0.0
 40
0.0078009342257496
 50
185.5148405992503058
 51
270.4851595498421943
  0
LINE
  5
D73E
  8
0
 10
4388.3167989270268663
 20
223.2066083452768908
 30
0.0
 11
4388.3112935224844477
 21
223.1545927662280917
 31
0.0
  0
LINE
  5
D73F
  8
0
 10
4388.2030616495885624
 20
223.1546041842090062
 30
0.0
 11
4388.1975957920312794
 21
223.2066083452768908
 31
0.0
  0
LINE
  5
D740
  8
0
 10
4388.3034638499730136
 20
223.1475532272768021
 30
0.0
 11
4388.2108925306738456
 21
223.1475532272768021
 31
0.0
  0
ARC
  5
D741
  8
0
 10
4388.4369468280374349
 20
223.1554272431714878
 30
0.0
 40
0.0078740158945971
 50
270.0000013514260786
 51
353.9999994564881263
  0
ARC
  5
D742
  8
0
 10
4388.3443094542753897
 20
223.1553538818378115
 30
0.0
 40
0.0078009342257496
 50
185.5148405992503058
 51
270.4851595498421943
  0
LINE
  5
D743
  8
0
 10
4388.4502819052768245
 20
223.2066083452768908
 30
0.0
 11
4388.4447777092409524
 21
223.154604184316014
 31
0.0
  0
LINE
  5
D744
  8
0
 10
4388.3365446278376112
 20
223.1546041842090062
 30
0.0
 11
4388.3310787702803282
 21
223.2066083452768908
 31
0.0
  0
LINE
  5
D745
  8
0
 10
4388.4369468282229718
 20
223.1475532272768021
 30
0.0
 11
4388.3443755089238039
 21
223.1475532272768021
 31
0.0
  0
ARC
  5
D746
  8
0
 10
4388.7991242797870655
 20
223.1554272431714878
 30
0.0
 40
0.0078740158945971
 50
270.0000013514260786
 51
353.9999994564881263
  0
ARC
  5
D747
  8
0
 10
4388.7064869060259298
 20
223.1553538818378115
 30
0.0
 40
0.0078009342257496
 50
185.5148405992503058
 51
270.4851595498421943
  0
LINE
  5
D748
  8
0
 10
4388.8124593570273646
 20
223.2066083452768908
 30
0.0
 11
4388.8069539524840366
 21
223.1545927662220947
 31
0.0
  0
LINE
  5
D749
  8
0
 10
4388.698735887714065
 20
223.1544728086736882
 30
0.0
 11
4388.6932562220308682
 21
223.2066083452768908
 31
0.0
  0
LINE
  5
D74A
  8
0
 10
4388.7991242799726024
 20
223.1475532272768021
 30
0.0
 11
4388.7065529606734344
 21
223.1475532272768021
 31
0.0
  0
ARC
  5
D74B
  8
0
 10
4389.0440752471868109
 20
223.1554272431714878
 30
0.0
 40
0.0078740158945971
 50
270.0000013514260786
 51
353.9999994564881263
  0
ARC
  5
D74C
  8
0
 10
4388.9514378734256752
 20
223.1553538818378115
 30
0.0
 40
0.0078009342257496
 50
185.5148405992503058
 51
270.4851595498421943
  0
LINE
  5
D74D
  8
0
 10
4389.05741032442711
 20
223.2066083452768908
 30
0.0
 11
4389.0519049198846915
 21
223.1545927662280917
 31
0.0
  0
LINE
  5
D74E
  8
0
 10
4388.9436730469888062
 20
223.1546041842090062
 30
0.0
 11
4388.9382071894324326
 21
223.2066083452768908
 31
0.0
  0
LINE
  5
D74F
  8
0
 10
4389.0440752473732573
 20
223.1475532272768021
 30
0.0
 11
4388.9515039280731798
 21
223.1475532272768021
 31
0.0
  0
ARC
  5
D750
  8
0
 10
4389.3984162468368595
 20
223.1554272431714878
 30
0.0
 40
0.0078740158945971
 50
270.0000013514260786
 51
353.9999994564881263
  0
ARC
  5
D751
  8
0
 10
4389.3057788730748143
 20
223.1553538818378115
 30
0.0
 40
0.0078009342257496
 50
185.5148405992503058
 51
270.4851595498421943
  0
LINE
  5
D752
  8
0
 10
4389.4117513240771586
 20
223.2066083452768908
 30
0.0
 11
4389.4062459195329211
 21
223.1545927662280917
 31
0.0
  0
LINE
  5
D753
  8
0
 10
4389.2980278547629496
 20
223.1544728086736882
 30
0.0
 11
4389.2925481890806623
 21
223.2066083452768908
 31
0.0
  0
LINE
  5
D754
  8
0
 10
4389.3984162470233059
 20
223.1475532272768021
 30
0.0
 11
4389.3058449277232285
 21
223.1475532272768021
 31
0.0
  0
ARC
  5
D755
  8
0
 10
4389.5414610767384147
 20
223.1554272431714878
 30
0.0
 40
0.0078740158945971
 50
270.0000013514260786
 51
353.9999994564881263
  0
ARC
  5
D756
  8
0
 10
4389.4488237029745505
 20
223.1553538818378115
 30
0.0
 40
0.0078009342257496
 50
185.5148405992503058
 51
270.4851595498421943
  0
LINE
  5
D757
  8
0
 10
4389.5547961539759854
 20
223.2066083452768908
 30
0.0
 11
4389.5492919579410227
 21
223.154604184316014
 31
0.0
  0
LINE
  5
D758
  8
0
 10
4389.4410588765376815
 20
223.1546041842090062
 30
0.0
 11
4389.435593018981308
 21
223.2066083452768908
 31
0.0
  0
LINE
  5
D759
  8
0
 10
4389.5414610769221326
 20
223.1475532272768021
 30
0.0
 11
4389.4488897576229647
 21
223.1475532272768021
 31
0.0
  0
ARC
  5
D75A
  8
0
 10
4389.9426319897884241
 20
223.1554272431714878
 30
0.0
 40
0.0078740158945971
 50
270.0000013514260786
 51
353.9999994564881263
  0
ARC
  5
D75B
  8
0
 10
4389.8499946160245599
 20
223.1553538818378115
 30
0.0
 40
0.0078009342257496
 50
185.5148405992503058
 51
270.4851595498421943
  0
LINE
  5
D75C
  8
0
 10
4389.9559670670259948
 20
223.2066083452768908
 30
0.0
 11
4389.9504628709910321
 21
223.154604184316014
 31
0.0
  0
LINE
  5
D75D
  8
0
 10
4389.8422297895876909
 20
223.1546041842090062
 30
0.0
 11
4389.8367639320313174
 21
223.2066083452768908
 31
0.0
  0
LINE
  5
D75E
  8
0
 10
4389.9426319899730515
 20
223.1475532272768021
 30
0.0
 11
4389.8500606706729741
 21
223.1475532272768021
 31
0.0
  0
ARC
  5
D75F
  8
0
 10
4390.0751173930866571
 20
223.1554272431714878
 30
0.0
 40
0.0078740158945971
 50
270.0000013514260786
 51
353.9999994564881263
  0
ARC
  5
D760
  8
0
 10
4389.9824800193264309
 20
223.1553538818378115
 30
0.0
 40
0.0078009342257496
 50
185.5148405992503058
 51
270.4851595498421943
  0
LINE
  5
D761
  8
0
 10
4390.0884524703269562
 20
223.2066083452768908
 30
0.0
 11
4390.0829470657836282
 21
223.1545927662280917
 31
0.0
  0
LINE
  5
D762
  8
0
 10
4389.9747290010127472
 20
223.1544728086732903
 30
0.0
 11
4389.9692493353313694
 21
223.2066083452768908
 31
0.0
  0
LINE
  5
D763
  8
0
 10
4390.1068223549873437
 20
223.1475532272768021
 30
0.0
 11
4389.9825460739739356
 21
223.1475532272768021
 31
0.0
  0
ARC
  5
D764
  8
0
 10
4390.431712916937613
 20
223.1554272431714878
 30
0.0
 40
0.0078740158945971
 50
270.0000013514260786
 51
353.9999994564881263
  0
ARC
  5
D765
  8
0
 10
4390.3390755431755679
 20
223.1553538818378115
 30
0.0
 40
0.0078009342257496
 50
185.5148405992503058
 51
270.4851595498421943
  0
LINE
  5
D766
  8
0
 10
4390.4450479941770027
 20
223.2066083452768908
 30
0.0
 11
4390.4395425896345841
 21
223.1545927662280917
 31
0.0
  0
LINE
  5
D767
  8
0
 10
4390.3313245248637031
 20
223.1544728086736882
 30
0.0
 11
4390.3258448591814158
 21
223.2066083452768908
 31
0.0
  0
LINE
  5
D768
  8
0
 10
4390.4614364203780497
 20
223.1475532271768998
 30
0.0
 11
4390.339141597823982
 21
223.1475532272768021
 31
0.0
  0
ARC
  5
D769
  8
0
 10
4391.1700588623871226
 20
223.1554272431714878
 30
0.0
 40
0.0078740158945971
 50
270.0000013514260786
 51
353.9999994564881263
  0
ARC
  5
D76A
  8
0
 10
4391.077421488625987
 20
223.1553538818378115
 30
0.0
 40
0.0078009342257496
 50
185.5148405992503058
 51
270.4851595498421943
  0
LINE
  5
D76B
  8
0
 10
4391.1833939396274218
 20
223.2066083452768908
 30
0.0
 11
4391.1778885350831843
 21
223.1545927662220947
 31
0.0
  0
LINE
  5
D76C
  8
0
 10
4391.0696566621882084
 20
223.1546041842090062
 30
0.0
 11
4391.0641908046300159
 21
223.2066083452768908
 31
0.0
  0
LINE
  5
D76D
  8
0
 10
4391.1700588625726596
 20
223.1475532272768021
 30
0.0
 11
4391.0774875432725821
 21
223.1475532272768021
 31
0.0
  0
ARC
  5
D76E
  8
0
 10
4386.9826496124869664
 20
223.1554272430715002
 30
0.0
 40
0.0078740158945971
 50
270.0000013514260786
 51
353.9999994564881263
  0
ARC
  5
D76F
  8
0
 10
4386.8900122387249212
 20
223.1553538817377103
 30
0.0
 40
0.0078009342257496
 50
185.5148405992503058
 51
270.4851595498421943
  0
LINE
  5
D770
  8
0
 10
4386.9959846897272655
 20
223.2066083451769032
 30
0.0
 11
4386.9904804936913933
 21
223.1546041842159127
 31
0.0
  0
LINE
  5
D771
  8
0
 10
4386.8822612204139659
 20
223.1544728085737859
 30
0.0
 11
4386.8767815547316786
 21
223.2066083451769032
 31
0.0
  0
LINE
  5
D772
  8
0
 10
4386.9826496126734128
 20
223.1475532271768998
 30
0.0
 11
4386.8900782933733353
 21
223.1475532271768998
 31
0.0
  0
ARC
  5
D773
  8
0
 10
4387.7039369330877889
 20
223.1554272430715002
 30
0.0
 40
0.0078740158945971
 50
270.0000013514260786
 51
353.9999994564881263
  0
ARC
  5
D774
  8
0
 10
4387.6112995593257438
 20
223.1553538817377103
 30
0.0
 40
0.0078009342257496
 50
185.5148405992503058
 51
270.4851595498421943
  0
LINE
  5
D775
  8
0
 10
4387.7172720103271786
 20
223.2066083451769032
 30
0.0
 11
4387.7117666057838505
 21
223.1545927661223061
 31
0.0
  0
LINE
  5
D776
  8
0
 10
4387.6035347328879652
 20
223.1546041841091039
 30
0.0
 11
4387.5980688753306822
 21
223.2066083451769032
 31
0.0
  0
LINE
  5
D777
  8
0
 10
4387.7039369332733258
 20
223.1475532271768998
 30
0.0
 11
4387.6113656139732484
 21
223.1475532271768998
 31
0.0
  0
ARC
  5
D778
  8
0
 10
4387.9328007167878241
 20
223.1554272430715002
 30
0.0
 40
0.0078740158945971
 50
270.0000013514260786
 51
353.9999994564881263
  0
LINE
  5
D779
  8
0
 10
4387.9461357940272137
 20
223.2066083451769032
 30
0.0
 11
4387.9406303894838857
 21
223.1545927661281041
 31
0.0
  0
LINE
  5
D77A
  8
0
 10
4387.932800716973361
 20
223.1475532271768998
 30
0.0
 11
4387.9129009929883978
 21
223.1475532272768021
 31
0.0
  0
ARC
  5
D77B
  8
0
 10
4389.1656623240878616
 20
223.1554272431714878
 30
0.0
 40
0.0078740158945971
 50
270.0000013514260786
 51
353.9999994564881263
  0
ARC
  5
D77C
  8
0
 10
4389.0730249503258165
 20
223.1553538818378115
 30
0.0
 40
0.0078009342257496
 50
185.5148405992503058
 51
270.4851595498421943
  0
LINE
  5
D77D
  8
0
 10
4389.1789974013272513
 20
223.2066083452768908
 30
0.0
 11
4389.1734932052913791
 21
223.154604184316014
 31
0.0
  0
LINE
  5
D77E
  8
0
 10
4389.0652739320139517
 20
223.1544728086736882
 30
0.0
 11
4389.0597942663316644
 21
223.2066083452768908
 31
0.0
  0
LINE
  5
D77F
  8
0
 10
4389.1720811060768028
 20
223.1475532272768021
 30
0.0
 11
4389.0730910049733211
 21
223.1475532272768021
 31
0.0
  0
ARC
  5
D780
  8
0
 10
4389.1720424331870163
 20
223.1554272430715002
 30
0.0
 40
0.0078740158945971
 50
270.0000013514260786
 51
353.9999994564881263
  0
LINE
  5
D781
  8
0
 10
4389.1853775104273154
 20
223.2066083451769032
 30
0.0
 11
4389.1798733143914433
 21
223.1546041842159127
 31
0.0
  0
ARC
  5
D782
  8
0
 10
4389.7158006219870003
 20
223.1554272431714878
 30
0.0
 40
0.0078740158945971
 50
270.0000013514260786
 51
353.9999994564881263
  0
ARC
  5
D783
  8
0
 10
4389.6231632482258647
 20
223.1553538818378115
 30
0.0
 40
0.0078009342257496
 50
185.5148405992503058
 51
270.4851595498421943
  0
LINE
  5
D784
  8
0
 10
4389.7291356992272995
 20
223.2066083452768908
 30
0.0
 11
4389.7236302946839714
 21
223.1545927662280917
 31
0.0
  0
LINE
  5
D785
  8
0
 10
4389.6154122299139999
 20
223.1544728086736882
 30
0.0
 11
4389.6099325642317126
 21
223.2066083452768908
 31
0.0
  0
LINE
  5
D786
  8
0
 10
4389.7527366644872018
 20
223.1475532272768021
 30
0.0
 11
4389.6232293028715503
 21
223.1475532272768021
 31
0.0
  0
ARC
  5
D787
  8
0
 10
4389.7527366644872018
 20
223.1554272431714878
 30
0.0
 40
0.0078740158945971
 50
270.0000013514260786
 51
353.9999994564881263
  0
LINE
  5
D788
  8
0
 10
4389.7660717417265914
 20
223.2066083452768908
 30
0.0
 11
4389.7605663371841729
 21
223.1545927662280917
 31
0.0
  0
ARC
  5
D789
  8
0
 10
4390.1068223549873437
 20
223.1554272431714878
 30
0.0
 40
0.0078740158945971
 50
270.0000013514260786
 51
353.9999994564881263
  0
LINE
  5
D78A
  8
0
 10
4390.1201574322267334
 20
223.2066083452768908
 30
0.0
 11
4390.1146520276843148
 21
223.1545927662280917
 31
0.0
  0
ARC
  5
D78B
  8
0
 10
4390.4363992137878085
 20
223.1554272431714878
 30
0.0
 40
0.0078740158945971
 50
270.0000013514260786
 51
353.9999994564881263
  0
LINE
  5
D78C
  8
0
 10
4390.4497342910271982
 20
223.2066083452768908
 30
0.0
 11
4390.4442288864838702
 21
223.1545927662280917
 31
0.0
  0
ARC
  5
D78D
  8
0
 10
4390.4613980817875927
 20
223.1554272430715002
 30
0.0
 40
0.0078740158945971
 50
270.0000013514260786
 51
353.9999994564881263
  0
LINE
  5
D78E
  8
0
 10
4390.4747331590269823
 20
223.2066083451769032
 30
0.0
 11
4390.4692277544836543
 21
223.1545927661223061
 31
0.0
  0
ARC
  5
D78F
  8
0
 10
4390.8006411898877559
 20
223.1554272430715002
 30
0.0
 40
0.0078740158945971
 50
270.0000013514260786
 51
353.9999994564881263
  0
LINE
  5
D790
  8
0
 10
4390.813976267128055
 20
223.2066083451769032
 30
0.0
 11
4390.8084720710912734
 21
223.1546041842159127
 31
0.0
  0
ARC
  5
D791
  8
0
 10
4390.8156838041868468
 20
223.1554272431714878
 30
0.0
 40
0.0078740158945971
 50
270.0000013514260786
 51
353.9999994564881263
  0
LINE
  5
D792
  8
0
 10
4390.829018881427146
 20
223.2066083452768908
 30
0.0
 11
4390.8235134768838179
 21
223.1545927662222937
 31
0.0
  0
ARC
  5
D793
  8
0
 10
4390.7994233149865977
 20
223.1554272430715002
 30
0.0
 40
0.0078740158945971
 50
270.0000013514260786
 51
353.9999994564881263
  0
ARC
  5
D794
  8
0
 10
4390.7067859412245525
 20
223.1553538817377103
 30
0.0
 40
0.0078009342257496
 50
185.5148405992503058
 51
270.4851595498421943
  0
LINE
  5
D795
  8
0
 10
4390.8127583922268968
 20
223.2066083451769032
 30
0.0
 11
4390.8072529876835688
 21
223.1545927661281041
 31
0.0
  0
LINE
  5
D796
  8
0
 10
4390.6990211147876835
 20
223.1546041841091039
 30
0.0
 11
4390.69355525723131
 21
223.2066083451769032
 31
0.0
  0
ARC
  5
D797
  8
0
 10
4388.6223200833246665
 20
223.1553538818378115
 30
0.0
 40
0.0078009342257496
 50
185.5148405992503058
 51
270.4851595498421943
  0
LINE
  5
D798
  8
0
 10
4388.6145690650137112
 20
223.1544728086736882
 30
0.0
 11
4388.6090893993314239
 21
223.2066083452768908
 31
0.0
  0
LINE
  5
D799
  8
0
 10
4388.7065529606734344
 20
223.1475532272768021
 30
0.0
 11
4388.6223861379730806
 21
223.1475532272768021
 31
0.0
  0
ARC
  5
D79A
  8
0
 10
4387.5341130336264541
 20
223.1553538818378115
 30
0.0
 40
0.0078009342257496
 50
185.5148405992503058
 51
270.4851595498421943
  0
LINE
  5
D79B
  8
0
 10
4387.5263482071877661
 20
223.1546041842090062
 30
0.0
 11
4387.5208823496313926
 21
223.2066083452768908
 31
0.0
  0
LINE
  5
D79C
  8
0
 10
4387.6113656139732484
 20
223.1475532271768998
 30
0.0
 11
4387.5341790882739588
 21
223.1475532272768021
 31
0.0
  0
ARC
  5
D79D
  8
0
 10
4386.8254152830259045
 20
223.1553538816378079
 30
0.0
 40
0.0078009342257496
 50
185.5148405992503058
 51
270.4851595498421943
  0
LINE
  5
D79E
  8
0
 10
4386.817650456588126
 20
223.1546041840090027
 30
0.0
 11
4386.8121845990308429
 21
223.2066083450768872
 31
0.0
  0
LINE
  5
D79F
  8
0
 10
4386.8900782933733353
 20
223.1475532271768998
 30
0.0
 11
4386.8254813376734091
 21
223.1475532270767985
 31
0.0
  0
LINE
  5
D7A0
  8
0
 10
4390.8157221427782133
 20
223.1475532272768021
 30
0.0
 11
4390.7073567535780967
 21
223.1475532272768021
 31
0.0
  0
ARC
  5
D7A1
  8
0
 10
4395.0730699455689319
 20
223.1554272431714878
 30
0.0
 40
0.0078740158945971
 50
186.0000005435117885
 51
269.9999986485216823
  0
ARC
  5
D7A2
  8
0
 10
4395.1657073193300675
 20
223.1553538818378115
 30
0.0
 40
0.0078009342257496
 50
269.5148404501578057
 51
354.4851594007432141
  0
LINE
  5
D7A3
  8
0
 10
4395.0597348683277232
 20
223.2066083452768908
 30
0.0
 11
4395.0652390643635954
 21
223.154604184316014
 31
0.0
  0
LINE
  5
D7A4
  8
0
 10
4395.1734721457660271
 20
223.1546041842090062
 30
0.0
 11
4395.1789380033251291
 21
223.2066083452768908
 31
0.0
  0
LINE
  5
D7A5
  8
0
 10
4395.073069945381576
 20
223.1475532272768021
 30
0.0
 11
4395.1656412646816534
 21
223.1475532272768021
 31
0.0
  0
ARC
  5
D7A6
  8
0
 10
4394.7598493299183247
 20
223.1554272431714878
 30
0.0
 40
0.0078740158945971
 50
186.0000005435117885
 51
269.9999986485216823
  0
ARC
  5
D7A7
  8
0
 10
4394.8524867036803698
 20
223.1553538818378115
 30
0.0
 40
0.0078009342257496
 50
269.5148404501578057
 51
354.4851594007432141
  0
LINE
  5
D7A8
  8
0
 10
4394.746514252678935
 20
223.2066083452768908
 30
0.0
 11
4394.7520184487138977
 21
223.154604184316014
 31
0.0
  0
LINE
  5
D7A9
  8
0
 10
4394.8602515301181484
 20
223.1546041842090062
 30
0.0
 11
4394.8657173876736124
 21
223.2066083452768908
 31
0.0
  0
LINE
  5
D7AA
  8
0
 10
4394.7598493297327877
 20
223.1475532272768021
 30
0.0
 11
4394.8524206490328652
 21
223.1475532272768021
 31
0.0
  0
ARC
  5
D7AB
  8
0
 10
4394.3347233633676296
 20
223.1554272431714878
 30
0.0
 40
0.0078740158945971
 50
186.0000005435117885
 51
269.9999986485216823
  0
ARC
  5
D7AC
  8
0
 10
4394.4273607371305843
 20
223.1553538818378115
 30
0.0
 40
0.0078009342257496
 50
269.5148404501578057
 51
354.4851594007432141
  0
LINE
  5
D7AD
  8
0
 10
4394.3213882861291495
 20
223.2066083452768908
 30
0.0
 11
4394.3268924821650216
 21
223.154604184316014
 31
0.0
  0
LINE
  5
D7AE
  8
0
 10
4394.4351255635674534
 20
223.1546041842090062
 30
0.0
 11
4394.4405914211238269
 21
223.2066083452768908
 31
0.0
  0
LINE
  5
D7AF
  8
0
 10
4394.3347233631830022
 20
223.1475532272768021
 30
0.0
 11
4394.4272946824821702
 21
223.1475532272768021
 31
0.0
  0
ARC
  5
D7B0
  8
0
 10
4393.9441221679689988
 20
223.1554272431714878
 30
0.0
 40
0.0078740158945971
 50
186.0000005435117885
 51
269.9999986485216823
  0
ARC
  5
D7B1
  8
0
 10
4394.036759541729225
 20
223.1553538818378115
 30
0.0
 40
0.0078009342257496
 50
269.5148404501578057
 51
354.4851594007432141
  0
LINE
  5
D7B2
  8
0
 10
4393.9307870907277902
 20
223.2066083452768908
 30
0.0
 11
4393.9362912867636624
 21
223.154604184316014
 31
0.0
  0
LINE
  5
D7B3
  8
0
 10
4394.0445243681670036
 20
223.1546041842090062
 30
0.0
 11
4394.0499902257242866
 21
223.2066083452768908
 31
0.0
  0
LINE
  5
D7B4
  8
0
 10
4393.9441221677816429
 20
223.1475532272768021
 30
0.0
 11
4394.0366934870826299
 21
223.1475532272768021
 31
0.0
  0
ARC
  5
D7B5
  8
0
 10
4393.8106391897181311
 20
223.1554272431714878
 30
0.0
 40
0.0078740158945971
 50
186.0000005435117885
 51
269.9999986485216823
  0
ARC
  5
D7B6
  8
0
 10
4393.9032765634801763
 20
223.1553538818378115
 30
0.0
 40
0.0078009342257496
 50
269.5148404501578057
 51
354.4851594007432141
  0
LINE
  5
D7B7
  8
0
 10
4393.7973041124778319
 20
223.2066083452768908
 30
0.0
 11
4393.8028083085146136
 21
223.154604184316014
 31
0.0
  0
LINE
  5
D7B8
  8
0
 10
4393.9110413899170453
 20
223.1546041842090062
 30
0.0
 11
4393.9165072474743283
 21
223.2066083452768908
 31
0.0
  0
LINE
  5
D7B9
  8
0
 10
4393.8106391895316847
 20
223.1475532272768021
 30
0.0
 11
4393.9032105088326716
 21
223.1475532272768021
 31
0.0
  0
ARC
  5
D7BA
  8
0
 10
4393.448461737967591
 20
223.1554272431714878
 30
0.0
 40
0.0078740158945971
 50
186.0000005435117885
 51
269.9999986485216823
  0
ARC
  5
D7BB
  8
0
 10
4393.5410991117305457
 20
223.1553538818378115
 30
0.0
 40
0.0078009342257496
 50
269.5148404501578057
 51
354.4851594007432141
  0
LINE
  5
D7BC
  8
0
 10
4393.4351266607291109
 20
223.2066083452768908
 30
0.0
 11
4393.440630856764983
 21
223.154604184316014
 31
0.0
  0
LINE
  5
D7BD
  8
0
 10
4393.5488639381674147
 20
223.1546041842090062
 30
0.0
 11
4393.5543297957237883
 21
223.2066083452768908
 31
0.0
  0
LINE
  5
D7BE
  8
0
 10
4393.4484617377829636
 20
223.1475532272768021
 30
0.0
 11
4393.5410330570821316
 21
223.1475532272768021
 31
0.0
  0
ARC
  5
D7BF
  8
0
 10
4393.2035107705678456
 20
223.1554272431714878
 30
0.0
 40
0.0078740158945971
 50
186.0000005435117885
 51
269.9999986485216823
  0
ARC
  5
D7C0
  8
0
 10
4393.2961481443298908
 20
223.1553538818378115
 30
0.0
 40
0.0078009342257496
 50
269.5148404501578057
 51
354.4851594007432141
  0
LINE
  5
D7C1
  8
0
 10
4393.1901756933275465
 20
223.2066083452768908
 30
0.0
 11
4393.1956798893643281
 21
223.154604184316014
 31
0.0
  0
LINE
  5
D7C2
  8
0
 10
4393.3039129707667598
 20
223.1546041842090062
 30
0.0
 11
4393.3093788283249523
 21
223.2066083452768908
 31
0.0
  0
LINE
  5
D7C3
  8
0
 10
4393.2035107703832182
 20
223.1475532272768021
 30
0.0
 11
4393.2960820896823861
 21
223.1475532272768021
 31
0.0
  0
ARC
  5
D7C4
  8
0
 10
4392.8491697709187065
 20
223.1554272431714878
 30
0.0
 40
0.0078740158945971
 50
186.0000005435117885
 51
269.9999986485216823
  0
ARC
  5
D7C5
  8
0
 10
4392.9418071446789327
 20
223.1553538818378115
 30
0.0
 40
0.0078009342257496
 50
269.5148404501578057
 51
354.4851594007432141
  0
LINE
  5
D7C6
  8
0
 10
4392.8358346936784073
 20
223.2066083452768908
 30
0.0
 11
4392.8413400982208259
 21
223.1545927662338045
 31
0.0
  0
LINE
  5
D7C7
  8
0
 10
4392.9495719711176207
 20
223.1546041842090062
 30
0.0
 11
4392.9550378286749037
 21
223.2066083452768908
 31
0.0
  0
LINE
  5
D7C8
  8
0
 10
4392.8491697707331696
 20
223.1475532272768021
 30
0.0
 11
4392.9417410900323375
 21
223.1475532272768021
 31
0.0
  0
ARC
  5
D7C9
  8
0
 10
4392.7061249410189703
 20
223.1554272431714878
 30
0.0
 40
0.0078740158945971
 50
186.0000005435117885
 51
269.9999986485216823
  0
ARC
  5
D7CA
  8
0
 10
4392.798762314780106
 20
223.1553538818378115
 30
0.0
 40
0.0078009342257496
 50
269.5148404501578057
 51
354.4851594007432141
  0
LINE
  5
D7CB
  8
0
 10
4392.6927898637786711
 20
223.2066083452768908
 30
0.0
 11
4392.6982952683210897
 21
223.1545927662338045
 31
0.0
  0
LINE
  5
D7CC
  8
0
 10
4392.8065133330910612
 20
223.1544728086736882
 30
0.0
 11
4392.8119929987751675
 21
223.2066083452768908
 31
0.0
  0
LINE
  5
D7CD
  8
0
 10
4392.7061249408316144
 20
223.1475532272768021
 30
0.0
 11
4392.7986962601316918
 21
223.1475532272768021
 31
0.0
  0
ARC
  5
D7CE
  8
0
 10
4392.3049540279689609
 20
223.1554272431714878
 30
0.0
 40
0.0078740158945971
 50
186.0000005435117885
 51
269.9999986485216823
  0
ARC
  5
D7CF
  8
0
 10
4392.397591401731006
 20
223.1553538818378115
 30
0.0
 40
0.0078009342257496
 50
269.5148404501578057
 51
354.4851594007432141
  0
LINE
  5
D7D0
  8
0
 10
4392.2916189507286617
 20
223.2066083452768908
 30
0.0
 11
4392.2971243552710803
 21
223.1545927662338045
 31
0.0
  0
LINE
  5
D7D1
  8
0
 10
4392.4053562281669656
 20
223.1546041842090062
 30
0.0
 11
4392.4108220857242486
 21
223.2066083452768908
 31
0.0
  0
LINE
  5
D7D2
  8
0
 10
4392.304954027781605
 20
223.1475532272768021
 30
0.0
 11
4392.3975253470825919
 21
223.1475532272768021
 31
0.0
  0
ARC
  5
D7D3
  8
0
 10
4392.1724686246689089
 20
223.1554272431714878
 30
0.0
 40
0.0078740158945971
 50
186.0000005435117885
 51
269.9999986485216823
  0
ARC
  5
D7D4
  8
0
 10
4392.2651059984300446
 20
223.1553538818378115
 30
0.0
 40
0.0078009342257496
 50
269.5148404501578057
 51
354.4851594007432141
  0
LINE
  5
D7D5
  8
0
 10
4392.1591335474286097
 20
223.2066083452768908
 30
0.0
 11
4392.1646377434653914
 21
223.154604184316014
 31
0.0
  0
LINE
  5
D7D6
  8
0
 10
4392.2728570167419093
 20
223.1544728086736882
 30
0.0
 11
4392.2783366824260156
 21
223.2066083452768908
 31
0.0
  0
LINE
  5
D7D7
  8
0
 10
4392.1407636627682223
 20
223.1475532272768021
 30
0.0
 11
4392.2650399437816304
 21
223.1475532272768021
 31
0.0
  0
ARC
  5
D7D8
  8
0
 10
4391.8158731008188624
 20
223.1554272431714878
 30
0.0
 40
0.0078740158945971
 50
186.0000005435117885
 51
269.9999986485216823
  0
ARC
  5
D7D9
  8
0
 10
4391.9085104745799981
 20
223.1553538818378115
 30
0.0
 40
0.0078009342257496
 50
269.5148404501578057
 51
354.4851594007432141
  0
LINE
  5
D7DA
  8
0
 10
4391.8025380235776538
 20
223.2066083452768908
 30
0.0
 11
4391.8080434281200723
 21
223.1545927662338045
 31
0.0
  0
LINE
  5
D7DB
  8
0
 10
4391.9162614928918629
 20
223.1544728086736882
 30
0.0
 11
4391.9217411585750597
 21
223.2066083452768908
 31
0.0
  0
LINE
  5
D7DC
  8
0
 10
4391.7861495973784258
 20
223.1475532271768998
 30
0.0
 11
4391.908444419931584
 21
223.1475532272768021
 31
0.0
  0
ARC
  5
D7DD
  8
0
 10
4395.2649364052676901
 20
223.1554272430715002
 30
0.0
 40
0.0078740158945971
 50
186.0000005435117885
 51
269.9999986485216823
  0
ARC
  5
D7DE
  8
0
 10
4395.3575737790288258
 20
223.1553538817377103
 30
0.0
 40
0.0078009342257496
 50
269.5148404501578057
 51
354.4851594007432141
  0
LINE
  5
D7DF
  8
0
 10
4395.2516013280283005
 20
223.2066083451769032
 30
0.0
 11
4395.2571055240650821
 21
223.1546041842159127
 31
0.0
  0
LINE
  5
D7E0
  8
0
 10
4395.3653386054684233
 20
223.1546041841091039
 30
0.0
 11
4395.3708044630238874
 21
223.2066083451769032
 31
0.0
  0
LINE
  5
D7E1
  8
0
 10
4395.2649364050830627
 20
223.1475532271768998
 30
0.0
 11
4395.3575077243831402
 21
223.1475532271768998
 31
0.0
  0
ARC
  5
D7E2
  8
0
 10
4394.5436490846686866
 20
223.1554272430715002
 30
0.0
 40
0.0078740158945971
 50
186.0000005435117885
 51
269.9999986485216823
  0
ARC
  5
D7E3
  8
0
 10
4394.6362864584298222
 20
223.1553538817377103
 30
0.0
 40
0.0078009342257496
 50
269.5148404501578057
 51
354.4851594007432141
  0
LINE
  5
D7E4
  8
0
 10
4394.5303140074283874
 20
223.2066083451769032
 30
0.0
 11
4394.5358182034651691
 21
223.1546041842159127
 31
0.0
  0
LINE
  5
D7E5
  8
0
 10
4394.6440512848666913
 20
223.1546041841091039
 30
0.0
 11
4394.6495171424248838
 21
223.2066083451769032
 31
0.0
  0
LINE
  5
D7E6
  8
0
 10
4394.5436490844831496
 20
223.1475532271768998
 30
0.0
 11
4394.6362204037823176
 21
223.1475532271768998
 31
0.0
  0
ARC
  5
D7E7
  8
0
 10
4394.3147853009677419
 20
223.1554272430715002
 30
0.0
 40
0.0078740158945971
 50
186.0000005435117885
 51
269.9999986485216823
  0
LINE
  5
D7E8
  8
0
 10
4394.3014502237283523
 20
223.2066083451769032
 30
0.0
 11
4394.3069544197651339
 21
223.1546041842159127
 31
0.0
  0
LINE
  5
D7E9
  8
0
 10
4394.3147853007831145
 20
223.1475532271768998
 30
0.0
 11
4394.3346850247671682
 21
223.1475532272768021
 31
0.0
  0
ARC
  5
D7EA
  8
0
 10
4393.0819236936677044
 20
223.1554272431714878
 30
0.0
 40
0.0078740158945971
 50
186.0000005435117885
 51
269.9999986485216823
  0
ARC
  5
D7EB
  8
0
 10
4393.17456106742884
 20
223.1553538818378115
 30
0.0
 40
0.0078009342257496
 50
269.5148404501578057
 51
354.4851594007432141
  0
LINE
  5
D7EC
  8
0
 10
4393.0685886164283147
 20
223.2066083452768908
 30
0.0
 11
4393.0740928124641869
 21
223.154604184316014
 31
0.0
  0
LINE
  5
D7ED
  8
0
 10
4393.1823120857416143
 20
223.1544728086736882
 30
0.0
 11
4393.1877917514248111
 21
223.2066083452768908
 31
0.0
  0
LINE
  5
D7EE
  8
0
 10
4393.0755049116769442
 20
223.1475532272768021
 30
0.0
 11
4393.1744950127822449
 21
223.1475532272768021
 31
0.0
  0
ARC
  5
D7EF
  8
0
 10
4393.0755435845676402
 20
223.1554272430715002
 30
0.0
 40
0.0078740158945971
 50
186.0000005435117885
 51
269.9999986485216823
  0
LINE
  5
D7F0
  8
0
 10
4393.0622085073300696
 20
223.2066083451769032
 30
0.0
 11
4393.0677127033650322
 21
223.1546041842159127
 31
0.0
  0
ARC
  5
D7F1
  8
0
 10
4392.5317853957676562
 20
223.1554272431714878
 30
0.0
 40
0.0078740158945971
 50
186.0000005435117885
 51
269.9999986485216823
  0
ARC
  5
D7F2
  8
0
 10
4392.6244227695306108
 20
223.1553538818378115
 30
0.0
 40
0.0078009342257496
 50
269.5148404501578057
 51
354.4851594007432141
  0
LINE
  5
D7F3
  8
0
 10
4392.518450318529176
 20
223.2066083452768908
 30
0.0
 11
4392.5239557230706851
 21
223.1545927662338045
 31
0.0
  0
LINE
  5
D7F4
  8
0
 10
4392.6321737878415661
 20
223.1544728086732903
 30
0.0
 11
4392.6376534535247629
 21
223.2066083452768908
 31
0.0
  0
LINE
  5
D7F5
  8
0
 10
4392.4948493532683642
 20
223.1475532272768021
 30
0.0
 11
4392.6243567148821967
 21
223.1475532272768021
 31
0.0
  0
ARC
  5
D7F6
  8
0
 10
4392.4948493532683642
 20
223.1554272431714878
 30
0.0
 40
0.0078740158945971
 50
186.0000005435117885
 51
269.9999986485216823
  0
LINE
  5
D7F7
  8
0
 10
4392.4815142760280651
 20
223.2066083452768908
 30
0.0
 11
4392.4870196805713931
 21
223.1545927662338045
 31
0.0
  0
ARC
  5
D7F8
  8
0
 10
4392.1407636627682223
 20
223.1554272431714878
 30
0.0
 40
0.0078740158945971
 50
186.0000005435117885
 51
269.9999986485216823
  0
LINE
  5
D7F9
  8
0
 10
4392.1274285855288326
 20
223.2066083452768908
 30
0.0
 11
4392.1329339900721607
 21
223.1545927662338045
 31
0.0
  0
ARC
  5
D7FA
  8
0
 10
4391.8111868039686669
 20
223.1554272431714878
 30
0.0
 40
0.0078740158945971
 50
186.0000005435117885
 51
269.9999986485216823
  0
LINE
  5
D7FB
  8
0
 10
4391.7978517267283678
 20
223.2066083452768908
 30
0.0
 11
4391.8033571312716958
 21
223.1545927662222937
 31
0.0
  0
ARC
  5
D7FC
  8
0
 10
4391.7861879359688828
 20
223.1554272430715002
 30
0.0
 40
0.0078740158945971
 50
186.0000005435117885
 51
269.9999986485216823
  0
LINE
  5
D7FD
  8
0
 10
4391.7728528587276742
 20
223.2066083451769032
 30
0.0
 11
4391.7783582632710022
 21
223.1545927661339022
 31
0.0
  0
ARC
  5
D7FE
  8
0
 10
4391.4469448278678101
 20
223.1554272430715002
 30
0.0
 40
0.0078740158945971
 50
186.0000005435117885
 51
269.9999986485216823
  0
LINE
  5
D7FF
  8
0
 10
4391.4336097506284204
 20
223.2066083451769032
 30
0.0
 11
4391.4391139466642926
 21
223.1546041842159127
 31
0.0
  0
ARC
  5
D800
  8
0
 10
4391.4319022135678097
 20
223.1554272431714878
 30
0.0
 40
0.0078740158945971
 50
186.0000005435117885
 51
269.9999986485216823
  0
LINE
  5
D801
  8
0
 10
4391.41856713632842
 20
223.2066083452768908
 30
0.0
 11
4391.4240725408699291
 21
223.1545927662338045
 31
0.0
  0
ARC
  5
D802
  8
0
 10
4391.4481627027689683
 20
223.1554272430715002
 30
0.0
 40
0.0078740158945971
 50
186.0000005435117885
 51
269.9999986485216823
  0
ARC
  5
D803
  8
0
 10
4391.540800076530104
 20
223.1553538817377103
 30
0.0
 40
0.0078009342257496
 50
269.5148404501578057
 51
354.4851594007432141
  0
LINE
  5
D804
  8
0
 10
4391.4348276255286692
 20
223.2066083451769032
 30
0.0
 11
4391.4407605705018796
 21
223.1505533239979968
 31
0.0
  0
LINE
  5
D805
  8
0
 10
4391.5485510948410592
 20
223.1544728085742975
 30
0.0
 11
4391.5540307605251655
 21
223.2066083451769032
 31
0.0
  0
ARC
  5
D806
  8
0
 10
4393.62526593442999
 20
223.1553538818378115
 30
0.0
 40
0.0078009342257496
 50
269.5148404501578057
 51
354.4851594007432141
  0
LINE
  5
D807
  8
0
 10
4393.6330307608668591
 20
223.1546041842090062
 30
0.0
 11
4393.6384966184241421
 21
223.2066083452768908
 31
0.0
  0
LINE
  5
D808
  8
0
 10
4393.5410330570830411
 20
223.1475532272768021
 30
0.0
 11
4393.6251998797833949
 21
223.1475532272768021
 31
0.0
  0
ARC
  5
D809
  8
0
 10
4394.7134729841300214
 20
223.1553538818378115
 30
0.0
 40
0.0078009342257496
 50
269.5148404501578057
 51
354.4851594007432141
  0
LINE
  5
D80A
  8
0
 10
4394.7212378105677999
 20
223.1546041842090062
 30
0.0
 11
4394.7267036681250829
 21
223.2066083452768908
 31
0.0
  0
LINE
  5
D80B
  8
0
 10
4394.6362204037832271
 20
223.1475532271768998
 30
0.0
 11
4394.7134069294816072
 21
223.1475532272768021
 31
0.0
  0
ARC
  5
D80C
  8
0
 10
4395.422170734730571
 20
223.1553538816378079
 30
0.0
 40
0.0078009342257496
 50
269.5148404501578057
 51
354.4851594007432141
  0
LINE
  5
D80D
  8
0
 10
4395.42993556116744
 20
223.1546041840090027
 30
0.0
 11
4395.4354014187501889
 21
223.206608345326913
 31
0.0
  0
LINE
  5
D80E
  8
0
 10
4395.3575077243831402
 20
223.1475532271768998
 30
0.0
 11
4395.4221046800821568
 21
223.1475532270767985
 31
0.0
  0
LINE
  5
D80F
  8
0
 10
4391.4318638749782622
 20
223.1475532272768021
 30
0.0
 11
4391.5402292641792883
 21
223.1475532272768021
 31
0.0
  0
LINE
  5
D810
  8
0
 10
4390.6907221427773038
 20
224.8455907741769124
 30
0.0
 11
4391.5568638749782622
 21
224.8455907741769124
 31
0.0
  0
LINE
  5
D811
  8
0
 10
4406.4781237175793649
 20
226.5900516525769035
 30
0.0
 11
4406.4781237175793649
 21
216.6136752745769058
 31
0.0
  0
LINE
  5
D812
  8
0
 10
4407.265525292377788
 20
216.6136752745769058
 30
0.0
 11
4407.265525292377788
 21
226.5900498867135866
 31
0.0
  0
LINE
  5
D813
  8
0
 10
4406.6526218907320072
 20
216.6136752745769058
 30
0.0
 11
4406.6526225978486764
 21
216.1806044084767962
 31
0.0
  0
LINE
  5
D814
  8
0
 10
4407.0910278182345792
 20
216.1806044084767962
 30
0.0
 11
4407.0910269334681288
 21
216.6136752745769058
 31
0.0
  0
LINE
  5
D815
  8
0
 10
4390.32458041047812
 20
223.6790492901768914
 30
0.0
 11
4390.3363914340779957
 21
223.6908603138768967
 31
0.0
  0
LINE
  5
D816
  8
0
 10
4406.2419182057783473
 20
216.6136752745769058
 30
0.0
 11
4407.5017308041769866
 21
216.6136752745769058
 31
0.0
  0
ARC
  5
D817
  8
0
 10
4406.2419182057783473
 20
216.5939752745769056
 30
0.0
 40
0.0197
 50
90.0
 51
180.0
  0
ARC
  5
D818
  8
0
 10
4407.5017308041769866
 20
216.5939752745769056
 30
0.0
 40
0.0197
 50
359.9999999999608917
 51
90.0000000000521254
  0
LINE
  5
D819
  8
0
 10
4406.2419182057783473
 20
216.1806044084767962
 30
0.0
 11
4407.5017308041769866
 21
216.1806044084767962
 31
0.0
  0
ARC
  5
D81A
  8
0
 10
4407.5017308041769866
 20
216.2003044084769101
 30
0.0
 40
0.0197
 50
269.9999999999478746
 51
0.0
  0
LINE
  5
D81B
  8
0
 10
4409.7261552135996681
 20
167.4055941186774987
 30
0.0
 11
4409.7261552134996236
 21
169.964164318184686
 31
0.0
  0
ARC
  5
D81C
  8
0
 10
4409.7061719203429675
 20
169.964044052894991
 30
0.0
 40
0.0199836550502034
 50
0.3448185579732302
 51
88.3394282778469346
  0
LINE
  5
D81D
  8
0
 10
4409.7067510144270273
 20
169.984019315576802
 30
0.0
 11
4409.5844229290923977
 21
169.984019315576802
 31
0.0
  0
ARC
  5
D81E
  8
0
 10
4409.5849608822873051
 20
169.7863366566483023
 30
0.0
 40
0.1976833908923188
 50
90.1559184384176575
 51
141.944267732851614
  0
LINE
  5
D81F
  8
0
 10
4409.4293027030107623
 20
169.9081941728680079
 30
0.0
 11
4409.4017319996000879
 21
169.8729052817461138
 31
0.0
  0
LINE
  5
D820
  8
0
 10
4408.9387534795896499
 20
168.7842361533060966
 30
0.0
 11
4408.938753252899005
 21
168.1160699362552862
 31
0.0
  0
LINE
  5
D821
  8
0
 10
4408.8962148409545989
 20
169.1984182918552051
 30
0.0
 11
4408.8836355285766331
 21
169.1984182918552051
 31
0.0
  0
LINE
  5
D822
  8
0
 10
4409.0180450069801736
 20
167.9874692024210106
 30
0.0
 11
4408.9554457054009617
 21
168.0675926546551864
 31
0.0
  0
ARC
  5
D823
  8
0
 10
4409.0174970684411164
 20
168.1160716896501981
 30
0.0
 40
0.0787438155620308
 50
180.0012758097516894
 51
217.999539549384707
  0
LINE
  5
D824
  8
0
 10
4408.9387532714872577
 20
168.1708592368551933
 30
0.0
 11
4408.8836355285766331
 21
168.1708592368551933
 31
0.0
  0
LINE
  5
D825
  8
0
 10
4408.3324544261777191
 20
169.2556728589268005
 30
0.0
 11
4408.8836355285766331
 21
169.2556728589268005
 31
0.0
  0
LINE
  5
D826
  8
0
 10
4408.8836355285766331
 20
169.2556728589268005
 30
0.0
 11
4408.8836355285766331
 21
168.1139405754267955
 31
0.0
  0
LINE
  5
D827
  8
0
 10
4408.8836355285766331
 20
168.1139405754267955
 30
0.0
 11
4408.3324544261777191
 21
168.1139405754267955
 31
0.0
  0
LINE
  5
D828
  8
0
 10
4408.3324544261777191
 20
168.1139405754267955
 30
0.0
 11
4408.3324544261777191
 21
169.2556728589268005
 31
0.0
  0
LINE
  5
D829
  8
0
 10
4408.3718245049767575
 20
168.7834911073267961
 30
0.0
 11
4408.8442654498776392
 21
168.7834911073267961
 31
0.0
  0
LINE
  5
D82A
  8
0
 10
4408.8442654498776392
 20
168.7834911073267961
 30
0.0
 11
4408.8442654498776392
 21
168.5861223270266862
 31
0.0
  0
LINE
  5
D82B
  8
0
 10
4408.8442654498776392
 20
168.5861223270266862
 30
0.0
 11
4408.3718245049767575
 21
168.5861223270266862
 31
0.0
  0
LINE
  5
D82C
  8
0
 10
4408.3718245049767575
 20
168.5861223270266862
 30
0.0
 11
4408.3718245049767575
 21
168.7834911073267961
 31
0.0
  0
LINE
  5
D82D
  8
0
 10
4408.3718245049767575
 20
168.2126249655267998
 30
0.0
 11
4408.8442654498776392
 21
168.2126249655267998
 31
0.0
  0
LINE
  5
D82E
  8
0
 10
4408.8442654498776392
 20
168.2126249655267998
 30
0.0
 11
4408.8442654498776392
 21
168.1139405754267955
 31
0.0
  0
LINE
  5
D82F
  8
0
 10
4408.3718245049767575
 20
168.1139405754267955
 30
0.0
 11
4408.3718245049767575
 21
168.2126249655267998
 31
0.0
  0
LINE
  5
D830
  8
0
 10
4408.8442654498776392
 20
169.2556728589268005
 30
0.0
 11
4408.8442654498776392
 21
169.1569884687268086
 31
0.0
  0
LINE
  5
D831
  8
0
 10
4408.8442654498776392
 20
169.1569884687268086
 30
0.0
 11
4408.3718245049767575
 21
169.1569884687268086
 31
0.0
  0
LINE
  5
D832
  8
0
 10
4408.3718245049767575
 20
169.1569884687268086
 30
0.0
 11
4408.3718245049767575
 21
169.2556728589268005
 31
0.0
  0
ARC
  5
D833
  8
0
 10
4408.7950528506426053
 20
168.9702397880267881
 30
0.0
 40
0.4625984244653842
 50
156.1906237368525012
 51
203.809376263146703
  0
ARC
  5
D834
  8
0
 10
4408.795052850879074
 20
168.399373646276814
 30
0.0
 40
0.4625984247025615
 50
156.1906237430476949
 51
203.8093762569523051
  0
ARC
  5
D835
  8
0
 10
4408.4210371028002555
 20
168.399373646276814
 30
0.0
 40
0.4625984257775992
 50
336.1906238017987221
 51
23.8093761982013099
  0
ARC
  5
D836
  8
0
 10
4408.4210371030376336
 20
168.9702397880267881
 30
0.0
 40
0.4625984255404204
 50
336.1906237956035284
 51
23.8093762043987383
  0
LINE
  5
D837
  8
0
 10
4407.3639504891780234
 20
179.2396595265767871
 30
0.0
 11
4406.3796985206781756
 21
179.2396595265767871
 31
0.0
  0
LINE
  5
D838
  8
0
 10
4407.3639504891780234
 20
179.2987146446768918
 30
0.0
 11
4406.3796985206781756
 21
179.2987146446768918
 31
0.0
  0
LINE
  5
D839
  8
0
 10
4409.3127544261778894
 20
179.3065886604813102
 30
0.0
 11
4408.3922017660943311
 21
179.3065886604811965
 31
0.0
  0
LINE
  5
D83A
  8
0
 10
4407.8162245045396048
 20
179.3065886604811965
 30
0.0
 11
4406.3993985206780053
 21
179.3065886604811112
 31
0.0
  0
LINE
  5
D83B
  8
0
 10
4406.4273046208054438
 20
179.0191870856768901
 30
0.0
 11
4407.31634438914989
 21
179.0191870856768901
 31
0.0
  0
LINE
  5
D83C
  8
0
 10
4409.3127544261778894
 20
182.1806044084767962
 30
0.0
 11
4408.135414346314974
 21
182.1806044084767962
 31
0.0
  0
LINE
  5
D83D
  8
0
 10
4407.5608921053017184
 20
182.1806044084767962
 30
0.0
 11
4406.37969852077822
 21
182.1806044084767962
 31
0.0
  0
LINE
  5
D83E
  8
0
 10
4409.3324544261768096
 20
179.3262886604813957
 30
0.0
 11
4409.3324544261768096
 21
182.1609044084769096
 31
0.0
  0
ARC
  5
D83F
  8
0
 10
4409.3127544261778894
 20
179.3262886604813104
 30
0.0
 40
0.0197
 50
269.9999999999478746
 51
0.0000000000260551
  0
ARC
  5
D840
  8
0
 10
4406.3993985206780053
 20
179.3262886604811115
 30
0.0
 40
0.0197
 50
180.0000000000129887
 51
269.9999999999478746
  0
ARC
  5
D841
  8
0
 10
4409.3127544261778894
 20
182.1609044084769096
 30
0.0
 40
0.0197
 50
359.9999999999805027
 51
90.0000000000521254
  0
LINE
  5
D842
  8
0
 10
4406.3796985206781756
 20
179.2396595265767871
 30
0.0
 11
4406.3796985206781756
 21
179.2987146446768918
 31
0.0
  0
LINE
  5
D843
  8
0
 10
4407.3639504891780234
 20
179.2987146446768918
 30
0.0
 11
4407.3639504891780234
 21
179.2396595265767871
 31
0.0
  0
LINE
  5
D844
  8
0
 10
4406.5568638750783066
 20
179.3065886604811112
 30
0.0
 11
4406.5568638750783066
 21
179.2987146446768918
 31
0.0
  0
LINE
  5
D845
  8
0
 10
4407.1867851348779368
 20
179.3065886604811965
 30
0.0
 11
4407.1867851348779368
 21
179.2987146446768918
 31
0.0
  0
LINE
  5
D846
  8
0
 10
4407.3242375404279301
 20
179.0109582043737078
 30
0.0
 11
4407.2663119539847685
 21
177.6207441292463045
 31
0.0
  0
LINE
  5
D847
  8
0
 10
4406.4194114695283133
 20
179.0109582043737078
 30
0.0
 11
4406.4773370559696559
 21
177.6207441292463045
 31
0.0
  0
ARC
  5
D848
  8
0
 10
4406.4273046208054438
 20
179.0112870856767984
 30
0.0
 40
0.0079
 50
90.0000000001042082
 51
182.3859440295514105
  0
ARC
  5
D849
  8
0
 10
4407.31634438914989
 20
179.0112870856767984
 30
0.0
 40
0.0079
 50
357.6140559704551265
 51
90.0000000002084306
  0
LINE
  5
D84A
  8
0
 10
4407.2753678120780023
 20
179.0191870856768901
 30
0.0
 11
4407.2753678120780023
 21
179.2396595265767871
 31
0.0
  0
LINE
  5
D84B
  8
0
 10
4406.4682811978782411
 20
179.0191870856768901
 30
0.0
 11
4406.4682811978782411
 21
179.2396595265767871
 31
0.0
  0
LINE
  5
D84C
  8
0
 10
4407.2466290324446163
 20
177.6018642509768029
 30
0.0
 11
4406.4970199775107176
 21
177.6018642509768029
 31
0.0
  0
ARC
  5
D84D
  8
0
 10
4407.2466290324446163
 20
177.6215642509768884
 30
0.0
 40
0.0197
 50
270.0
 51
357.6140559704421094
  0
ARC
  5
D84E
  8
0
 10
4406.4970199775107176
 20
177.6215642509768884
 30
0.0
 40
0.0197
 50
182.3859440295252909
 51
270.0000000000521254
  0
LINE
  5
D84F
  8
0
 10
4408.5347701405826228
 20
177.8380847234768112
 30
0.0
 11
4408.9001723395485897
 21
177.8380847234768112
 31
0.0
  0
LINE
  5
D850
  8
0
 10
4408.9777808475282654
 20
179.2471786767737001
 30
0.0
 11
4408.9198552610878323
 21
177.8569646017463128
 31
0.0
  0
LINE
  5
D851
  8
0
 10
4408.9698876962502254
 20
179.2554075580767972
 30
0.0
 11
4408.3970613163646703
 21
179.2554075580767972
 31
0.0
  0
LINE
  5
D852
  8
0
 10
4408.8796985206781756
 20
179.3065886604813102
 30
0.0
 11
4408.8796985206781756
 21
179.2554075580767972
 31
0.0
  0
ARC
  5
D853
  8
0
 10
4408.9698876962502254
 20
179.2475075580769044
 30
0.0
 40
0.0079
 50
357.6140559704224984
 51
90.0000000002084306
  0
ARC
  5
D854
  8
0
 10
4408.9001723395485897
 20
177.8577847234768967
 30
0.0
 40
0.0197
 50
270.0000000000521254
 51
357.6140559704551265
  0
LINE
  5
D855
  8
0
 10
4408.1344233328909468
 20
182.1924154320768139
 30
0.0
 11
4408.4984234908779399
 21
182.1924154320768992
 31
0.0
  0
LINE
  5
D856
  8
0
 10
4408.517670745891337
 20
182.1924154320768992
 30
0.0
 11
4409.0371788356696925
 21
182.1924154320768992
 31
0.0
  0
LINE
  5
D857
  8
0
 10
4408.1336051512962513
 20
182.5625669802479081
 30
0.0
 11
4408.1318290699391582
 21
182.2233635155625109
 31
0.0
  0
LINE
  5
D858
  8
0
 10
4409.023440870711056
 20
182.5743051958768035
 30
0.0
 11
4408.1454049895446587
 21
182.5743051958768035
 31
0.0
  0
LINE
  5
D859
  8
0
 10
4409.035240708960373
 20
182.5625669802508071
 30
0.0
 11
4409.0371825509409973
 21
182.1917058742079973
 31
0.0
  0
ARC
  5
D85A
  8
0
 10
4409.023440870711056
 20
182.5625051958768097
 30
0.0
 40
0.0118
 50
0.3000000038622528
 51
90.0
  0
ARC
  5
D85B
  8
0
 10
4408.1454049895446587
 20
182.5625051958768097
 30
0.0
 40
0.0118
 50
89.9999999998957776
 51
179.7000000105269919
  0
ARC
  5
D85C
  8
0
 10
4409.0490311350249613
 20
182.1924650323859112
 30
0.0
 40
0.0118728794386119
 50
183.6660241257384882
 51
267.3964685356809241
  0
LINE
  5
D85D
  8
0
 10
4408.4984234908779399
 20
182.1924154320768992
 30
0.0
 11
4408.4983794278878122
 21
182.1806044084767962
 31
0.0
  0
ARC
  5
D85E
  8
0
 10
4408.5156588993786499
 20
182.1651213885743061
 30
0.0
 40
0.027368089759171
 50
85.7843464734143311
 51
129.0935226437210019
  0
LINE
  5
D85F
  8
0
 10
4407.3639504891780234
 20
182.1806044084767962
 30
0.0
 11
4407.3639504891780234
 21
184.1003360374089084
 31
0.0
  0
LINE
  5
D860
  8
0
 10
4409.7261552135778402
 20
185.7829666131769102
 30
0.0
 11
4409.7261552135778402
 21
183.3026516525767988
 31
0.0
  0
LINE
  5
D861
  8
0
 10
4409.7261552135778402
 20
183.3026516525767988
 30
0.0
 11
4409.351638740296039
 21
183.312458711576312
 31
0.0
  0
LINE
  5
D862
  8
0
 10
4409.3324544261768096
 20
183.3321519608784058
 30
0.0
 11
4409.3324544261768096
 21
185.7534663048753032
 31
0.0
  0
LINE
  5
D863
  8
0
 10
4409.7261552135778402
 20
185.7829666131769102
 30
0.0
 11
4409.351638740296039
 21
185.7731595541773117
 31
0.0
  0
ARC
  5
D864
  8
0
 10
4409.3521544261766394
 20
183.3321519608784058
 30
0.0
 40
0.0197
 50
179.9999999999934914
 51
268.4999999994369091
  0
ARC
  5
D865
  8
0
 10
4409.3521544261766394
 20
185.7534663048753032
 30
0.0
 40
0.0197
 50
91.5000000006152163
 51
179.9999999999934914
  0
LINE
  5
D866
  8
0
 10
4409.3324544261768096
 20
184.0900532273768988
 30
0.0
 11
4407.981934921291213
 21
184.0900532273768988
 31
0.0
  0
LINE
  5
D867
  8
0
 10
4407.4084294643143949
 20
184.0900532273768988
 30
0.0
 11
4407.3639504891780234
 21
184.0900532273768988
 31
0.0
  0
LINE
  5
D868
  8
0
 10
4409.3324544261768096
 20
184.9955650383768102
 30
0.0
 11
4407.9138844185217749
 21
184.9955650383768102
 31
0.0
  0
ARC
  5
D869
  8
0
 10
4408.3707967147165618
 20
185.0842166073244073
 30
0.0
 40
1.4077500835519361
 50
208.3957911853223095
 51
224.3390470378417945
  0
ARC
  5
D86A
  8
0
 10
4407.353829983057949
 20
184.543519389383988
 30
0.0
 40
0.2561319975364424
 50
148.2514444130279969
 51
210.1824873791208859
  0
ARC
  5
D86B
  8
0
 10
4408.4156757527125592
 20
183.9680368947794875
 30
0.0
 40
1.4635482562877149
 50
137.1198221227031127
 51
150.967993292057713
  0
LINE
  5
D86C
  8
0
 10
4406.5178843306530325
 20
205.9580224332111982
 30
0.0
 11
4406.5178843306530325
 21
207.2043531463073123
 31
0.0
  0
LINE
  5
D86D
  8
0
 10
4407.2257819326514436
 20
205.9580472921726084
 30
0.0
 11
4407.2257819326514436
 21
207.2039368933617993
 31
0.0
  0
LINE
  5
D86E
  8
0
 10
4407.2257819326514436
 20
206.3026516525769125
 30
0.0
 11
4406.5178843306530325
 21
206.3026516525769125
 31
0.0
  0
ARC
  5
D86F
  8
0
 10
4406.8718125427767518
 20
206.5900532273768988
 30
0.0
 40
0.7658592372745688
 50
122.1064858259064039
 51
248.0764824982690016
  0
ARC
  5
D870
  8
0
 10
4406.8718125427767518
 20
206.5900532273768988
 30
0.0
 40
0.7658592372745688
 50
291.8297872973835752
 51
57.9061566944575432
  0
ARC
  5
D871
  8
0
 10
4406.4902843306526847
 20
205.9580224332113119
 30
0.0
 40
0.0276
 50
238.8825317124641003
 51
359.9999999999478746
  0
ARC
  5
D872
  8
0
 10
4407.2533819326499724
 20
205.9580472921726937
 30
0.0
 40
0.0276
 50
180.0000000000715943
 51
301.1212012662275015
  0
LINE
  5
D873
  8
0
 10
4407.1572534129782071
 20
206.3026516525769125
 30
0.0
 11
4407.1560700605086822
 21
205.5383238041023048
 31
0.0
  0
ARC
  5
D874
  8
0
 10
4406.4800966092234376
 20
207.2057754295404095
 30
0.0
 40
0.0378144784477408
 50
357.8444750287168858
 51
88.1735007393391044
  0
ARC
  5
D875
  8
0
 10
4406.4839646983273269
 20
207.2034079905110957
 30
0.0
 40
0.0402508821718096
 50
93.7932154747605864
 51
118.4935916826790958
  0
ARC
  5
D876
  8
0
 10
4407.2635516899317736
 20
207.2057754295404095
 30
0.0
 40
0.0378144784477408
 50
91.8264992606608956
 51
182.7868137894836877
  0
ARC
  5
D877
  8
0
 10
4407.2596836008287937
 20
207.2034079905110957
 30
0.0
 40
0.0402508821718096
 50
61.7755251282566391
 51
86.2067845252394136
  0
LINE
  5
D878
  8
0
 10
4406.4397994652999841
 20
207.2224337079481131
 30
0.0
 11
4406.4333402529782688
 21
207.3774548021769135
 31
0.0
  0
LINE
  5
D879
  8
0
 10
4407.3103087568779301
 20
207.3774548021769135
 30
0.0
 11
4407.3038488825295644
 21
207.2224178156104983
 31
0.0
  0
CIRCLE
  5
D87A
  8
0
 10
4391.1237930088782377
 20
224.7262933848768967
 30
0.0
 40
0.0236220472
  0
LINE
  5
D87B
  8
0
 10
4391.5210174287776681
 20
225.6514902351769933
 30
0.0
 11
4391.4884270333286622
 21
225.6840806297390998
 31
0.0
  0
LINE
  5
D87C
  8
0
 10
4390.7265685890770328
 20
225.6514902351769081
 30
0.0
 11
4390.7596073679778783
 21
225.6845290131772117
 31
0.0
  0
LINE
  5
D87D
  8
0
 10
4391.4884270333286622
 20
225.6840806297390998
 30
0.0
 11
4390.7596073679778783
 21
225.6845290131772117
 31
0.0
  0
LINE
  5
D87E
  8
0
 10
4391.4884270333286622
 20
225.6840806297390998
 30
0.0
 11
4391.4884270333286622
 21
225.8026516525767988
 31
0.0
  0
LINE
  5
D87F
  8
0
 10
4409.4293027030107623
 20
169.9081941728680079
 30
0.0
 11
4409.4292430863379195
 21
169.6202084773728131
 31
0.0
  0
LINE
  5
D880
  8
0
 10
4408.3009583631774149
 20
168.2635468746267122
 30
0.0
 11
4408.2143441899770551
 21
168.2635468746267122
 31
0.0
  0
LINE
  5
D881
  8
0
 10
4408.3009583631774149
 20
168.2635468746267122
 30
0.0
 11
4408.3324544261777191
 21
168.2761452998267941
 31
0.0
  0
LINE
  5
D882
  8
0
 10
4408.3009583631774149
 20
169.1060665596268109
 30
0.0
 11
4408.2143441899770551
 21
169.1060665596268109
 31
0.0
  0
LINE
  5
D883
  8
0
 10
4408.3009583631774149
 20
169.1060665596268109
 30
0.0
 11
4408.3324544261777191
 21
169.0934681344267858
 31
0.0
  0
LINE
  5
D884
  8
0
 10
4408.3009583631774149
 20
169.1060665596268109
 30
0.0
 11
4408.3009583631774149
 21
168.2635468746267122
 31
0.0
  0
ARC
  5
D885
  8
0
 10
4426.4728863494601683
 20
178.4514758261626071
 30
0.0
 40
19.3349959460501495
 50
182.5184818633742907
 51
184.492772850044588
  0
ARC
  5
D886
  8
0
 10
4420.4268546386756498
 20
178.0769262481429109
 30
0.0
 40
13.8475749924256206
 50
181.9660041178489962
 51
188.2399963999060901
  0
ARC
  5
D887
  8
0
 10
4407.4286713685623909
 20
182.3969874702063976
 30
0.0
 40
0.1352817387107765
 50
147.8263600311078108
 51
211.4004816570271998
  0
ARC
  5
D888
  8
0
 10
4407.3257086765797794
 20
182.3341375865383043
 30
0.0
 40
0.0146524561235733
 50
211.4004816570271998
 51
311.6376100859923781
  0
ARC
  5
D889
  8
0
 10
4407.1458034522293019
 20
182.3980846230138866
 30
0.0
 40
0.2038951033904232
 50
338.4486709633221722
 51
20.5137602955869802
  0
ARC
  5
D88A
  8
0
 10
4407.3256067439479011
 20
182.4630956079595876
 30
0.0
 40
0.0128871706644871
 50
29.9839059296698984
 51
152.6153006193856072
  0
LINE
  5
D88B
  8
0
 10
4405.257458746868906
 20
216.7734962064311901
 30
0.0
 11
4404.5167616800681571
 21
216.4036403947312124
 31
0.0
  0
LINE
  5
D88C
  8
0
 10
4406.3947259621781996
 20
207.377527303531906
 30
0.0
 11
4407.3488457199928234
 21
207.3775273035319913
 31
0.0
  0
LINE
  5
D88D
  8
0
 10
4407.378036070732378
 20
207.9789684286369891
 30
0.0
 11
4407.378370848969098
 21
207.4070548625313108
 31
0.0
  0
ARC
  5
D88E
  8
0
 10
4407.346396871408615
 20
207.409501079659492
 30
0.0
 40
0.0320674167847265
 50
274.3796923812367936
 51
355.6250230734497109
  0
ARC
  5
D88F
  8
0
 10
4406.3947283922670977
 20
207.4070536017308086
 30
0.0
 40
0.029526298298801
 50
180.7149634599796002
 51
269.9952844117431141
  0
ARC
  5
D890
  8
0
 10
4371.2446799713197834
 20
196.9948072994895085
 30
0.0
 40
39.3734642794632208
 50
24.1794601182893309
 51
30.1353296061967484
  0
ARC
  5
D891
  8
0
 10
4406.5443617000164522
 20
212.8215359006846938
 30
0.0
 40
0.6884665815198482
 50
357.9591710369015232
 51
25.8780150567018303
  0
ARC
  5
D892
  8
0
 10
4404.5299638796232102
 20
216.3772196711975937
 30
0.0
 40
0.0295356175680754
 50
116.5508890187516045
 51
194.283982016907089
  0
ARC
  5
D893
  8
0
 10
4404.5539343953605567
 20
216.2912419350332982
 30
0.0
 40
0.018929489456881
 50
154.672285722661087
 51
189.6845237751811055
  0
ARC
  5
D894
  8
0
 10
4403.1441466157721152
 20
215.6728389759680056
 30
0.0
 40
1.5210953845966471
 50
17.0474790187633083
 51
23.8571417282715394
  0
LINE
  5
D895
  8
0
 10
4406.4658473845684057
 20
212.3062949491313134
 30
0.0
 11
4406.4662696169689298
 21
212.2444620306312117
 31
0.0
  0
ARC
  5
D896
  8
0
 10
4406.4520342107252873
 20
212.2440071762628122
 30
0.0
 40
0.0142426712171791
 50
279.443333356697508
 51
1.8301108872234479
  0
ARC
  5
D897
  8
0
 10
4406.1376183376896734
 20
202.4298006963302043
 30
0.0
 40
9.8052743956928765
 50
88.1487768702262144
 51
89.9407312568819179
  0
ARC
  5
D898
  8
0
 10
4406.1481504887642586
 20
212.2567548376489981
 30
0.0
 40
0.0216884847558882
 50
179.8300562992176879
 51
268.9716746994059235
  0
LINE
  5
D899
  8
0
 10
4406.126462099411583
 20
212.2568191672731075
 30
0.0
 11
4406.1244834262042787
 21
212.9945965822784046
 31
0.0
  0
ARC
  5
D89A
  8
0
 10
4405.775209377666215
 20
212.3190686322867009
 30
0.0
 40
0.6907561245180968
 50
358.9404077257078143
 51
23.7646476282787518
  0
ARC
  5
D89B
  8
0
 10
4406.4256164705720948
 20
212.6045152121494084
 30
0.0
 40
0.0195502748858029
 50
126.7170580182048951
 51
201.2482609210262865
  0
ARC
  5
D89C
  8
0
 10
819.423039551018519
 20
211.7443521107043978
 30
0.0
 40
3587.8095064654548878
 50
359.9456226210623981
 51
0.0168106306165944
  0
ARC
  5
D89D
  8
0
 10
4407.6789317884267803
 20
208.3238210536426891
 30
0.0
 40
0.4482685896939009
 50
178.0223430649037084
 51
225.9661991042140983
  0
LINE
  5
D89E
  8
0
 10
4406.3626078738270735
 20
211.6876775829952066
 30
0.0
 11
4406.365204392740452
 21
207.4066851683710127
 31
0.0
  0
ARC
  5
D89F
  8
0
 10
4405.8858153321552891
 20
212.3159931740370894
 30
0.0
 40
0.6094561047013732
 50
1.0264579902562541
 51
29.9419879119286207
  0
ARC
  5
D8A0
  8
0
 10
4406.3926239292877653
 20
211.687589092429107
 30
0.0
 40
0.0300161859006003
 50
133.9069176950318081
 51
179.8310863569872993
  0
ARC
  5
D8A1
  8
0
 10
4406.0454958642858401
 20
212.0195655217370927
 30
0.0
 40
0.4503301252340076
 50
316.4361304526124172
 51
1.9325702013824499
  0
LINE
  5
D8A2
  8
0
 10
4406.4955698449693955
 20
212.0347521476311954
 30
0.0
 11
4406.4951736370676372
 21
212.3269110397311863
 31
0.0
  0
ARC
  5
D8A3
  8
0
 10
4407.3483836273726411
 20
207.9787512363062945
 30
0.0
 40
0.0296532387729632
 50
0.4196612467852521
 51
50.2424093175951327
  0
ARC
  5
D8A4
  8
0
 10
4405.2704429472942138
 20
216.7455031160876047
 30
0.0
 40
0.0308577796944902
 50
32.3682887927078227
 51
114.8835633476895026
  0
ARC
  5
D8A5
  8
0
 10
4749.7720095626709735
 20
390.1152594007069183
 30
0.0
 40
386.5220213287223032
 50
206.7122194054437045
 51
207.336191267184887
  0
ARC
  5
D8A6
  8
0
 10
4405.7999501877884541
 20
214.6296265716410971
 30
0.0
 40
0.4760028772711133
 50
202.8174304105912995
 51
207.2785554224028033
  0
ARC
  5
D8A7
  8
0
 10
4405.5030404901899601
 20
214.504710927535001
 30
0.0
 40
0.1538859937173968
 50
192.7241543678007929
 51
202.817430410593488
  0
ARC
  5
D8A8
  8
0
 10
4405.3683204121389281
 20
214.4742907622448911
 30
0.0
 40
0.0157741336685405
 50
165.173030104090202
 51
192.7241543677984055
  0
ARC
  5
D8A9
  8
0
 10
4405.3673589449490464
 20
214.4745452770631005
 30
0.0
 40
0.0147795498609997
 50
121.3603418572241992
 51
165.1730301040871041
  0
LINE
  5
D8AA
  8
0
 10
4405.3596673906913566
 20
214.4871657004790961
 30
0.0
 11
4405.4098609014818066
 21
214.5141430014508046
 31
0.0
  0
ARC
  5
D8AB
  8
0
 10
4405.2122984971992992
 20
214.3290239957673862
 30
0.0
 40
0.2655356843020727
 50
26.894271570641191
 51
37.1441290410292027
  0
ARC
  5
D8AC
  8
0
 10
4405.1425874092110462
 20
214.3456633415111128
 30
0.0
 40
0.3159438486253768
 50
27.0532288994008709
 51
32.2258663198587314
  0
ARC
  5
D8AD
  8
0
 10
4405.2612854157196125
 20
214.3532422515401947
 30
0.0
 40
0.1399908709702603
 50
26.794387470241201
 51
34.2985899267694521
  0
ARC
  5
D8AE
  8
0
 10
4405.3584320721829499
 20
214.4195074055961072
 30
0.0
 40
0.0223960432619965
 50
34.2992209983286003
 51
44.4208353857400624
  0
ARC
  5
D8AF
  8
0
 10
4405.3704373277705599
 20
214.4312723757273886
 30
0.0
 40
0.0055870967181137
 50
44.4208353857586573
 51
57.1120041808757577
  0
ARC
  5
D8B0
  8
0
 10
4405.373081506593735
 20
214.4353615321749942
 30
0.0
 40
0.0007175092511611
 50
57.1120041807338694
 51
111.4145415186495001
  0
ARC
  5
D8B1
  8
0
 10
4405.3731847125209242
 20
214.4355615767956067
 30
0.0
 40
0.0005935600035988
 50
127.9688808631536006
 51
172.1845316094131988
  0
ARC
  5
D8B2
  8
0
 10
4405.3819543293511742
 20
214.435362888403688
 30
0.0
 40
0.0093618336440673
 50
178.2897623024888105
 51
199.0765573487256859
  0
ARC
  5
D8B3
  8
0
 10
4405.4898550670959594
 20
214.4716415033774126
 30
0.0
 40
0.1231978308978852
 50
198.6212289034909872
 51
208.0618676327653986
  0
ARC
  5
D8B4
  8
0
 10
4405.7979097834413551
 20
214.633538795333493
 30
0.0
 40
0.4760028772711133
 50
207.8096643212113008
 51
212.2707893330189108
  0
ARC
  5
D8B5
  8
0
 10
4405.5255489587134434
 20
214.4615537150976934
 30
0.0
 40
0.1538859937173968
 50
212.2707893330168076
 51
222.3640653758054953
  0
ARC
  5
D8B6
  8
0
 10
4405.4235011296068478
 20
214.3684885419083912
 30
0.0
 40
0.0157741336685405
 50
222.3640653758054953
 51
249.9151896395165977
  0
ARC
  5
D8B7
  8
0
 10
4405.4231595788651248
 20
214.3675544433903895
 30
0.0
 40
0.0147795498609997
 50
249.9151896395165977
 51
293.7278778863973798
  0
LINE
  5
D8B8
  8
0
 10
4405.4291067700360145
 20
214.35402425450539
 30
0.0
 11
4405.4799555535082618
 21
214.3797451509259133
 31
0.0
  0
ARC
  5
D8B9
  8
0
 10
4405.2150838072666375
 20
214.3236835072243025
 30
0.0
 40
0.2655356843020727
 50
17.9440907025866387
 51
28.1939481729748493
  0
ARC
  5
D8BA
  8
0
 10
4405.1888319745876288
 20
214.2569950907156908
 30
0.0
 40
0.3159438486253768
 50
22.8623534237633486
 51
28.0349908442035911
  0
ARC
  5
D8BB
  8
0
 10
4405.4320938427499641
 20
214.3587026712864088
 30
0.0
 40
0.0522831646512264
 50
6.7672037043321041
 51
23.7327702081705212
  0
ARC
  5
D8BC
  8
0
 10
4405.4767464230835685
 20
214.3641439394600923
 30
0.0
 40
0.0073018735138627
 50
337.399005713957024
 51
5.655275529231055
  0
ARC
  5
D8BD
  8
0
 10
4405.4817786893681841
 20
214.3623385124624008
 30
0.0
 40
0.0019803277503879
 50
275.3840623160502901
 51
329.6451698796257119
  0
ARC
  5
D8BE
  8
0
 10
4405.501559698453093
 20
214.3982641377048139
 30
0.0
 40
0.0426634566966164
 50
216.0409254972506972
 51
242.6582547743832095
  0
ARC
  5
D8BF
  8
0
 10
4405.2629795288703463
 20
214.3499939981703903
 30
0.0
 40
0.1399908711282217
 50
20.7896298189612914
 51
28.2938322882946203
  0
ARC
  5
D8C0
  8
0
 10
4405.3729176620890939
 20
214.3917330734524
 30
0.0
 40
0.0223960432619965
 50
10.6673843578669008
 51
20.7889987452767997
  0
ARC
  5
D8C1
  8
0
 10
4405.3894361219354323
 20
214.3948445310311115
 30
0.0
 40
0.0055870967181137
 50
357.976215562722075
 51
10.6673843578308993
  0
ARC
  5
D8C2
  8
0
 10
4405.3943026720125999
 20
214.3946725646781033
 30
0.0
 40
0.0007175092511611
 50
303.6736782249528801
 51
357.9762155628815776
  0
ARC
  5
D8C3
  8
0
 10
4405.3945257816940284
 20
214.3946427086355868
 30
0.0
 40
0.0005935600035988
 50
242.903688134178708
 51
287.1193388804617257
  0
ARC
  5
D8C4
  8
0
 10
4405.399381829180129
 20
214.401947806803804
 30
0.0
 40
0.0093618336440673
 50
216.0116623948715073
 51
236.7984574411256062
  0
ARC
  5
D8C5
  8
0
 10
4405.4908846905027531
 20
214.4696673274744967
 30
0.0
 40
0.1231978308978852
 50
207.0263521108448117
 51
216.4669908401261011
  0
ARC
  5
D8C6
  8
0
 10
4404.857420745393938
 20
214.1365232844441095
 30
0.0
 40
0.5596021019569619
 50
28.0252228263460488
 51
31.7678821773242106
  0
ARC
  5
D8C7
  8
0
 10
4405.0880422578302387
 20
214.3138550652381866
 30
0.0
 40
0.2717582853553022
 50
25.5682698032028384
 51
29.6599070398514897
  0
ARC
  5
D8C8
  8
0
 10
4403.4031934082076987
 20
213.4682282470920995
 30
0.0
 40
2.1593320493211352
 50
24.050534018086541
 51
25.5474394847929496
  0
ARC
  5
D8C9
  8
0
 10
4405.3326309560015943
 20
214.3258368340875961
 30
0.0
 40
0.0479891457032359
 50
6.512235136847079
 51
27.8389998523115594
  0
ARC
  5
D8CA
  8
0
 10
4405.6688408672625883
 20
214.541552295598791
 30
0.0
 40
0.3591323464650185
 50
213.2088652144622927
 51
215.8189468223366987
  0
LINE
  5
D8CB
  8
0
 10
4405.3750659969327899
 20
214.348247220217587
 30
0.0
 11
4405.3332197785675817
 21
214.3273521923312899
 31
0.0
  0
LINE
  5
D8CC
  8
0
 10
4405.3241942293961984
 20
214.4483348480488871
 30
0.0
 11
4405.2828300394703547
 21
214.4261016287321979
 31
0.0
  0
ARC
  5
D8CD
  8
0
 10
4405.2902672942500431
 20
214.4135305554522972
 30
0.0
 40
0.0146063219902665
 50
120.6092606995501058
 51
142.636946314287087
  0
ARC
  5
D8CE
  8
0
 10
4405.2897435729137214
 20
214.4149753078440881
 30
0.0
 40
0.0133391744862587
 50
146.2063769733547076
 51
186.2828526067515043
  0
ARC
  5
D8CF
  8
0
 10
4405.3807734977026485
 20
214.4448175816351068
 30
0.0
 40
0.1088853120153429
 50
196.7069941921305087
 51
206.039699066557688
  0
ARC
  5
D8D0
  8
0
 10
4406.0150109028490988
 20
214.7388888549938031
 30
0.0
 40
0.8079617027680566
 50
205.0322317140355892
 51
207.1662372258628011
  0
ARC
  5
D8D1
  8
0
 10
4406.0595619270552561
 20
214.7596424207420114
 30
0.0
 40
0.8570756940478911
 50
207.0407804984251072
 51
208.9384346958707965
  0
ARC
  5
D8D2
  8
0
 10
4405.4872855429839547
 20
214.4435159632901957
 30
0.0
 40
0.2032898508357634
 50
209.0095049652001933
 51
213.1678235615422921
  0
ARC
  5
D8D3
  8
0
 10
4405.3289663522718911
 20
214.3399368985338072
 30
0.0
 40
0.014098207834788
 50
212.8112177405633929
 51
246.6017034434551931
  0
ARC
  5
D8D4
  8
0
 10
4405.3278913574922626
 20
214.338368303141408
 30
0.0
 40
0.0122371062162519
 50
248.3047181652200095
 51
295.8127517860984881
  0
ARC
  5
D8D5
  8
0
 10
4406.0432277789959699
 20
214.1819933013593129
 30
0.0
 40
0.4760028772711133
 50
207.8096645920012122
 51
212.2707896038114086
  0
ARC
  5
D8D6
  8
0
 10
4405.7708669550802369
 20
214.0100082198362941
 30
0.0
 40
0.1538859937173968
 50
212.2707896037919966
 51
222.3640656466052121
  0
ARC
  5
D8D7
  8
0
 10
4405.6688191264138368
 20
213.9169430461647039
 30
0.0
 40
0.0157741336685405
 50
222.3640656466064058
 51
249.915189910284198
  0
ARC
  5
D8D8
  8
0
 10
4405.6684775756757517
 20
213.9160089476451105
 30
0.0
 40
0.0147795498609997
 50
249.915189910284198
 51
293.7278781571799868
  0
LINE
  5
D8D9
  8
0
 10
4405.6744247669121251
 20
213.9024787587881065
 30
0.0
 11
4405.7252735502606811
 21
213.9281996554489922
 31
0.0
  0
ARC
  5
D8DA
  8
0
 10
4405.4604018042864482
 20
213.872138010495604
 30
0.0
 40
0.2655356843020727
 50
17.9440909733817016
 51
28.1939484437595809
  0
ARC
  5
D8DB
  8
0
 10
4405.4341499719221247
 20
213.8054495938629032
 30
0.0
 40
0.3159438486253768
 50
22.8623536945582302
 51
28.0349911149908486
  0
ARC
  5
D8DC
  8
0
 10
4405.6774118396042468
 20
213.9071571755833077
 30
0.0
 40
0.0522831646512264
 50
6.7672039751183446
 51
23.7327704789796883
  0
ARC
  5
D8DD
  8
0
 10
4405.7220644199123853
 20
213.9125984439679087
 30
0.0
 40
0.0073018735138627
 50
337.3990059847482144
 51
5.6552758000235457
  0
ARC
  5
D8DE
  8
0
 10
4405.7270966862042769
 20
213.9107930169940914
 30
0.0
 40
0.0019803277503879
 50
275.384062586811126
 51
329.6451701504307721
  0
ARC
  5
D8DF
  8
0
 10
4405.7468776951182008
 20
213.946718642330012
 30
0.0
 40
0.0426634566966164
 50
216.0409257680641986
 51
242.6582550451759914
  0
ARC
  5
D8E0
  8
0
 10
4405.5082975259092564
 20
213.8984485017290069
 30
0.0
 40
0.1399908709702603
 50
20.7896300876322613
 51
28.2938325441644594
  0
ARC
  5
D8E1
  8
0
 10
4405.618235658786034
 20
213.9401875774696009
 30
0.0
 40
0.0223960432619965
 50
10.6673846286556397
 51
20.7889990160696314
  0
ARC
  5
D8E2
  8
0
 10
4405.634754118616911
 20
213.9432990351263015
 30
0.0
 40
0.0055870967181137
 50
357.9762158335146864
 51
10.6673846286292395
  0
ARC
  5
D8E3
  8
0
 10
4405.6396206686958976
 20
213.9431270687965139
 30
0.0
 40
0.0007175092511611
 50
303.6736784957608961
 51
357.9762158336773723
  0
ARC
  5
D8E4
  8
0
 10
4405.6398437783791451
 20
213.9430972127549069
 30
0.0
 40
0.0005935600035988
 50
242.903688405013412
 51
287.119339151240581
  0
ARC
  5
D8E5
  8
0
 10
4405.6446998258297754
 20
213.9504023109460888
 30
0.0
 40
0.0093618336440673
 50
216.0116626656796939
 51
236.7984577119150913
  0
ARC
  5
D8E6
  8
0
 10
4405.7362026868331668
 20
214.0181218320491894
 30
0.0
 40
0.1231978308978852
 50
207.0263523816358884
 51
216.4669911108983058
  0
ARC
  5
D8E7
  8
0
 10
4406.0452681833612587
 20
214.1780810776764952
 30
0.0
 40
0.4760028772711133
 50
202.817430681390789
 51
207.2785556932007012
  0
ARC
  5
D8E8
  8
0
 10
4405.7483584863530268
 20
214.0531654321671056
 30
0.0
 40
0.1538859937173968
 50
192.7241546385853894
 51
202.8174306813922954
  0
ARC
  5
D8E9
  8
0
 10
4405.6136384084456949
 20
214.0227452662402925
 30
0.0
 40
0.0157741336685405
 50
165.1730303748811934
 51
192.7241546385853894
  0
ARC
  5
D8EA
  8
0
 10
4405.6126769412549038
 20
214.0229997810540965
 30
0.0
 40
0.0147795498609997
 50
121.360342128001605
 51
165.173030374875708
  0
LINE
  5
D8EB
  8
0
 10
4405.6049853869380968
 20
214.0356202044335987
 30
0.0
 11
4405.6551788976003081
 21
214.0625975056427137
 31
0.0
  0
ARC
  5
D8EC
  8
0
 10
4405.4576164941927345
 20
213.8774784990255
 30
0.0
 40
0.2655356843020727
 50
26.8942718414377318
 51
37.1441293118366929
  0
ARC
  5
D8ED
  8
0
 10
4405.3879054061253555
 20
213.8941178444397053
 30
0.0
 40
0.3159438486253768
 50
27.053229170207949
 51
32.2258665906441877
  0
ARC
  5
D8EE
  8
0
 10
4405.610531393799647
 20
214.0353921806066921
 30
0.0
 40
0.0522831646512264
 50
31.3554498062352103
 51
48.3210163100791874
  0
ARC
  5
D8EF
  8
0
 10
4405.6405487384135995
 20
214.0688947081544029
 30
0.0
 40
0.0073018735138627
 50
49.4329444851662387
 51
77.6892143004549354
  0
ARC
  5
D8F0
  8
0
 10
4405.6419482653673185
 20
214.0740546107602995
 30
0.0
 40
0.0019803277503879
 50
85.4430501347990372
 51
139.7041576983710058
  0
ARC
  5
D8F1
  8
0
 10
4405.6827294656532104
 20
214.0697149595461042
 30
0.0
 40
0.0426634566966164
 50
172.4299652400079026
 51
199.0472945171457866
  0
ARC
  5
D8F2
  8
0
 10
4405.5066034124647558
 20
213.9016967549451067
 30
0.0
 40
0.1399908711282217
 50
26.7943877261071783
 51
34.2985901954336825
  0
ARC
  5
D8F3
  8
0
 10
4405.6037500687498323
 20
213.9679619095448118
 30
0.0
 40
0.0223960432619965
 50
34.2992212691289424
 51
44.4208356565201186
  0
ARC
  5
D8F4
  8
0
 10
4405.6157553242819631
 20
213.9797268797329082
 30
0.0
 40
0.0055870967181137
 50
44.4208356565387419
 51
57.1120044516774286
  0
ARC
  5
D8F5
  8
0
 10
4405.6183995030851293
 20
213.9838160361929909
 30
0.0
 40
0.0007175092511611
 50
57.1120044515443723
 51
111.4145417894504959
  0
ARC
  5
D8F6
  8
0
 10
4405.618502709011409
 20
213.9840160808140013
 30
0.0
 40
0.0005935600035988
 50
127.9688811339147065
 51
172.1845318802099882
  0
ARC
  5
D8F7
  8
0
 10
4405.627272325841659
 20
213.9838173924636067
 30
0.0
 40
0.0093618336440673
 50
178.2897625732827009
 51
199.0765576195325082
  0
ARC
  5
D8F8
  8
0
 10
4405.7351730634145497
 20
214.0200960079471884
 30
0.0
 40
0.1231978308978852
 50
198.6212291742722869
 51
208.0618679035665082
  0
ARC
  5
D8F9
  8
0
 10
4404.9991682141262572
 20
213.917859249795498
 30
0.0
 40
0.5110278861040093
 50
22.548142097947899
 51
28.2010871822974813
  0
ARC
  5
D8FA
  8
0
 10
4405.3320358985938583
 20
214.0959582815860927
 30
0.0
 40
0.1399908709702603
 50
20.7896300876322613
 51
28.2938325441644594
  0
ARC
  5
D8FB
  8
0
 10
4405.441974031470636
 20
214.1376973573266866
 30
0.0
 40
0.0223960432619965
 50
10.6673846286556397
 51
20.7889990160696314
  0
ARC
  5
D8FC
  8
0
 10
4405.4584924913006034
 20
214.140808814983501
 30
0.0
 40
0.0055870967181137
 50
357.9762158335146864
 51
10.6673846286292395
  0
ARC
  5
D8FD
  8
0
 10
4405.4633590413795901
 20
214.1406368486535996
 30
0.0
 40
0.0007175092511611
 50
303.6736784957608961
 51
357.9762158336773723
  0
ARC
  5
D8FE
  8
0
 10
4405.4635821510628375
 20
214.1406069926121063
 30
0.0
 40
0.0005935600035988
 50
242.903688405013412
 51
287.119339151240581
  0
ARC
  5
D8FF
  8
0
 10
4405.4684381985143773
 20
214.1479120908032883
 30
0.0
 40
0.0093618336440673
 50
216.0116626656796939
 51
236.7984577119150913
  0
ARC
  5
D900
  8
0
 10
4405.5599410595168592
 20
214.2156316119063888
 30
0.0
 40
0.1231978308978852
 50
207.0263523816358884
 51
216.4669911108983058
  0
ARC
  5
D901
  8
0
 10
4405.3303417851502672
 20
214.0992065348021924
 30
0.0
 40
0.1399908711282217
 50
26.7943877261071783
 51
34.2985901954336825
  0
ARC
  5
D902
  8
0
 10
4405.4274884414353437
 20
214.1654716894020112
 30
0.0
 40
0.0223960432619965
 50
34.2992212691289424
 51
44.4208356565201186
  0
ARC
  5
D903
  8
0
 10
4405.4394936969656555
 20
214.1772366595901076
 30
0.0
 40
0.0055870967181137
 50
44.4208356565387419
 51
57.1120044516774286
  0
ARC
  5
D904
  8
0
 10
4405.4421378757688217
 20
214.181325816050105
 30
0.0
 40
0.0007175092511611
 50
57.1120044515443723
 51
111.4145417894504959
  0
ARC
  5
D905
  8
0
 10
4405.4422410816951015
 20
214.1815258606712007
 30
0.0
 40
0.0005935600035988
 50
127.9688811339147065
 51
172.1845318802099882
  0
ARC
  5
D906
  8
0
 10
4405.451010698526261
 20
214.1813271723206924
 30
0.0
 40
0.0093618336440673
 50
178.2897625732827009
 51
199.0765576195325082
  0
ARC
  5
D907
  8
0
 10
4405.5589114360991516
 20
214.2176057878043878
 30
0.0
 40
0.1231978308978852
 50
198.6212291742722869
 51
208.0618679035665082
  0
ARC
  5
D908
  8
0
 10
4405.2675848408853199
 20
213.4561472423158079
 30
0.0
 40
0.5754752159633983
 50
26.1304595962925994
 51
30.1210437872362888
  0
ARC
  5
D909
  8
0
 10
4405.6139994013938121
 20
213.6054079769031091
 30
0.0
 40
0.1995944934806548
 50
22.2002889288920287
 51
31.4664126148921284
  0
ARC
  5
D90A
  8
0
 10
4405.7878756097998121
 20
213.6751293896635957
 30
0.0
 40
0.0123174160695262
 50
355.647174192751379
 51
27.5362419474925808
  0
ARC
  5
D90B
  8
0
 10
4405.7987632940594267
 20
213.6743006448432141
 30
0.0
 40
0.0013982363158355
 50
271.4637643447886717
 51
355.6471741930475901
  0
ARC
  5
D90C
  8
0
 10
4405.8038034189448808
 20
213.6835110241036091
 30
0.0
 40
0.011729328046824
 50
225.3205775391409986
 51
244.7443687558566126
  0
ARC
  5
D90D
  8
0
 10
4405.9859661697637421
 20
213.8633043754124117
 30
0.0
 40
0.2676755994166819
 50
220.2418211867513094
 51
224.6554231186732977
  0
ARC
  5
D90E
  8
0
 10
4405.2398482818180128
 20
213.4318489596566906
 30
0.0
 40
0.6117011841006881
 50
30.7859228167980703
 51
36.0454915633970217
  0
ARC
  5
D90F
  8
0
 10
4405.6754993067543182
 20
213.7513107978286087
 30
0.0
 40
0.0715020705897464
 50
34.481222198500312
 51
49.8182445234914226
  0
ARC
  5
D910
  8
0
 10
4405.7165558467222581
 20
213.8002486917567921
 30
0.0
 40
0.0076260146396362
 50
48.2539751586797792
 51
74.6367782325601752
  0
ARC
  5
D911
  8
0
 10
4405.7172987048261348
 20
213.8029523986774905
 30
0.0
 40
0.0048221121313219
 50
74.6367782325601752
 51
93.4880884989367757
  0
ARC
  5
D912
  8
0
 10
4405.7175631086693102
 20
213.8055267436376141
 30
0.0
 40
0.0023072718272709
 50
103.9899304771106046
 51
129.1311690286682961
  0
ARC
  5
D913
  8
0
 10
4405.7170786890019372
 20
213.8067473096608069
 30
0.0
 40
0.0011261306639196
 50
149.6393972962968064
 51
182.0798351809673932
  0
ARC
  5
D914
  8
0
 10
4405.8533683512050629
 20
213.8427849973859054
 30
0.0
 40
0.1420723707693409
 50
194.7110758860301871
 51
203.7419295331607998
  0
LINE
  5
D915
  8
0
 10
4405.734486184817797
 20
213.7917263076110999
 30
0.0
 11
4405.688620827097111
 21
213.7664976105567121
 31
0.0
  0
LINE
  5
D916
  8
0
 10
4405.7920345036818617
 20
213.695638039415087
 30
0.0
 11
4405.7431797421586452
 21
213.6709273660723056
 31
0.0
  0
ARC
  5
D917
  8
0
 10
4405.737127480449999
 20
213.6842207768571029
 30
0.0
 40
0.0146063219902665
 50
272.4512737001173832
 51
294.4789593148265112
  0
ARC
  5
D918
  8
0
 10
4405.73801249355256
 20
213.6829644547156875
 30
0.0
 40
0.0133391744862587
 50
228.8053674076394941
 51
268.8818430410532869
  0
ARC
  5
D919
  8
0
 10
4405.7867968881573688
 20
213.7292606816266129
 30
0.0
 40
0.080546660450082
 50
211.8939344413140873
 51
224.3781984024082874
  0
ARC
  5
D91A
  8
0
 10
4406.1254122907412238
 20
213.9560804183691118
 30
0.0
 40
0.4880718031401406
 50
210.0063388425502922
 51
213.4988119620875864
  0
ARC
  5
D91B
  8
0
 10
4406.117076933833232
 20
213.954336365850196
 30
0.0
 40
0.4799888006447148
 50
206.862784188312105
 51
210.3236447029524925
  0
ARC
  5
D91C
  8
0
 10
4405.7752645510709044
 20
213.7826686421514921
 30
0.0
 40
0.0975007498520388
 50
199.1264439622937914
 51
207.6305576778437114
  0
ARC
  5
D91D
  8
0
 10
4405.6965160221589031
 20
213.7554189080761944
 30
0.0
 40
0.0141709434811737
 50
163.2961415005410117
 51
199.3560216891447112
  0
ARC
  5
D91E
  8
0
 10
4405.6948351442579224
 20
213.7556575323571906
 30
0.0
 40
0.012495000326272
 50
119.8244551330837027
 51
162.1287250163792919
  0
ARC
  5
D91F
  8
0
 10
4405.4513665384547494
 20
213.5649577104329921
 30
0.0
 40
0.2960478481578903
 50
28.0872171922135898
 51
30.2805790892766602
  0
ARC
  5
D920
  8
0
 10
4405.567925819195807
 20
213.6271611556132086
 30
0.0
 40
0.1639292101115726
 50
25.781534940049859
 51
28.0872171922157392
  0
ARC
  5
D921
  8
0
 10
4405.6721788812656087
 20
213.6775176114331884
 30
0.0
 40
0.0481515197156614
 50
20.8077040975261092
 51
25.7815349400542608
  0
ARC
  5
D922
  8
0
 10
4405.7105518899588787
 20
213.6921000545702043
 30
0.0
 40
0.0071011184508354
 50
8.735786773451494
 51
20.807704097480201
  0
ARC
  5
D923
  8
0
 10
4405.7172489333097474
 20
213.6931291275188869
 30
0.0
 40
0.0003254722975166
 50
312.6520975265416951
 51
8.7357867739398607
  0
ARC
  5
D924
  8
0
 10
4405.7173882560382481
 20
213.6930594794744991
 30
0.0
 40
0.0001881538474914
 50
265.3603377238999883
 51
295.5665104959892915
  0
ARC
  5
D925
  8
0
 10
4405.7175119844368965
 20
213.6934979303455862
 30
0.0
 40
0.0006412236066324
 50
226.7082926762624027
 51
257.4851939207489977
  0
ARC
  5
D926
  8
0
 10
4405.7281056922565767
 20
213.7048437364371125
 30
0.0
 40
0.0161639093224561
 50
215.3064271655892128
 51
226.9532425671177123
  0
ARC
  5
D927
  8
0
 10
4405.8792030417116621
 20
213.8123364638611861
 30
0.0
 40
0.2015960611527888
 50
209.4821056297876964
 51
215.418775560243688
  0
ARC
  5
D928
  8
0
 10
4405.9057868052759659
 20
213.8315340641179887
 30
0.0
 40
0.2342137179315194
 50
206.2359880412892892
 51
210.3697694892942991
  0
ARC
  5
D929
  8
0
 10
4405.7371892231640231
 20
213.7482770823293095
 30
0.0
 40
0.0461797888915376
 50
199.8697385565311038
 51
206.0522403801668077
  0
ARC
  5
D92A
  8
0
 10
4405.6949834460892816
 20
213.7332292226510901
 30
0.0
 40
0.0013856122598902
 50
160.0438556847028053
 51
207.8761687637723128
  0
ARC
  5
D92B
  8
0
 10
4405.6937854903262632
 20
213.7334930806104012
 30
0.0
 40
0.0002336965613697
 50
53.9725112301279282
 51
116.5496837186021963
  0
ARC
  5
D92C
  8
0
 10
4405.6836726374422142
 20
213.7219941995828947
 30
0.0
 40
0.0155459101473967
 50
33.9863533702125622
 51
48.749136391230401
  0
ARC
  5
D92D
  8
0
 10
4405.5200513639201745
 20
213.6068810108631908
 30
0.0
 40
0.2156004583445092
 50
29.8632765468428296
 51
35.0454116533752114
  0
ARC
  5
D92E
  8
0
 10
4405.3641833545170812
 20
213.2184118541003102
 30
0.0
 40
0.5754752159633983
 50
26.1304595962925994
 51
30.1210437872362888
  0
ARC
  5
D92F
  8
0
 10
4405.7105979150255735
 20
213.3676725886874976
 30
0.0
 40
0.1995944934806548
 50
22.2002889288920287
 51
31.4664126148921284
  0
ARC
  5
D930
  8
0
 10
4405.8844741234333924
 20
213.4373940014480127
 30
0.0
 40
0.0123174160695262
 50
355.647174192751379
 51
27.5362419474925808
  0
ARC
  5
D931
  8
0
 10
4405.8953618076920975
 20
213.4365652566276879
 30
0.0
 40
0.0013982363158355
 50
271.4637643447886717
 51
355.6471741930475901
  0
ARC
  5
D932
  8
0
 10
4405.9004019325766421
 20
213.4457756358879976
 30
0.0
 40
0.011729328046824
 50
225.3205775391409986
 51
244.7443687558566126
  0
ARC
  5
D933
  8
0
 10
4406.0825646833973224
 20
213.6255689871966865
 30
0.0
 40
0.2676755994166819
 50
220.2418211866927891
 51
224.6554231186732977
  0
ARC
  5
D934
  8
0
 10
4405.3364467954506836
 20
213.1941135714411075
 30
0.0
 40
0.6117011841006881
 50
30.7859228167980703
 51
36.0454915633970217
  0
ARC
  5
D935
  8
0
 10
4405.772097820386989
 20
213.5135754096129972
 30
0.0
 40
0.0715020705897464
 50
34.481222198500312
 51
49.8182445234914226
  0
ARC
  5
D936
  8
0
 10
4405.8131543603540194
 20
213.5625133035412091
 30
0.0
 40
0.0076260146396362
 50
48.2539751586797792
 51
74.6367782325601752
  0
ARC
  5
D937
  8
0
 10
4405.8138972184578961
 20
213.5652170104619074
 30
0.0
 40
0.0048221121313219
 50
74.6367782325601752
 51
93.4880884989367757
  0
ARC
  5
D938
  8
0
 10
4405.8141616223010715
 20
213.5677913554220027
 30
0.0
 40
0.0023072718272709
 50
103.9899304771106046
 51
129.1311690286682961
  0
ARC
  5
D939
  8
0
 10
4405.8136772026336985
 20
213.5690119214451954
 30
0.0
 40
0.0011261306639196
 50
149.6393972962968064
 51
182.0798351809673932
  0
ARC
  5
D93A
  8
0
 10
4405.9499668648368242
 20
213.6050496091702939
 30
0.0
 40
0.1420723707693409
 50
194.7110758860301871
 51
203.7417997018667961
  0
LINE
  5
D93B
  8
0
 10
4405.8310846984495583
 20
213.5539909193956021
 30
0.0
 11
4405.7852193407297818
 21
213.5287622223411006
 31
0.0
  0
LINE
  5
D93C
  8
0
 10
4405.888633017315442
 20
213.4579026511995039
 30
0.0
 11
4405.8397782557922255
 21
213.4331919778566942
 31
0.0
  0
ARC
  5
D93D
  8
0
 10
4405.8337259940826698
 20
213.4464853886414915
 30
0.0
 40
0.0146063219902665
 50
272.4512737001173832
 51
294.4789593148265112
  0
ARC
  5
D93E
  8
0
 10
4405.8346110071852308
 20
213.4452290665001044
 30
0.0
 40
0.0133391744862587
 50
228.8053674076394941
 51
268.8818430410532869
  0
ARC
  5
D93F
  8
0
 10
4405.8833954017891301
 20
213.4915252934110015
 30
0.0
 40
0.080546660450082
 50
211.8939344413140873
 51
224.3781984024082874
  0
ARC
  5
D940
  8
0
 10
4406.2220108043729851
 20
213.7183450301535004
 30
0.0
 40
0.4880718031401406
 50
210.0063388425502922
 51
213.4988119620875864
  0
ARC
  5
D941
  8
0
 10
4406.2136754474668123
 20
213.7166009776346129
 30
0.0
 40
0.4799888006447148
 50
206.862784188312105
 51
210.3236447029524925
  0
ARC
  5
D942
  8
0
 10
4405.8718630647026657
 20
213.5449332539359091
 30
0.0
 40
0.0975007498520388
 50
199.1264439622937914
 51
207.6305576778414945
  0
ARC
  5
D943
  8
0
 10
4405.7931145357915739
 20
213.5176835198606113
 30
0.0
 40
0.0141709434811737
 50
163.2961415005410117
 51
199.3560216891447112
  0
ARC
  5
D944
  8
0
 10
4405.7914336578905932
 20
213.5179221441416075
 30
0.0
 40
0.012495000326272
 50
119.8244551330837027
 51
162.1287250163792919
  0
ARC
  5
D945
  8
0
 10
4405.5479650520892392
 20
213.3272223222174091
 30
0.0
 40
0.2960478481578903
 50
28.0872171922135898
 51
30.2805790892766602
  0
ARC
  5
D946
  8
0
 10
4405.6645243328302968
 20
213.3894257673977108
 30
0.0
 40
0.1639292101115726
 50
25.781534940049859
 51
28.0872171922157392
  0
ARC
  5
D947
  8
0
 10
4405.7687773948982795
 20
213.4397822232176054
 30
0.0
 40
0.0481515197156614
 50
20.8077040975261092
 51
25.7815349400542608
  0
ARC
  5
D948
  8
0
 10
4405.8071504035915495
 20
213.4543646663547065
 30
0.0
 40
0.0071011184508354
 50
8.735786773451494
 51
20.807704097480201
  0
ARC
  5
D949
  8
0
 10
4405.8138474469433277
 20
213.4553937393033038
 30
0.0
 40
0.0003254722975166
 50
312.6520975265416951
 51
8.7357867739398607
  0
ARC
  5
D94A
  8
0
 10
4405.8139867696700094
 20
213.4553240912588876
 30
0.0
 40
0.0001881538474914
 50
265.3603377238999883
 51
295.5665104959892915
  0
ARC
  5
D94B
  8
0
 10
4405.8141104980686578
 20
213.4557625421300031
 30
0.0
 40
0.0006412236066324
 50
226.7082926762624027
 51
257.4851939207489977
  0
ARC
  5
D94C
  8
0
 10
4405.824704205890157
 20
213.467108348221501
 30
0.0
 40
0.0161639093224561
 50
215.3064271655892128
 51
226.9532425671177123
  0
ARC
  5
D94D
  8
0
 10
4405.9758015553461519
 20
213.574601075645603
 30
0.0
 40
0.2015960611527888
 50
209.4821056297876964
 51
215.418775560243688
  0
ARC
  5
D94E
  8
0
 10
4406.0023853189086367
 20
213.5937986759024056
 30
0.0
 40
0.2342137179315194
 50
206.2359880412892892
 51
210.3697694892942991
  0
ARC
  5
D94F
  8
0
 10
4405.8337877367966939
 20
213.5105416941138117
 30
0.0
 40
0.0461797888915376
 50
199.8697385565311038
 51
206.0522403801668077
  0
ARC
  5
D950
  8
0
 10
4405.7915819597210429
 20
213.4954938344355924
 30
0.0
 40
0.0013856122598902
 50
160.0438556847028053
 51
207.8761687637723128
  0
ARC
  5
D951
  8
0
 10
4405.790384003958934
 20
213.4957576923947897
 30
0.0
 40
0.0002336965613697
 50
53.9725112301279282
 51
116.5496837186021963
  0
ARC
  5
D952
  8
0
 10
4405.780271151074885
 20
213.4842588113673116
 30
0.0
 40
0.0155459101473967
 50
33.9863533702125622
 51
48.749136391230401
  0
ARC
  5
D953
  8
0
 10
4405.6166498775528453
 20
213.3691456226474941
 30
0.0
 40
0.2156004583445092
 50
29.8632765468428296
 51
35.0454116533752114
  0
ARC
  5
D954
  8
0
 10
4405.2974631637025595
 20
212.8599499816384935
 30
0.0
 40
0.8653517575981272
 50
28.2317933338235214
 51
30.6989711792712399
  0
ARC
  5
D955
  8
0
 10
4405.7321273460565862
 20
213.0856900936776128
 30
0.0
 40
0.3756709437902321
 50
24.4824518932027502
 51
29.2578390849617698
  0
ARC
  5
D956
  8
0
 10
4406.023577288900924
 20
213.2144862997949133
 30
0.0
 40
0.057162048013625
 50
10.7061074666729308
 51
28.0582916828499016
  0
ARC
  5
D957
  8
0
 10
4406.4006416954671295
 20
213.4723139415056039
 30
0.0
 40
0.4067313969324628
 50
215.1010403732437055
 51
217.7187588004190957
  0
ARC
  5
D958
  8
0
 10
4405.3502352594668992
 20
212.8979070697652958
 30
0.0
 40
0.8006171949558361
 50
30.2913197111668495
 51
34.0327284050842991
  0
ARC
  5
D959
  8
0
 10
4405.9658647898622803
 20
213.3511771381963911
 30
0.0
 40
0.0371996609358259
 50
34.985016187044252
 51
58.8851685462172085
  0
ARC
  5
D95A
  8
0
 10
4405.9827887752999231
 20
213.3797016021391926
 30
0.0
 40
0.0040411632486422
 50
55.3246142168912698
 51
114.3584713240063024
  0
ARC
  5
D95B
  8
0
 10
4406.0528780371214452
 20
213.3994465019378026
 30
0.0
 40
0.0744213081321145
 50
194.4350057460316918
 51
205.7970518702096001
  0
LINE
  5
D95C
  8
0
 10
4405.9963425470677976
 20
213.3725060174313057
 30
0.0
 11
4405.9484610345689362
 21
213.3471167021311885
 31
0.0
  0
LINE
  5
D95D
  8
0
 10
4406.074021053067554
 20
213.2413735902811993
 30
0.0
 11
4406.0278282981062148
 21
213.2192756549953003
 31
0.0
  0
ARC
  5
D95E
  8
0
 10
4406.0207654755422482
 20
213.2303835005315022
 30
0.0
 40
0.0131631187420527
 50
249.0293424331543974
 51
302.4498696944780249
  0
ARC
  5
D95F
  8
0
 10
4406.0241725894866249
 20
213.2369021097908046
 30
0.0
 40
0.0204869100251319
 50
209.8442293872344067
 51
246.6556730444411016
  0
ARC
  5
D960
  8
0
 10
4406.0935583592654439
 20
213.3136451368378914
 30
0.0
 40
0.1231031059419114
 50
214.9707615218831904
 51
224.9284093248795102
  0
ARC
  5
D961
  8
0
 10
4408.8551732488613197
 20
215.136603315000599
 30
0.0
 40
3.4320922220400192
 50
212.9822829930274963
 51
213.4843283310966058
  0
ARC
  5
D962
  8
0
 10
4406.579548416826583
 20
213.6519857273856076
 30
0.0
 40
0.7150438682522664
 50
210.0937384906391117
 51
212.4573392131416085
  0
ARC
  5
D963
  8
0
 10
4406.6122967835899544
 20
213.6625565987854998
 30
0.0
 40
0.7487137060789412
 50
207.7786986520634969
 51
209.5370381896653953
  0
ARC
  5
D964
  8
0
 10
4406.0379572108304274
 20
213.3576423608903951
 30
0.0
 40
0.0984790221718947
 50
192.5928490782675908
 51
206.5575202472718104
  0
ARC
  5
D965
  8
0
 10
4405.9548500833006983
 20
213.3357851307486044
 30
0.0
 40
0.0130086299701945
 50
119.4154885312455008
 51
178.2965855311881
  0
ARC
  5
D966
  8
0
 10
4405.7255459549278385
 20
213.1238310624142969
 30
0.0
 40
0.2960478481578903
 50
28.0872171922135898
 51
30.2805790892766602
  0
ARC
  5
D967
  8
0
 10
4405.8421052356688961
 20
213.1860345075945986
 30
0.0
 40
0.1639292101115726
 50
25.781534940049859
 51
28.0872171922157392
  0
ARC
  5
D968
  8
0
 10
4405.9463582977377882
 20
213.2363909634146069
 30
0.0
 40
0.0481515197156614
 50
20.8077040975261092
 51
25.7815349400542608
  0
ARC
  5
D969
  8
0
 10
4405.9847313064301488
 20
213.2509734065515943
 30
0.0
 40
0.0071011184508354
 50
8.735786773451494
 51
20.807704097480201
  0
ARC
  5
D96A
  8
0
 10
4405.9914283497828364
 20
213.2520024795001916
 30
0.0
 40
0.0003254722975166
 50
312.6520975265416951
 51
8.7357867739398607
  0
ARC
  5
D96B
  8
0
 10
4405.9915676725104277
 20
213.2519328314558038
 30
0.0
 40
0.0001881538474914
 50
265.3603377238999883
 51
295.5665104959892915
  0
ARC
  5
D96C
  8
0
 10
4405.991691400909076
 20
213.2523712823268909
 30
0.0
 40
0.0006412236066324
 50
226.7082926762624027
 51
257.4851939207489977
  0
ARC
  5
D96D
  8
0
 10
4406.0022851087287563
 20
213.2637170884183888
 30
0.0
 40
0.0161639093224561
 50
215.3064271655892128
 51
226.9532425671177123
  0
ARC
  5
D96E
  8
0
 10
4406.1533824581838417
 20
213.3712098158426045
 30
0.0
 40
0.2015960611527888
 50
209.4821056297876964
 51
215.418775560243688
  0
ARC
  5
D96F
  8
0
 10
4406.4588157401931312
 20
213.5428119829360014
 30
0.0
 40
0.5519337154265748
 50
206.6919574528239991
 51
209.3847113143310139
  0
ARC
  5
D970
  8
0
 10
4406.0071867891037982
 20
213.3151686169134962
 30
0.0
 40
0.0461797888915376
 50
199.8697385565311038
 51
206.0522403801668077
  0
ARC
  5
D971
  8
0
 10
4405.9650951884277674
 20
213.2999426164248007
 30
0.0
 40
0.0013856122598902
 50
160.0438556847028053
 51
207.8761687637723128
  0
ARC
  5
D972
  8
0
 10
4405.963897232664749
 20
213.3002064743841117
 30
0.0
 40
0.0002336965613697
 50
53.9725112301279282
 51
116.5496837186021963
  0
ARC
  5
D973
  8
0
 10
4405.9537843797807
 20
213.2887075933564915
 30
0.0
 40
0.0155459101473967
 50
33.9863533702125622
 51
48.749136391230401
  0
ARC
  5
D974
  8
0
 10
4405.5783443631671616
 20
213.0486295241746006
 30
0.0
 40
0.461178887418722
 50
29.1272459476276602
 51
32.6703112295837172
  0
ARC
  5
D975
  8
0
 10
4405.6502116023457347
 20
212.7803425794949987
 30
0.0
 40
0.5754752159633983
 50
26.1304595962925994
 51
30.1210437872362888
  0
ARC
  5
D976
  8
0
 10
4405.996626162854227
 20
212.9296033140821862
 30
0.0
 40
0.1995944934806548
 50
22.2002889288920287
 51
31.4664126148921284
  0
ARC
  5
D977
  8
0
 10
4406.1705023712611364
 20
212.9993247268425876
 30
0.0
 40
0.0123174160695262
 50
355.647174192751379
 51
27.5362419474925808
  0
ARC
  5
D978
  8
0
 10
4406.1813900555198416
 20
212.9984959820224049
 30
0.0
 40
0.0013982363158355
 50
271.4637643447886717
 51
355.6471741930475901
  0
ARC
  5
D979
  8
0
 10
4406.1864301804062052
 20
213.0077063612826862
 30
0.0
 40
0.011729328046824
 50
225.3205775391409986
 51
244.7443687558566126
  0
ARC
  5
D97A
  8
0
 10
4406.3685929312250664
 20
213.1874997125914035
 30
0.0
 40
0.2676755994166819
 50
220.241821186750002
 51
224.6554231186732977
  0
ARC
  5
D97B
  8
0
 10
4405.0083162813343733
 20
212.4176868548441917
 30
0.0
 40
1.3127116629978619
 50
29.7528341134054806
 51
33.343002059360451
  0
ARC
  5
D97C
  8
0
 10
4406.0460091332379307
 20
213.0987388633157877
 30
0.0
 40
0.0715020705897464
 50
34.481222198500312
 51
49.8182445234914226
  0
ARC
  5
D97D
  8
0
 10
4406.08706567320678
 20
213.147676757243886
 30
0.0
 40
0.0076260146396362
 50
48.2539751586797792
 51
74.6367782325601752
  0
ARC
  5
D97E
  8
0
 10
4406.0878085313097472
 20
213.150380464164698
 30
0.0
 40
0.0048221121313219
 50
74.6367782325601752
 51
93.4880884989367757
  0
ARC
  5
D97F
  8
0
 10
4406.0880729351529226
 20
213.1529548091247079
 30
0.0
 40
0.0023072718272709
 50
103.9899304771106046
 51
129.1311690286682961
  0
ARC
  5
D980
  8
0
 10
4406.0875885154855496
 20
213.154175375147986
 30
0.0
 40
0.0011261306639196
 50
149.6393972962968064
 51
182.0798351809673932
  0
ARC
  5
D981
  8
0
 10
4406.2238781776886754
 20
213.1902130628729992
 30
0.0
 40
0.1420723707693409
 50
194.7110758860301871
 51
203.741929533209202
  0
LINE
  5
D982
  8
0
 10
4406.1049960113023189
 20
213.1391543730983074
 30
0.0
 11
4406.0591306535816329
 21
213.1139256760438059
 31
0.0
  0
LINE
  5
D983
  8
0
 10
4406.174661265143186
 20
213.0198333765941925
 30
0.0
 11
4406.1258065036190601
 21
212.9951227032512975
 31
0.0
  0
ARC
  5
D984
  8
0
 10
4406.1197542419113233
 20
213.0084161140362085
 30
0.0
 40
0.0146063219902665
 50
272.4512737001173832
 51
294.4789593148265112
  0
ARC
  5
D985
  8
0
 10
4406.1206392550129749
 20
213.007159791894793
 30
0.0
 40
0.0133391744862587
 50
228.8053674076394941
 51
268.8818430410532869
  0
ARC
  5
D986
  8
0
 10
4406.1694236496168742
 20
213.0534560188056901
 30
0.0
 40
0.080546660450082
 50
211.8939344413140873
 51
224.3781984024082874
  0
ARC
  5
D987
  8
0
 10
4406.5080390522016387
 20
213.280275755548189
 30
0.0
 40
0.4880718031401406
 50
210.0063388425502922
 51
213.4988119620875864
  0
ARC
  5
D988
  8
0
 10
4407.6066732815734213
 20
213.8796007217449926
 30
0.0
 40
1.7394421837757781
 50
207.1861641771664893
 51
209.0041173718788912
  0
ARC
  5
D989
  8
0
 10
4406.1457743775554263
 20
213.1300967076385859
 30
0.0
 40
0.0975007498520388
 50
199.1264439622937914
 51
207.6305576778437114
  0
ARC
  5
D98A
  8
0
 10
4406.067025848645244
 20
213.1028469735632882
 30
0.0
 40
0.0141709434811737
 50
163.2961415005410117
 51
199.3560216891447112
  0
ARC
  5
D98B
  8
0
 10
4406.0653449707442633
 20
213.1030855978443981
 30
0.0
 40
0.012495000326272
 50
119.8244551330837027
 51
162.1287250163792919
  0
ARC
  5
D98C
  8
0
 10
4405.8339932999160737
 20
212.8891530476120977
 30
0.0
 40
0.2960478481578903
 50
28.0872171922135898
 51
30.2805790892766602
  0
ARC
  5
D98D
  8
0
 10
4405.9505525806580408
 20
212.9513564927923142
 30
0.0
 40
0.1639292101115726
 50
25.781534940049859
 51
28.0872171922157392
  0
ARC
  5
D98E
  8
0
 10
4406.0548056427260235
 20
213.001712948612294
 30
0.0
 40
0.0481515197156614
 50
20.8077040975261092
 51
25.7815349400542608
  0
ARC
  5
D98F
  8
0
 10
4406.0931786514202031
 20
213.0162953917493098
 30
0.0
 40
0.0071011184508354
 50
8.735786773451494
 51
20.807704097480201
  0
ARC
  5
D990
  8
0
 10
4406.0998756947710717
 20
213.0173244646979924
 30
0.0
 40
0.0003254722975166
 50
312.6520975265416951
 51
8.7357867739398607
  0
ARC
  5
D991
  8
0
 10
4406.1000150174986629
 20
213.0172548166536899
 30
0.0
 40
0.0001881538474914
 50
265.3603377238999883
 51
295.5665104959892915
  0
ARC
  5
D992
  8
0
 10
4406.1001387458973113
 20
213.0176932675246917
 30
0.0
 40
0.0006412236066324
 50
226.7082926762624027
 51
257.4851939207489977
  0
ARC
  5
D993
  8
0
 10
4406.1107324537179011
 20
213.0290390736161896
 30
0.0
 40
0.0161639093224561
 50
215.3064271655892128
 51
226.9532425671177123
  0
ARC
  5
D994
  8
0
 10
4406.2618298031729864
 20
213.1365318010402916
 30
0.0
 40
0.2015960611527888
 50
209.4821056297876964
 51
215.418775560243688
  0
ARC
  5
D995
  8
0
 10
4407.4234131630537377
 20
213.7678841299562862
 30
0.0
 40
1.5236464283916309
 50
207.0312229677055882
 51
208.651881976761814
  0
ARC
  5
D996
  8
0
 10
4406.1076990496494545
 20
213.0957051478164885
 30
0.0
 40
0.0461797888915376
 50
199.8697385565311038
 51
206.0522403801668077
  0
ARC
  5
D997
  8
0
 10
4406.0654932725728941
 20
213.0806572881382124
 30
0.0
 40
0.0013856122598902
 50
160.0438556847028053
 51
207.8761687637723128
  0
ARC
  5
D998
  8
0
 10
4406.0642953168098757
 20
213.080921146097495
 30
0.0
 40
0.0002336965613697
 50
53.9725112301279282
 51
116.5496837186021963
  0
ARC
  5
D999
  8
0
 10
4406.0541824639258266
 20
213.0694222650701022
 30
0.0
 40
0.0155459101473967
 50
33.9863533702125622
 51
48.749136391230401
  0
ARC
  5
D99A
  8
0
 10
4405.0510788848014272
 20
212.4737793996654887
 30
0.0
 40
1.182142847318191
 50
28.5320753071927804
 51
30.7450086514936913
  0
LINE
  5
D99B
  8
0
 10
4406.2236013661786274
 20
212.9123576986276021
 30
0.0
 11
4406.1799449692589405
 21
212.8889923688261945
 31
0.0
  0
LINE
  5
D99C
  8
0
 10
4406.3074288320403866
 20
212.7856898491046991
 30
0.0
 11
4406.2613835092533918
 21
212.7624001861344141
 31
0.0
  0
ARC
  5
D99D
  8
0
 10
4406.2553312475447456
 20
212.7756935969192966
 30
0.0
 40
0.0146063219902665
 50
272.4512737001173832
 51
294.4789593148265112
  0
ARC
  5
D99E
  8
0
 10
4406.2565453042288937
 20
212.774101705765986
 30
0.0
 40
0.0130144163426928
 50
225.1914075649200129
 51
267.4045164053140979
  0
ARC
  5
D99F
  8
0
 10
4406.3049433444575698
 20
212.8212020758519998
 30
0.0
 40
0.080546660450082
 50
211.8939344413140873
 51
224.3781984024082874
  0
ARC
  5
D9A0
  8
0
 10
4408.8771922477144471
 20
214.6266932800805876
 30
0.0
 40
3.2230785837769571
 50
214.4735230215412969
 51
214.9862420467781874
  0
ARC
  5
D9A1
  8
0
 10
4407.667387511146444
 20
213.7951998977434016
 30
0.0
 40
1.755084079765616
 50
212.1669907865075118
 51
214.450902898062111
  0
ARC
  5
D9A2
  8
0
 10
4406.2838725599312966
 20
212.9270325197875025
 30
0.0
 40
0.1217475255754643
 50
206.1977743513891141
 51
212.9501077344023088
  0
ARC
  5
D9A3
  8
0
 10
4406.1862427284595469
 20
212.878129332697398
 30
0.0
 40
0.0125814620304107
 50
162.1458319652041098
 51
202.6484364290932945
  0
ARC
  5
D9A4
  8
0
 10
4406.1861592864197519
 20
212.8781522906265877
 30
0.0
 40
0.012495000326272
 50
119.8244551330837027
 51
162.1287250163792919
  0
ARC
  5
D9A5
  8
0
 10
4405.9573506836131855
 20
212.6726914718452974
 30
0.0
 40
0.2960478481578903
 50
28.0872171922135898
 51
30.2805790892766602
  0
ARC
  5
D9A6
  8
0
 10
4406.0739099643542431
 20
212.7348949170255992
 30
0.0
 40
0.1639292101115726
 50
25.781534940049859
 51
28.0872171922157392
  0
ARC
  5
D9A7
  8
0
 10
4406.1781630264240448
 20
212.7852513728456074
 30
0.0
 40
0.0481515197156614
 50
20.8077040975261092
 51
25.7815349400542608
  0
ARC
  5
D9A8
  8
0
 10
4406.2165360351164054
 20
212.7998338159825948
 30
0.0
 40
0.0071011184508354
 50
8.735786773451494
 51
20.807704097480201
  0
ARC
  5
D9A9
  8
0
 10
4406.2232330784681835
 20
212.8008628889311922
 30
0.0
 40
0.0003254722975166
 50
312.6520975265416951
 51
8.7357867739398607
  0
ARC
  5
D9AA
  8
0
 10
4406.2233724011939557
 20
212.8007932408868896
 30
0.0
 40
0.0001881538474914
 50
265.3603377238999883
 51
295.5665104959892915
  0
ARC
  5
D9AB
  8
0
 10
4406.2234961295944231
 20
212.8012316917578914
 30
0.0
 40
0.0006412236066324
 50
226.7082926762624027
 51
257.4851939207489977
  0
ARC
  5
D9AC
  8
0
 10
4406.2340898374159224
 20
212.8125774978493894
 30
0.0
 40
0.0161639093224561
 50
215.3064271655892128
 51
226.9532425671177123
  0
ARC
  5
D9AD
  8
0
 10
4406.3851871868710077
 20
212.9200702252734914
 30
0.0
 40
0.2015960611527888
 50
209.4821056297876964
 51
215.418775560243688
  0
ARC
  5
D9AE
  8
0
 10
4406.411770950434402
 20
212.9392678255304077
 30
0.0
 40
0.2342137179315194
 50
206.2359880412892892
 51
210.3697694892942991
  0
ARC
  5
D9AF
  8
0
 10
4406.2431733683233688
 20
212.8560108437417
 30
0.0
 40
0.0461797888915376
 50
199.8697385565311038
 51
206.0522403801668077
  0
ARC
  5
D9B0
  8
0
 10
4406.2009675912468083
 20
212.8409629840633954
 30
0.0
 40
0.0013856122598902
 50
160.0438556847028053
 51
207.8761687637723128
  0
ARC
  5
D9B1
  8
0
 10
4406.1997696354837899
 20
212.8412268420227917
 30
0.0
 40
0.0002336965613697
 50
53.9725112301279282
 51
116.5496837186021963
  0
ARC
  5
D9B2
  8
0
 10
4406.1896567825997408
 20
212.8297279609952
 30
0.0
 40
0.0155459101473967
 50
33.9863533702125622
 51
48.749136391230401
  0
ARC
  5
D9B3
  8
0
 10
4406.0260355090777011
 20
212.7146147722754961
 30
0.0
 40
0.2156004583445092
 50
29.8632765468428296
 51
35.0454116533752114
  0
ARC
  5
D9B4
  8
0
 10
4405.1013638882550367
 20
213.6638240521741068
 30
0.0
 40
0.5754752159633983
 50
26.1304595962925994
 51
30.1210437872362888
  0
ARC
  5
D9B5
  8
0
 10
4405.44777844876171
 20
213.8130847867614079
 30
0.0
 40
0.1995944934806548
 50
22.2002889288920287
 51
31.4664126148921284
  0
ARC
  5
D9B6
  8
0
 10
4405.6216546571704384
 20
213.8828061995218093
 30
0.0
 40
0.0123174160695262
 50
355.647174192751379
 51
27.5362419474925808
  0
ARC
  5
D9B7
  8
0
 10
4405.6325423414282341
 20
213.8819774547015129
 30
0.0
 40
0.0013982363158355
 50
271.4637643447886717
 51
355.6471741930475901
  0
ARC
  5
D9B8
  8
0
 10
4405.6375824663127787
 20
213.8911878339619079
 30
0.0
 40
0.011729328046824
 50
225.3205775391409986
 51
244.7443687558566126
  0
ARC
  5
D9B9
  8
0
 10
4405.8197452171325494
 20
214.0709811852705968
 30
0.0
 40
0.2676755994166819
 50
220.2419155420375034
 51
224.6554231186732977
  0
ARC
  5
D9BA
  8
0
 10
4405.0736273291868201
 20
213.6395257695149041
 30
0.0
 40
0.6117011841006881
 50
30.7859228167980703
 51
36.0454915633970217
  0
ARC
  5
D9BB
  8
0
 10
4405.5092783541231256
 20
213.9589876076867938
 30
0.0
 40
0.0715020705897464
 50
34.481222198500312
 51
49.8182445234914226
  0
ARC
  5
D9BC
  8
0
 10
4405.550334894090156
 20
214.0079255016150057
 30
0.0
 40
0.0076260146396362
 50
48.2539751586797792
 51
74.6367782325601752
  0
ARC
  5
D9BD
  8
0
 10
4405.5510777521949421
 20
214.010629208535704
 30
0.0
 40
0.0048221121313219
 50
74.6367782325601752
 51
93.4880884989367757
  0
ARC
  5
D9BE
  8
0
 10
4405.5513421560362985
 20
214.0132035534957993
 30
0.0
 40
0.0023072718272709
 50
103.9899304771106046
 51
129.1311690286682961
  0
ARC
  5
D9BF
  8
0
 10
4405.5508577363707445
 20
214.0144241195191057
 30
0.0
 40
0.0011261306639196
 50
149.6393972962968064
 51
182.0798351809673932
  0
ARC
  5
D9C0
  8
0
 10
4405.6871473985720513
 20
214.0504618072440906
 30
0.0
 40
0.1420723707693409
 50
194.7110758860301871
 51
203.7417997018667961
  0
LINE
  5
D9C1
  8
0
 10
4405.5682652321866044
 20
213.9994031174693987
 30
0.0
 11
4405.5223998744659184
 21
213.9741744204150109
 31
0.0
  0
LINE
  5
D9C2
  8
0
 10
4405.6258132615603245
 20
213.9033147028497126
 30
0.0
 11
4405.5769587895283621
 21
213.8786041759304908
 31
0.0
  0
ARC
  5
D9C3
  8
0
 10
4405.5709065278188064
 20
213.8918975867154018
 30
0.0
 40
0.0146063219902665
 50
272.4512737001173832
 51
294.4789593148265112
  0
ARC
  5
D9C4
  8
0
 10
4405.5717915409195484
 20
213.8906412645739863
 30
0.0
 40
0.0133391744862587
 50
228.8053674076394941
 51
268.8818430410532869
  0
ARC
  5
D9C5
  8
0
 10
4405.6205759355261762
 20
213.9369374914847981
 30
0.0
 40
0.080546660450082
 50
211.8939344413140873
 51
224.3781984024082874
  0
ARC
  5
D9C6
  8
0
 10
4405.9591913381109407
 20
214.163757228227297
 30
0.0
 40
0.4880718031401406
 50
210.0063388425502922
 51
213.4988119620875864
  0
ARC
  5
D9C7
  8
0
 10
4405.9508559812029489
 20
214.1620131757084948
 30
0.0
 40
0.4799888006447148
 50
206.862784188312105
 51
210.3236447029524925
  0
ARC
  5
D9C8
  8
0
 10
4405.6090435984388023
 20
213.9903454520097057
 30
0.0
 40
0.0975007498520388
 50
199.1264439622937914
 51
207.6305576778437114
  0
ARC
  5
D9C9
  8
0
 10
4405.5302950695304389
 20
213.9630957179344932
 30
0.0
 40
0.0141709434811737
 50
163.2961415005410117
 51
199.3560216891447112
  0
ARC
  5
D9CA
  8
0
 10
4405.5286141916267297
 20
213.9633343422154041
 30
0.0
 40
0.012495000326272
 50
119.8244551330837027
 51
162.1287250163792919
  0
ARC
  5
D9CB
  8
0
 10
4405.2851455858235568
 20
213.772634520291291
 30
0.0
 40
0.2960478481578903
 50
28.0872171922135898
 51
30.2805790892766602
  0
ARC
  5
D9CC
  8
0
 10
4405.4017048665664333
 20
213.8348379654715075
 30
0.0
 40
0.1639292101115726
 50
25.781534940049859
 51
28.0872171922157392
  0
ARC
  5
D9CD
  8
0
 10
4405.505957928634416
 20
213.885194421291402
 30
0.0
 40
0.0481515197156614
 50
20.8077040975261092
 51
25.7815349400542608
  0
ARC
  5
D9CE
  8
0
 10
4405.5443309373276861
 20
213.8997768644285031
 30
0.0
 40
0.0071011184508354
 50
8.735786773451494
 51
20.807704097480201
  0
ARC
  5
D9CF
  8
0
 10
4405.5510279806785547
 20
213.9008059373771005
 30
0.0
 40
0.0003254722975166
 50
312.6520975265416951
 51
8.7357867739398607
  0
ARC
  5
D9D0
  8
0
 10
4405.5511673034061459
 20
213.9007362893327979
 30
0.0
 40
0.0001881538474914
 50
265.3603377238999883
 51
295.5665104959892915
  0
ARC
  5
D9D1
  8
0
 10
4405.5512910318047943
 20
213.9011747402037997
 30
0.0
 40
0.0006412236066324
 50
226.7082926762624027
 51
257.4851939207489977
  0
ARC
  5
D9D2
  8
0
 10
4405.5618847396272031
 20
213.9125205462952977
 30
0.0
 40
0.0161639093224561
 50
215.3064271655919129
 51
226.9532425671177123
  0
ARC
  5
D9D3
  8
0
 10
4405.7129820890822884
 20
214.0200132737193996
 30
0.0
 40
0.2015960611527888
 50
209.4821056297876964
 51
215.418775560243688
  0
ARC
  5
D9D4
  8
0
 10
4405.7395658526456828
 20
214.0392108739762023
 30
0.0
 40
0.2342137179315194
 50
206.2359880412892892
 51
210.3697694892942991
  0
ARC
  5
D9D5
  8
0
 10
4405.5709682705328305
 20
213.9559538921876083
 30
0.0
 40
0.0461797888915376
 50
199.8697385565311038
 51
206.0522403801668077
  0
ARC
  5
D9D6
  8
0
 10
4405.528762493458089
 20
213.9409060325093037
 30
0.0
 40
0.0013856122598902
 50
160.0438556847028053
 51
207.8761687637723128
  0
ARC
  5
D9D7
  8
0
 10
4405.5275645376950706
 20
213.9411698904685863
 30
0.0
 40
0.0002336965613697
 50
53.9725112301279282
 51
116.5496837186021963
  0
ARC
  5
D9D8
  8
0
 10
4405.5174516848110216
 20
213.9296710094411083
 30
0.0
 40
0.0155459101473967
 50
33.9863533702125622
 51
48.749136391230401
  0
ARC
  5
D9D9
  8
0
 10
4405.3538304112880724
 20
213.8145578207214044
 30
0.0
 40
0.2156004583445092
 50
29.8632765468428296
 51
35.0454116533752114
  0
ARC
  5
D9DA
  8
0
 10
4404.4581658859542586
 20
213.0089455288633928
 30
0.0
 40
1.426066390531094
 50
28.0220222790129512
 51
29.525971064204569
  0
ARC
  5
D9DB
  8
0
 10
4448.7253528368210027
 20
240.7195196728625035
 30
0.0
 40
50.8004388144722085
 50
212.0534314142871892
 51
212.1166465698235015
  0
LINE
  5
D9DC
  8
0
 10
4406.1117102569460258
 20
212.9972694651116001
 30
0.0
 11
4406.0934268082919516
 21
212.9880205830357909
 31
0.0
  0
ARC
  5
D9DD
  8
0
 10
4406.0880956047758445
 20
212.9985594551866086
 30
0.0
 40
0.0118105697207404
 50
212.6294066190583862
 51
296.8330654736358838
  0
LINE
  5
D9DE
  8
0
 10
4406.078149029173801
 20
212.9921911594246069
 30
0.0
 11
4406.0314095246631041
 21
213.0651931104378889
 31
0.0
  0
ARC
  5
D9DF
  8
0
 10
4406.0413511214828759
 20
213.071558218533994
 30
0.0
 40
0.0118046579116614
 50
118.824122829482306
 51
212.6294066190604042
  0
LINE
  5
D9E0
  8
0
 10
4406.0356598293947172
 20
213.0819003238705989
 30
0.0
 11
4406.0556461260239303
 21
213.0929040403802901
 31
0.0
  0
LINE
  5
D9E1
  8
0
 10
4406.0046562388497478
 20
213.2284935797283083
 30
0.0
 11
4405.9592591582240857
 21
213.2055648203802036
 31
0.0
  0
ARC
  5
D9E2
  8
0
 10
4405.953788593426907
 20
213.2165501988968117
 30
0.0
 40
0.0122721481555543
 50
213.5944930927510086
 51
296.4726622492747765
  0
ARC
  5
D9E3
  8
0
 10
4406.7043095154167531
 20
213.7419790605441108
 30
0.0
 40
0.9284328936067113
 50
209.485123452011095
 51
214.9767958967005939
  0
ARC
  5
D9E4
  8
0
 10
4405.9068812479663393
 20
213.2899807219864954
 30
0.0
 40
0.0118486716704183
 50
116.3099062224241038
 51
204.6116758052654916
  0
LINE
  5
D9E5
  8
0
 10
4405.9016296064428388
 20
213.3006019875269885
 30
0.0
 11
4405.9454193470937753
 21
213.3239546541832112
 31
0.0
  0
LINE
  5
D9E6
  8
0
 10
4405.8343507027748274
 20
213.431892432082492
 30
0.0
 11
4405.8112021665883731
 21
213.419779690334309
 31
0.0
  0
ARC
  5
D9E7
  8
0
 10
4405.8060291163346847
 20
213.4326272697124978
 30
0.0
 40
0.0138499366354074
 50
227.4525184888182139
 51
291.9320751328821757
  0
LINE
  5
D9E8
  8
0
 10
4405.7966637758336219
 20
213.4224237829494939
 30
0.0
 11
4405.7524185989022953
 21
213.4980413427128951
 31
0.0
  0
ARC
  5
D9E9
  8
0
 10
4405.7626133867643148
 20
213.5040060951046996
 30
0.0
 40
0.0118113220729689
 50
118.3351971488683034
 51
210.3309516527478138
  0
LINE
  5
D9EA
  8
0
 10
4405.757007390754552
 20
213.5144022548691112
 30
0.0
 11
4405.8199539191391523
 21
213.547868323318994
 31
0.0
  0
LINE
  5
D9EB
  8
0
 10
4405.6117698552106958
 20
213.8400017572278102
 30
0.0
 11
4405.5709561106968977
 21
213.8191209546529876
 31
0.0
  0
ARC
  5
D9EC
  8
0
 10
4405.5658407454866392
 20
213.8306791340731081
 30
0.0
 40
0.0126395598315314
 50
204.2920834175737923
 51
293.8729998926194185
  0
LINE
  5
D9ED
  8
0
 10
4405.5543202906774241
 20
213.8254793654525088
 30
0.0
 11
4405.4061064180250469
 21
214.092887228421489
 31
0.0
  0
ARC
  5
D9EE
  8
0
 10
4405.4188231589632778
 20
214.1004657107031903
 30
0.0
 40
0.0148178885612017
 50
168.8041917800194085
 51
211.2793729964089948
  0
LINE
  5
D9EF
  8
0
 10
4405.5293968244923235
 20
214.0001136628810059
 30
0.0
 11
4405.4845336130192663
 21
213.9764275203530133
 31
0.0
  0
ARC
  5
D9F0
  8
0
 10
4405.4783807420917583
 20
213.9880814884608071
 30
0.0
 40
0.0131784973846382
 50
228.7087085294596136
 51
297.8324229100580851
  0
LINE
  5
D9F1
  8
0
 10
4405.5252406276131296
 20
213.9401104503222939
 30
0.0
 11
4405.5084015281772736
 21
213.9312200188034012
 31
0.0
  0
ARC
  5
D9F2
  8
0
 10
4405.5031117704611461
 20
213.9412391900866055
 30
0.0
 40
0.0113298424477255
 50
209.7346277465605056
 51
297.8324229100645084
  0
LINE
  5
D9F3
  8
0
 10
4405.5678786003963978
 20
213.8780593396012932
 30
0.0
 11
4405.5442556411489932
 21
213.8657388812652869
 31
0.0
  0
ARC
  5
D9F4
  8
0
 10
4405.5389984191861004
 20
213.8782661171051132
 30
0.0
 40
0.0135856549543153
 50
235.2082247213452888
 51
292.7660082338779262
  0
LINE
  5
D9F5
  8
0
 10
4405.539377439468808
 20
213.9835130992233019
 30
0.0
 11
4405.4899482456739861
 21
214.0657277202701891
 31
0.0
  0
ARC
  5
D9F6
  8
0
 10
4404.935299719935756
 20
213.8186551834608906
 30
0.0
 40
0.6117492322380553
 50
22.8294655806924389
 51
28.8481241216781186
  0
ARC
  5
D9F7
  8
0
 10
4405.2017609036201975
 20
213.9361848999751032
 30
0.0
 40
0.3205993519425521
 50
20.8378046356498885
 51
21.9468122341590117
  0
ARC
  5
D9F8
  8
0
 10
4405.4967272663689073
 20
214.0484548729569951
 30
0.0
 40
0.0049893045948908
 50
355.8475707186951809
 51
20.8378046356955515
  0
ARC
  5
D9F9
  8
0
 10
4405.5011005492669938
 20
214.0481373694821059
 30
0.0
 40
0.0006045113547757
 50
246.1828045529194071
 51
355.8475707189778063
  0
LINE
  5
D9FA
  8
0
 10
4405.4940335855026206
 20
214.0677607647174057
 30
0.0
 11
4405.4501968434342416
 21
214.0458526034379076
 31
0.0
  0
ARC
  5
D9FB
  8
0
 10
4405.4452160268219814
 20
214.0577373052668122
 30
0.0
 40
0.0128862202249832
 50
205.8923629622715055
 51
292.7383038165269795
  0
LINE
  5
D9FC
  8
0
 10
4405.4336233770191029
 20
214.0521101263782953
 30
0.0
 11
4405.404287264260347
 21
214.1033427902306983
 31
0.0
  0
LINE
  5
D9FD
  8
0
 10
4405.404287264260347
 20
214.1033427902306983
 30
0.0
 11
4405.3561843152374422
 21
214.2081124857838006
 31
0.0
  0
ARC
  5
D9FE
  8
0
 10
4405.3667829789219468
 20
214.217527706722791
 30
0.0
 40
0.0141766729962654
 50
126.0032856565818946
 51
221.6159786855556888
  0
LINE
  5
D9FF
  8
0
 10
4405.3584494819169777
 20
214.2289963982304926
 30
0.0
 11
4405.3965588901992305
 21
214.2489560679562999
 31
0.0
  0
ARC
  5
DA00
  8
0
 10
4410.4194943155516739
 20
217.1582159579023141
 30
0.0
 40
5.8046251726109928
 50
210.0792012179879862
 51
211.1066768031026868
  0
LINE
  5
DA01
  8
0
 10
4405.3965581887450753
 20
214.2489572790410932
 30
0.0
 11
4405.3464104862941895
 21
214.3339386944462888
 31
0.0
  0
ARC
  5
DA02
  8
0
 10
4405.3829209313753381
 20
214.3350150507289129
 30
0.0
 40
0.0064191045379461
 50
214.5050552541941897
 51
236.2183795775337956
  0
ARC
  5
DA03
  8
0
 10
4405.3785241853638581
 20
214.3312628387280085
 30
0.0
 40
0.0017863521069307
 50
297.5973853405757268
 51
0.535731332798587
  0
ARC
  5
DA04
  8
0
 10
4405.5239403698178648
 20
214.5216469419897862
 30
0.0
 40
0.2203606033291146
 50
195.6703604165851971
 51
200.4351987954752019
  0
ARC
  5
DA05
  8
0
 10
4405.2858459020371811
 20
214.42889623541069
 30
0.0
 40
0.042993649211068
 50
26.8802665357138117
 51
51.1243504601474115
  0
LINE
  5
DA06
  8
0
 10
4405.3117702172121426
 20
214.46212701386969
 30
0.0
 11
4405.3128301028682472
 21
214.4623672195311883
 31
0.0
  0
ARC
  5
DA07
  8
0
 10
4405.0578590655431981
 20
214.2490724368290955
 30
0.0
 40
0.2701595570533845
 50
22.0183942004139688
 51
32.0501736098700292
  0
ARC
  5
DA08
  8
0
 10
4405.5436293518068851
 20
214.496951003271505
 30
0.0
 40
0.2772421792949818
 50
202.1468494460129932
 51
211.9217183642574014
  0
ARC
  5
DA09
  8
0
 10
4404.7342101150461531
 20
213.7870071990778911
 30
0.0
 40
0.7467226196467838
 50
25.5165117837979594
 51
29.7465798420445005
  0
ARC
  5
DA0A
  8
0
 10
4406.0687488866878994
 20
214.485665089393791
 30
0.0
 40
0.7606460961649609
 50
205.5580465828572017
 51
209.7106524610439919
  0
ARC
  5
DA0B
  8
0
 10
4405.3878197220738002
 20
214.1733468735749
 30
0.0
 40
0.0117862327311461
 50
111.8600310027321001
 51
181.8657831652710968
  0
ARC
  5
DA0C
  8
0
 10
4405.4244683929737221
 20
214.1026630967076869
 30
0.0
 40
0.0111494041898182
 50
230.0057465734622895
 51
304.8259039249796842
  0
LINE
  5
DA0D
  8
0
 10
4405.4393334912183491
 20
214.0462721211611949
 30
0.0
 11
4405.3718960179949136
 21
214.173891916190513
 31
0.0
  0
LINE
  5
DA0E
  8
0
 10
4405.3834312309681991
 20
214.1842856316312123
 30
0.0
 11
4405.4228453748783068
 21
214.2040370942964955
 31
0.0
  0
LINE
  5
DA0F
  8
0
 10
4405.430835647767708
 20
214.0935106500311917
 30
0.0
 11
4405.4714032968686297
 21
214.1139545387312069
 31
0.0
  0
ARC
  5
DA10
  8
0
 10
4405.4432665759532028
 20
214.205548214939995
 30
0.0
 40
0.0128485466922876
 50
118.8856333962122989
 51
191.8520404505935915
  0
ARC
  5
DA11
  8
0
 10
4405.6192387407763817
 20
214.2593801541435994
 30
0.0
 40
0.1968218740049552
 50
196.6732573904425863
 51
211.8769711932764039
  0
ARC
  5
DA12
  8
0
 10
4405.5968835776093329
 20
214.2245074059300123
 30
0.0
 40
0.1604135203869556
 50
205.5033658436547057
 51
220.2593125557667122
  0
ARC
  5
DA13
  8
0
 10
4405.4832705596891174
 20
214.1302234356344059
 30
0.0
 40
0.0129127344975493
 50
226.8480033541848115
 51
295.1420987408471888
  0
LINE
  5
DA14
  8
0
 10
4405.4370599203693928
 20
214.2167982184311938
 30
0.0
 11
4405.4830603528062056
 21
214.2407802976971141
 31
0.0
  0
ARC
  5
DA15
  8
0
 10
4405.3521244629173452
 20
214.1595452236836081
 30
0.0
 40
0.1540887552656932
 50
24.8274745172954603
 51
31.8162380156956317
  0
ARC
  5
DA16
  8
0
 10
4405.3335742553263117
 20
214.0959534438985088
 30
0.0
 40
0.2038345590318783
 50
17.8504123855182613
 51
39.0052273274485017
  0
ARC
  5
DA17
  8
0
 10
4405.4881068013128242
 20
214.1268356097772028
 30
0.0
 40
0.0505763056102088
 50
355.4674527023216228
 51
38.6669695685166417
  0
ARC
  5
DA18
  8
0
 10
4405.6668311773082678
 20
214.2468662677127895
 30
0.0
 40
0.1784525293577245
 50
217.9321594789628023
 51
224.028540014644193
  0
LINE
  5
DA19
  8
0
 10
4405.4887583982681463
 20
214.1185356886313116
 30
0.0
 11
4405.5362735170701853
 21
214.1422605954286951
 31
0.0
  0
ARC
  5
DA1A
  8
0
 10
4405.9832420793163692
 20
213.3818496550613872
 30
0.0
 40
0.0026164660729783
 50
144.1228644331017108
 51
201.4077388327474125
  0
ARC
  5
DA1B
  8
0
 10
4406.0781403912560563
 20
213.2249041607616107
 30
0.0
 40
0.00161649737536
 50
298.3972409990072947
 51
7.1503212945667602
  0
ARC
  5
DA1C
  8
0
 10
4405.8521250957101074
 20
213.2589843698771972
 30
0.0
 40
0.1835370200796997
 50
28.2544020802408902
 51
38.2082684633547771
  0
ARC
  5
DA1D
  8
0
 10
4405.6370072846566472
 20
213.728874813912995
 30
0.0
 40
0.0120027400633277
 50
118.076927643988796
 51
196.1386878357041894
  0
ARC
  5
DA1E
  8
0
 10
4405.6793796811271022
 20
213.6529264874311878
 30
0.0
 40
0.011950408753322
 50
215.8491865875936924
 51
296.3423852558947829
  0
ARC
  5
DA1F
  8
0
 10
4406.5105208612521892
 20
214.164776618382092
 30
0.0
 40
0.9880444271718364
 50
206.394744155003707
 51
211.6660523076359084
  0
ARC
  5
DA20
  8
0
 10
4405.1764302191986644
 20
213.4223692184916104
 30
0.0
 40
0.5401690555621325
 50
26.6933309359441715
 51
31.7060517928468499
  0
ARC
  5
DA21
  8
0
 10
4406.1205239890759913
 20
213.9499987181656024
 30
0.0
 40
0.5423917478344461
 50
206.7036083825385049
 51
211.6957743462494079
  0
LINE
  5
DA22
  8
0
 10
4405.6313691075429233
 20
213.739468228004398
 30
0.0
 11
4405.6692606270944452
 21
213.7592246564778975
 31
0.0
  0
LINE
  5
DA23
  8
0
 10
4405.6846831171678787
 20
213.6422133647311909
 30
0.0
 11
4405.7267886076087962
 21
213.663237854685093
 31
0.0
  0
ARC
  5
DA24
  8
0
 10
4405.4247034424333833
 20
213.4879277577001915
 30
0.0
 40
0.349209749252418
 50
30.1286371637189987
 51
33.1578310275894879
  0
ARC
  5
DA25
  8
0
 10
4405.2825510838119953
 20
213.5681151185075066
 30
0.0
 40
0.427663631196876
 50
26.2876105179970985
 51
28.6825641632752806
  0
ARC
  5
DA26
  8
0
 10
4405.6334381076585487
 20
213.7418195755423085
 30
0.0
 40
0.0398269976401908
 50
25.9137177791219386
 51
52.4023237765449679
  0
ARC
  5
DA27
  8
0
 10
4405.5180273699243116
 20
213.513741471626588
 30
0.0
 40
0.253129510114974
 50
31.3448081316304794
 51
35.7384761891008793
  0
ARC
  5
DA28
  8
0
 10
4405.6849022369642626
 20
213.6353303698049046
 30
0.0
 40
0.050331856294756
 50
11.5595583841882696
 51
34.6008389769089391
  0
ARC
  5
DA29
  8
0
 10
4406.1687225891928392
 20
212.857495425315193
 30
0.0
 40
0.0775986417186696
 50
22.8901888407910796
 51
53.7745428723556671
  0
ARC
  5
DA2A
  8
0
 10
4405.7972261423328746
 20
212.5504575519375123
 30
0.0
 40
0.5567343947018824
 50
27.5748115091054586
 51
37.2800048409752804
  0
ARC
  5
DA2B
  8
0
 10
4406.7144632965910205
 20
213.1056617637894135
 30
0.0
 40
0.5177442240325347
 50
215.0718790919499952
 51
218.1710728822322949
  0
ARC
  5
DA2C
  8
0
 10
4406.1941017233129969
 20
212.7071819287153005
 30
0.0
 40
0.137864161899594
 50
26.4122095424413601
 51
34.7124747233833517
  0
ARC
  5
DA2D
  8
0
 10
4406.6101338069320263
 20
213.0166120859445016
 30
0.0
 40
0.3835969809202817
 50
217.259227436923311
 51
220.2996509734414872
  0
ARC
  5
DA2E
  8
0
 10
4406.4341048766664244
 20
213.0692776193247084
 30
0.0
 40
0.2654142092122977
 50
214.2117684160612896
 51
216.6103278029243882
  0
ARC
  5
DA2F
  8
0
 10
4406.4147193013868673
 20
212.6410229121156874
 30
0.0
 40
0.0167238883685825
 50
217.5179635216933889
 51
259.4455992223341809
  0
ARC
  5
DA30
  8
0
 10
4411.9791907921116945
 20
216.5294884284884915
 30
0.0
 40
6.8050738987033812
 50
213.4189900743550083
 51
214.95235607880781
  0
ARC
  5
DA31
  8
0
 10
4407.8794557454612004
 20
214.1291620089764081
 30
0.0
 40
2.067388697225427
 50
212.9514558866646894
 51
216.2598138427314041
  0
ARC
  5
DA32
  8
0
 10
4356.6227170807987932
 20
182.1415293078460138
 30
0.0
 40
58.3447350689744013
 50
32.0671345370054723
 51
32.1919887479281215
  0
ARC
  5
DA33
  8
0
 10
4405.8709160487169356
 20
213.427910065501294
 30
0.0
 40
0.0099149049172422
 50
181.2355830089105098
 51
213.0912993950587122
  0
LINE
  5
DA34
  8
0
 10
4405.8610034491675833
 20
213.4276962672311981
 30
0.0
 11
4405.852729669866676
 21
213.4397427858550031
 31
0.0
  0
LINE
  5
DA35
  8
0
 10
4405.8626093251677958
 20
213.4224967778312134
 30
0.0
 11
4405.9321529118096805
 21
213.3168797860446944
 31
0.0
  0
ARC
  5
DA36
  8
0
 10
4405.7916673719919345
 20
213.5540704164301928
 30
0.0
 40
0.0099020065670322
 50
210.9880817278441896
 51
242.4502474272451877
  0
LINE
  5
DA37
  8
0
 10
4405.7870875090684422
 20
213.545291202931196
 30
0.0
 11
4405.7935607262688791
 21
213.5338361531281919
 31
0.0
  0
LINE
  5
DA38
  8
0
 10
4405.7831786350852781
 20
213.5489722716882
 30
0.0
 11
4405.7177910515092663
 21
213.6587451145261127
 31
0.0
  0
LINE
  5
DA39
  8
0
 10
4405.5860982147842151
 20
213.8832268850588889
 30
0.0
 11
4405.5901942640175548
 21
213.8751287039312103
 31
0.0
  0
LINE
  5
DA3A
  8
0
 10
4405.5901942640175548
 20
213.8751287039312103
 30
0.0
 11
4405.6117839577627819
 21
213.8399722174123951
 31
0.0
  0
LINE
  5
DA3B
  8
0
 10
4405.6117839577627819
 20
213.8399722174123951
 30
0.0
 11
4405.6203107235087373
 21
213.8221116853974877
 31
0.0
  0
LINE
  5
DA3C
  8
0
 10
4405.6203107235087373
 20
213.8221116853974877
 30
0.0
 11
4405.6604818427967984
 21
213.754647446957506
 31
0.0
  0
LINE
  5
DA3D
  8
0
 10
4405.3760397379592177
 20
214.1729631338172908
 30
0.0
 11
4405.417302550768909
 21
214.0941214388311948
 31
0.0
  0
ARC
  5
DA3E
  8
0
 10
4405.5811437891898095
 20
215.0886883017716968
 30
0.0
 40
0.4760028772711133
 50
201.7392246204711057
 51
206.200349632290397
  0
ARC
  5
DA3F
  8
0
 10
4405.2819361078290967
 20
214.9693817634600066
 30
0.0
 40
0.1538859937173968
 50
191.6459485776854876
 51
201.7392246204937862
  0
ARC
  5
DA40
  8
0
 10
4405.1466674628109104
 20
214.941502029575787
 30
0.0
 40
0.0157741336685405
 50
164.0948243139754084
 51
191.6459485776854876
  0
ARC
  5
DA41
  8
0
 10
4405.1457109550938185
 20
214.9417745913839042
 30
0.0
 40
0.0147795498609997
 50
120.2821360670866966
 51
164.0948243139754084
  0
LINE
  5
DA42
  8
0
 10
4405.1382582428395835
 20
214.9545375132337881
 30
0.0
 11
4405.1889505018643831
 21
214.9805655398243971
 31
0.0
  0
ARC
  5
DA43
  8
0
 10
4404.9879396690930662
 20
214.7991968684418964
 30
0.0
 40
0.2655356843020727
 50
25.8160657805236085
 51
36.0659232508971783
  0
ARC
  5
DA44
  8
0
 10
4404.9185540287380718
 20
214.8171450306911083
 30
0.0
 40
0.3159438486253768
 50
25.975023109300249
 51
31.1476605297103113
  0
ARC
  5
DA45
  8
0
 10
4405.1437989769829073
 20
214.9542051698198009
 30
0.0
 40
0.0522831646512264
 50
30.2772437453045917
 51
47.2428102491532869
  0
ARC
  5
DA46
  8
0
 10
4405.1744414283757578
 20
214.9871369250485031
 30
0.0
 40
0.0073018735138627
 50
48.3547384242783806
 51
76.6110082395550904
  0
ARC
  5
DA47
  8
0
 10
4405.1759378021151861
 20
214.9922695789649936
 30
0.0
 40
0.0019803277503879
 50
84.3648440738673457
 51
138.6259516374614122
  0
ARC
  5
DA48
  8
0
 10
4405.216630121961316
 20
214.9871633107642879
 30
0.0
 40
0.0426634566966164
 50
171.3517591791072903
 51
198.0428097094086866
  0
ARC
  5
DA49
  8
0
 10
4405.0373736321698743
 20
214.822489042947808
 30
0.0
 40
0.1399908709702603
 50
25.7161816801269687
 51
33.2203841366535713
  0
ARC
  5
DA4A
  8
0
 10
4405.1357500080976024
 20
214.886914442933886
 30
0.0
 40
0.0223960432619965
 50
33.2210152082163219
 51
43.3426295956194494
  0
ARC
  5
DA4B
  8
0
 10
4405.1479745210381225
 20
214.898451425524911
 30
0.0
 40
0.0055870967181137
 50
43.3426295956711982
 51
56.0337983907888031
  0
ARC
  5
DA4C
  8
0
 10
4405.1506951778783332
 20
214.9024901020974028
 30
0.0
 40
0.0007175092511611
 50
56.0337983906077497
 51
110.3363357285099937
  0
ARC
  5
DA4D
  8
0
 10
4405.1508021297968298
 20
214.9026881692591076
 30
0.0
 40
0.0005935600035988
 50
126.8906750730327957
 51
171.106325819298803
  0
ARC
  5
DA4E
  8
0
 10
4405.1595664551532536
 20
214.9023244970233009
 30
0.0
 40
0.0093618336440673
 50
177.2115565123746137
 51
197.9983515586197029
  0
ARC
  5
DA4F
  8
0
 10
4405.2681307476495931
 20
214.9365663063300929
 30
0.0
 40
0.1231978308978852
 50
197.5430231133960888
 51
206.98366184263989
  0
ARC
  5
DA50
  8
0
 10
4405.5791773629371164
 20
215.0926382273285924
 30
0.0
 40
0.4760028772711133
 50
206.731458531089487
 51
211.1925835428897074
  0
ARC
  5
DA51
  8
0
 10
4405.3036284961563069
 20
214.9258086475599896
 30
0.0
 40
0.1538859937173968
 50
211.1925835428876042
 51
221.2858595856814929
  0
ARC
  5
DA52
  8
0
 10
4405.1998475159207374
 20
214.8346801995992053
 30
0.0
 40
0.0157741336685405
 50
221.2858595856814929
 51
248.8369838494064084
  0
ARC
  5
DA53
  8
0
 10
4405.199488448601187
 20
214.8337526934755886
 30
0.0
 40
0.0147795498609997
 50
248.8369838494072042
 51
292.649672096280824
  0
LINE
  5
DA54
  8
0
 10
4405.2051799874461722
 20
214.8201129911456064
 30
0.0
 11
4405.256503761201202
 21
214.8448725052894872
 31
0.0
  0
ARC
  5
DA55
  8
0
 10
4404.9906239933288816
 20
214.7938049139312113
 30
0.0
 40
0.2655356843020727
 50
16.8658849124564902
 51
27.1157423828561406
  0
ARC
  5
DA56
  8
0
 10
4404.9631219241136932
 20
214.7276222892905935
 30
0.0
 40
0.3159438486253768
 50
21.7841476336354383
 51
26.9567850540834613
  0
ARC
  5
DA57
  8
0
 10
4405.2082545656530783
 20
214.8247343714392059
 30
0.0
 40
0.0522831646512264
 50
5.6889979142277571
 51
22.6545644180779604
  0
ARC
  5
DA58
  8
0
 10
4405.2530016289501873
 20
214.829334442766509
 30
0.0
 40
0.0073018735138627
 50
336.3207999238547927
 51
4.5770697391227619
  0
ARC
  5
DA59
  8
0
 10
4405.2579990312769951
 20
214.8274346426231887
 30
0.0
 40
0.0019803277503879
 50
274.3058565259195234
 51
328.5669640895292787
  0
ARC
  5
DA5A
  8
0
 10
4405.2784525551505794
 20
214.8629816851234011
 30
0.0
 40
0.0426634566966164
 50
214.8889984541119986
 51
241.5800489842681031
  0
ARC
  5
DA5B
  8
0
 10
4405.0390063225559061
 20
214.8192094863588011
 30
0.0
 40
0.1399908711282217
 50
19.7114240288606197
 51
27.2156264981885805
  0
ARC
  5
DA5C
  8
0
 10
4405.1497103999863612
 20
214.8588724512204919
 30
0.0
 40
0.0223960432619965
 50
9.5891785677668633
 51
19.7107929551658501
  0
ARC
  5
DA5D
  8
0
 10
4405.1662844838110686
 20
214.8616725278778858
 30
0.0
 40
0.0055870967181137
 50
356.8980097726080771
 51
9.5891785677276733
  0
ARC
  5
DA5E
  8
0
 10
4405.171146936315381
 20
214.8614090174658884
 30
0.0
 40
0.0007175092511611
 50
302.595472434836779
 51
356.8980097727670113
  0
ARC
  5
DA5F
  8
0
 10
4405.1713694446889349
 20
214.8613749684255083
 30
0.0
 40
0.0005935600035988
 50
241.8254823440732935
 51
286.0411330903784801
  0
ARC
  5
DA60
  8
0
 10
4405.1763620933588754
 20
214.8685873962899109
 30
0.0
 40
0.0093618336440673
 50
214.933456604756401
 51
235.7202516510108126
  0
ARC
  5
DA61
  8
0
 10
4405.269123040429804
 20
214.9345731054127953
 30
0.0
 40
0.1231978308978852
 50
205.9481463207355034
 51
215.3887850500184982
  0
ARC
  5
DA62
  8
0
 10
4404.7538925460930841
 20
214.3991358723050951
 30
0.0
 40
0.5110278861040093
 50
25.8089270419826597
 51
31.4618721263285117
  0
ARC
  5
DA63
  8
0
 10
4405.0936036291823257
 20
214.5638068792042077
 30
0.0
 40
0.1399908709702603
 50
25.7161816801269687
 51
33.2203841366535713
  0
ARC
  5
DA64
  8
0
 10
4405.1919800051109632
 20
214.6282322791903994
 30
0.0
 40
0.0223960432619965
 50
33.2210152082163219
 51
43.3426295956194494
  0
ARC
  5
DA65
  8
0
 10
4405.2042045180496643
 20
214.6397692617813959
 30
0.0
 40
0.0055870967181137
 50
43.3426295956711982
 51
56.0337983907888031
  0
ARC
  5
DA66
  8
0
 10
4405.2069251748898751
 20
214.6438079383534898
 30
0.0
 40
0.0007175092511611
 50
56.0337983906077497
 51
110.3363357285099937
  0
ARC
  5
DA67
  8
0
 10
4405.2070321268101907
 20
214.6440060055155925
 30
0.0
 40
0.0005935600035988
 50
126.8906750730327957
 51
171.106325819298803
  0
ARC
  5
DA68
  8
0
 10
4405.215796452163886
 20
214.6436423332793026
 30
0.0
 40
0.0093618336440673
 50
177.2115565123746137
 51
197.9983515586197029
  0
ARC
  5
DA69
  8
0
 10
4405.3243607446629539
 20
214.6778841425866062
 30
0.0
 40
0.1231978308978852
 50
197.5430231133960888
 51
206.98366184263989
  0
ARC
  5
DA6A
  8
0
 10
4405.0952363195683574
 20
214.560527322615286
 30
0.0
 40
0.1399908711282217
 50
19.7114240288606197
 51
27.2156264981885805
  0
ARC
  5
DA6B
  8
0
 10
4405.205940396997903
 20
214.6001902874766074
 30
0.0
 40
0.0223960432619965
 50
9.5891785677668633
 51
19.7107929551658501
  0
ARC
  5
DA6C
  8
0
 10
4405.2225144808226105
 20
214.6029903641343992
 30
0.0
 40
0.0055870967181137
 50
356.8980097726080771
 51
9.5891785677276733
  0
ARC
  5
DA6D
  8
0
 10
4405.2273769333278324
 20
214.6027268537220039
 30
0.0
 40
0.0007175092511611
 50
302.595472434836779
 51
356.8980097727670113
  0
ARC
  5
DA6E
  8
0
 10
4405.2275994417013862
 20
214.6026928046815954
 30
0.0
 40
0.0005935600035988
 50
241.8254823440732935
 51
286.0411330903784801
  0
ARC
  5
DA6F
  8
0
 10
4405.2325920903713268
 20
214.6099052325459979
 30
0.0
 40
0.0093618336440673
 50
214.933456604756401
 51
235.7202516510108126
  0
ARC
  5
DA70
  8
0
 10
4405.3253530374431648
 20
214.6758909416689107
 30
0.0
 40
0.1231978308978852
 50
205.9481463207355034
 51
215.3887850500184982
  0
ARC
  5
DA71
  8
0
 10
4404.538045635713388
 20
214.8876392752117113
 30
0.0
 40
0.5754752159633983
 50
23.88897043705024
 51
27.8795546279933006
  0
ARC
  5
DA72
  8
0
 10
4404.8623838222538325
 20
215.0802179743789111
 30
0.0
 40
0.1995944934806548
 50
22.5436016093939813
 51
31.8097252954131591
  0
ARC
  5
DA73
  8
0
 10
4405.0209740751379286
 20
215.1799332838236865
 30
0.0
 40
0.0123174160695262
 50
26.4737722767991492
 51
58.3628400315448701
  0
ARC
  5
DA74
  8
0
 10
4405.0267016019752191
 20
215.1892297306075932
 30
0.0
 40
0.0013982363158355
 50
58.362840031241042
 51
142.5462498794908015
  0
ARC
  5
DA75
  8
0
 10
4405.0371156997789512
 20
215.1878953723644088
 30
0.0
 40
0.011729328046824
 50
169.2656454684301934
 51
188.6894366851514064
  0
ARC
  5
DA76
  8
0
 10
4405.2896368639248976
 20
215.2296323897456034
 30
0.0
 40
0.2676755994166819
 50
189.3545911055987006
 51
193.7681930375509012
  0
ARC
  5
DA77
  8
0
 10
4404.5020861980083282
 20
214.879475814605911
 30
0.0
 40
0.6117011841006881
 50
17.9645226608856596
 51
23.2240914074813496
  0
ARC
  5
DA78
  8
0
 10
4405.0165767119497104
 20
215.0442398660266008
 30
0.0
 40
0.0715020705897464
 50
4.1917697007998642
 51
19.5287920257860215
  0
ARC
  5
DA79
  8
0
 10
4405.0802999496791017
 20
215.048701469952789
 30
0.0
 40
0.0076260146396362
 50
339.3732359917324857
 51
5.7560390656034359
  0
ARC
  5
DA7A
  8
0
 10
4405.082924108244697
 20
215.0477137143674895
 30
0.0
 40
0.0048221121313219
 50
320.5219257253471028
 51
339.3732359917324857
  0
ARC
  5
DA7B
  8
0
 10
4405.0851624367969634
 20
215.0464148507649895
 30
0.0
 40
0.0023072718272709
 50
284.8788451956447716
 51
310.0200837471275008
  0
ARC
  5
DA7C
  8
0
 10
4405.0858653545974448
 20
215.0453056391546909
 30
0.0
 40
0.0011261306639196
 50
231.9301790433221129
 51
264.3706169279763003
  0
ARC
  5
DA7D
  8
0
 10
4405.195113939017574
 20
215.1344029666200015
 30
0.0
 40
0.1420723707693409
 50
210.2680846911187018
 51
219.2989383382659128
  0
LINE
  5
DA7E
  8
0
 10
4405.0839409734153378
 20
215.0682173865826883
 30
0.0
 11
4405.0365754421800375
 21
215.0459323098525886
 31
0.0
  0
LINE
  5
DA7F
  8
0
 10
4405.0400119763771727
 20
215.1712465451172989
 30
0.0
 11
4404.9913088836037787
 21
215.1462382693877089
 31
0.0
  0
ARC
  5
DA80
  8
0
 10
4404.9985082700350176
 20
215.1335294741222128
 30
0.0
 40
0.0146063219902665
 50
119.5310549094156016
 51
141.558740524164989
  0
ARC
  5
DA81
  8
0
 10
4404.9980118275216228
 20
215.1349838256423084
 30
0.0
 40
0.0133391744862587
 50
145.1281711832480141
 51
185.2046468166311968
  0
ARC
  5
DA82
  8
0
 10
4405.0641388665771956
 20
215.147250548472897
 30
0.0
 40
0.080546660450082
 50
189.6318158218917915
 51
202.1160797829913065
  0
ARC
  5
DA83
  8
0
 10
4405.446648443770755
 20
215.2879417251602945
 30
0.0
 40
0.4880718031401406
 50
200.5112022622058134
 51
204.0036753817454098
  0
ARC
  5
DA84
  8
0
 10
4405.4403390753313943
 20
215.282222305271091
 30
0.0
 40
0.4799888006447148
 50
203.6863695213428116
 51
207.1472300359693008
  0
ARC
  5
DA85
  8
0
 10
4405.1005753935405664
 20
215.1065346480305891
 30
0.0
 40
0.0975007498520388
 50
206.3794565464368986
 51
214.883570261978889
  0
ARC
  5
DA86
  8
0
 10
4405.0322510083396992
 20
215.0588307991326076
 30
0.0
 40
0.0141709434811737
 50
214.6539925351474096
 51
250.7138727237515923
  0
ARC
  5
DA87
  8
0
 10
4405.0314563264028038
 20
215.0573305415929042
 30
0.0
 40
0.012495000326272
 50
251.8812892079268977
 51
294.1855590911977174
  0
ARC
  5
DA88
  8
0
 10
4404.7340845136714051
 20
214.972398868548396
 30
0.0
 40
0.2960478481578903
 50
23.7294351350077086
 51
25.9227970320748504
  0
ARC
  5
DA89
  8
0
 10
4404.8529098911567417
 20
215.03015580912421
 30
0.0
 40
0.1639292101115726
 50
25.9227970320748504
 51
28.2284792842243704
  0
ARC
  5
DA8A
  8
0
 10
4404.9549179623518285
 20
215.0849173558924861
 30
0.0
 40
0.0481515197156614
 50
28.228479284222221
 51
33.2023101267628888
  0
ARC
  5
DA8B
  8
0
 10
4404.9892665668712652
 20
215.1073964308654922
 30
0.0
 40
0.0071011184508354
 50
33.2023101268145879
 51
45.2742274508462472
  0
ARC
  5
DA8C
  8
0
 10
4404.9940346863695595
 20
215.1122104122979124
 30
0.0
 40
0.0003254722975166
 50
45.2742274503429911
 51
101.3579166977202988
  0
ARC
  5
DA8D
  8
0
 10
4404.9940602049064182
 20
215.11236406930729
 30
0.0
 40
0.0001881538474914
 50
118.4435037282635932
 51
148.6496765003940084
  0
ARC
  5
DA8E
  8
0
 10
4404.9944876723820926
 20
215.1122065274398949
 30
0.0
 40
0.0006412236066324
 50
156.5248203035419863
 51
187.3017215480064976
  0
ARC
  5
DA8F
  8
0
 10
4405.0098931149532291
 20
215.1141108122151877
 30
0.0
 40
0.0161639093224561
 50
187.0567716571505059
 51
198.7035870586900899
  0
ARC
  5
DA90
  8
0
 10
4405.1856590270226661
 20
215.1731992172975936
 30
0.0
 40
0.2015960611527888
 50
198.5912386640522129
 51
204.5279085944978021
  0
ARC
  5
DA91
  8
0
 10
4405.2168139688510564
 20
215.1834273129383917
 30
0.0
 40
0.2342137179315194
 50
203.6402447349994134
 51
207.7740261830018937
  0
ARC
  5
DA92
  8
0
 10
4405.0503737724420716
 20
215.0959371378939977
 30
0.0
 40
0.0461797888915376
 50
207.9577738441070096
 51
214.1402756677742047
  0
ARC
  5
DA93
  8
0
 10
4405.0133962874851932
 20
215.0706303936219967
 30
0.0
 40
0.0013856122598902
 50
206.1338454605173069
 51
253.9661585395832049
  0
ARC
  5
DA94
  8
0
 10
4405.012905808834148
 20
215.0695060494902862
 30
0.0
 40
0.0002336965613697
 50
297.46033050572089
 51
0.0375029941615242
  0
ARC
  5
DA95
  8
0
 10
4404.9976590817577744
 20
215.0680807874686025
 30
0.0
 40
0.0155459101473967
 50
5.2608778330574371
 51
20.0236608540734906
  0
ARC
  5
DA96
  8
0
 10
4404.8083676973492402
 20
215.0033371456601117
 30
0.0
 40
0.2156004583445092
 50
18.9646025709164796
 51
24.1467376774338511
  0
ARC
  5
DA97
  8
0
 10
4404.4024547676763177
 20
215.1055027741080039
 30
0.0
 40
0.5754752159633983
 50
23.88897043705024
 51
27.8795546279933006
  0
ARC
  5
DA98
  8
0
 10
4404.7267929542176716
 20
215.298081473275289
 30
0.0
 40
0.1995944934806548
 50
22.5436016093939813
 51
31.8097252954131591
  0
ARC
  5
DA99
  8
0
 10
4404.8853832071008583
 20
215.3977967827200075
 30
0.0
 40
0.0123174160695262
 50
26.4737722767991492
 51
58.3628400315448701
  0
ARC
  5
DA9A
  8
0
 10
4404.8911107339408773
 20
215.4070932295039995
 30
0.0
 40
0.0013982363158355
 50
58.362840031241042
 51
142.5462498794908015
  0
ARC
  5
DA9B
  8
0
 10
4404.9015248317436999
 20
215.4057588712607867
 30
0.0
 40
0.011729328046824
 50
169.2656454684301934
 51
188.6894366851514064
  0
ARC
  5
DA9C
  8
0
 10
4405.1540459958896463
 20
215.4474958886422939
 30
0.0
 40
0.2676755994166819
 50
189.3545911055987006
 51
193.7681930375927948
  0
ARC
  5
DA9D
  8
0
 10
4404.3664953299730769
 20
215.0973393135022889
 30
0.0
 40
0.6117011841006881
 50
17.9645226608856596
 51
23.2240914074813496
  0
ARC
  5
DA9E
  8
0
 10
4404.8809858439135496
 20
215.2621033649228934
 30
0.0
 40
0.0715020705897464
 50
4.1917697007998642
 51
19.5287920257860215
  0
ARC
  5
DA9F
  8
0
 10
4404.9447090816420314
 20
215.2665649688491101
 30
0.0
 40
0.0076260146396362
 50
339.3732359917324857
 51
5.7560390656034359
  0
ARC
  5
DAA0
  8
0
 10
4404.9473332402094456
 20
215.2655772132638106
 30
0.0
 40
0.0048221121313219
 50
320.5219257253471028
 51
339.3732359917324857
  0
ARC
  5
DAA1
  8
0
 10
4404.9495715687617121
 20
215.2642783496613106
 30
0.0
 40
0.0023072718272709
 50
284.8788451956447716
 51
310.0200837471275008
  0
ARC
  5
DAA2
  8
0
 10
4404.950274486561284
 20
215.2631691380510119
 30
0.0
 40
0.0011261306639196
 50
231.9301790433221129
 51
264.3706169279763003
  0
ARC
  5
DAA3
  8
0
 10
4405.0595230709832322
 20
215.3522664655162941
 30
0.0
 40
0.1420723707693409
 50
210.2680846910681112
 51
219.2989383382659128
  0
LINE
  5
DAA4
  8
0
 10
4404.9483501053782675
 20
215.2860808854792936
 30
0.0
 11
4404.9009845741447862
 21
215.2637958087489949
 31
0.0
  0
LINE
  5
DAA5
  8
0
 10
4404.904420819749248
 20
215.3891098958264934
 30
0.0
 11
4404.8557180155703463
 21
215.3641017682843994
 31
0.0
  0
ARC
  5
DAA6
  8
0
 10
4404.8629174020006758
 20
215.3513929730189034
 30
0.0
 40
0.0146063219902665
 50
119.5310549094156016
 51
141.558740524164989
  0
ARC
  5
DAA7
  8
0
 10
4404.8624209594845524
 20
215.352847324538601
 30
0.0
 40
0.0133391744862587
 50
145.1281711832480141
 51
185.2046468166311968
  0
ARC
  5
DAA8
  8
0
 10
4404.9285479985410348
 20
215.3651140473691896
 30
0.0
 40
0.080546660450082
 50
189.6318158218917915
 51
202.1160797829913065
  0
ARC
  5
DAA9
  8
0
 10
4405.3110575757336846
 20
215.5058052240565871
 30
0.0
 40
0.4880718031401406
 50
200.5112022622058134
 51
204.0036753817454098
  0
ARC
  5
DAAA
  8
0
 10
4405.3047482072961429
 20
215.50008580416781
 30
0.0
 40
0.4799888006447148
 50
203.6863695213428116
 51
207.1472300359693008
  0
ARC
  5
DAAB
  8
0
 10
4404.9649845255062246
 20
215.3243981469273081
 30
0.0
 40
0.0975007498520388
 50
206.3794565464368986
 51
214.883570261978889
  0
ARC
  5
DAAC
  8
0
 10
4404.8966601403053573
 20
215.2766942980289002
 30
0.0
 40
0.0141709434811737
 50
214.6539925351474096
 51
250.7138727237515923
  0
ARC
  5
DAAD
  8
0
 10
4404.895865458366643
 20
215.2751940404895947
 30
0.0
 40
0.012495000326272
 50
251.8812892079268977
 51
294.1855590911977174
  0
ARC
  5
DAAE
  8
0
 10
4404.5984936456352443
 20
215.1902623674450865
 30
0.0
 40
0.2960478481578903
 50
23.7294351350077086
 51
25.9227970320748504
  0
ARC
  5
DAAF
  8
0
 10
4404.7173190231196713
 20
215.2480193080205026
 30
0.0
 40
0.1639292101115726
 50
25.9227970320748504
 51
28.2284792842243704
  0
ARC
  5
DAB0
  8
0
 10
4404.8193270943147581
 20
215.3027808547888924
 30
0.0
 40
0.0481515197156614
 50
28.228479284222221
 51
33.2023101267628888
  0
ARC
  5
DAB1
  8
0
 10
4404.8536756988332854
 20
215.3252599297618133
 30
0.0
 40
0.0071011184508354
 50
33.2023101268145879
 51
45.2742274508462472
  0
ARC
  5
DAB2
  8
0
 10
4404.8584438183343082
 20
215.330073911194205
 30
0.0
 40
0.0003254722975166
 50
45.2742274503429911
 51
101.3579166977202988
  0
ARC
  5
DAB3
  8
0
 10
4404.8584693368711669
 20
215.3302275682036111
 30
0.0
 40
0.0001881538474914
 50
118.4435037282635932
 51
148.6496765003940084
  0
ARC
  5
DAB4
  8
0
 10
4404.8588968043468412
 20
215.3300700263361875
 30
0.0
 40
0.0006412236066324
 50
156.5248203035419863
 51
187.3017215480064976
  0
ARC
  5
DAB5
  8
0
 10
4404.8743022469152493
 20
215.3319743111119067
 30
0.0
 40
0.0161639093224561
 50
187.0567716571505059
 51
198.7035870586900899
  0
ARC
  5
DAB6
  8
0
 10
4405.0500681589874148
 20
215.3910627161943978
 30
0.0
 40
0.2015960611527888
 50
198.5912386640522129
 51
204.5279085944978021
  0
ARC
  5
DAB7
  8
0
 10
4405.0812231008158051
 20
215.4012908118351106
 30
0.0
 40
0.2342137179315194
 50
203.6402447349994134
 51
207.7740261830018937
  0
ARC
  5
DAB8
  8
0
 10
4404.9147829044050013
 20
215.3138006367906883
 30
0.0
 40
0.0461797888915376
 50
207.9577738441070096
 51
214.1402756677742047
  0
ARC
  5
DAB9
  8
0
 10
4404.8778054194490323
 20
215.2884938925182894
 30
0.0
 40
0.0013856122598902
 50
206.1338454605173069
 51
253.9661585395832049
  0
ARC
  5
DABA
  8
0
 10
4404.8773149407988967
 20
215.2873695483866925
 30
0.0
 40
0.0002336965613697
 50
297.46033050572089
 51
0.0375029941615242
  0
ARC
  5
DABB
  8
0
 10
4404.8620682137234326
 20
215.2859442863650088
 30
0.0
 40
0.0155459101473967
 50
5.2608778330574371
 51
20.0236608540734906
  0
ARC
  5
DABC
  8
0
 10
4404.6727768293139889
 20
215.2212006445568022
 30
0.0
 40
0.2156004583445092
 50
18.9646025709164796
 51
24.1467376774338511
  0
ARC
  5
DABD
  8
0
 10
4404.0732084900064365
 20
215.2621660643517885
 30
0.0
 40
0.8653517575981272
 50
23.3110430450116404
 51
25.7782208904561685
  0
ARC
  5
DABE
  8
0
 10
4404.5112869955637507
 20
215.4812066372408026
 30
0.0
 40
0.3756709437902321
 50
24.752175139332099
 51
29.5275623310733586
  0
ARC
  5
DABF
  8
0
 10
4404.7867673095261125
 20
215.6413382347247136
 30
0.0
 40
0.057162048013625
 50
25.9517225414464683
 51
43.303906757632781
  0
ARC
  5
DAC0
  8
0
 10
4405.2169603144120629
 20
215.7949176541688132
 30
0.0
 40
0.4067313969324628
 50
196.2912554238787095
 51
198.90897385104671
  0
ARC
  5
DAC1
  8
0
 10
4404.1349315154866417
 20
215.282559758367114
 30
0.0
 40
0.8006171949558361
 50
19.9772858192133214
 51
23.7186945131333111
  0
ARC
  5
DAC2
  8
0
 10
4404.863452167161995
 20
215.5143163844091134
 30
0.0
 40
0.0371996609358259
 50
355.1248456780684819
 51
19.0249980372421099
  0
ARC
  5
DAC3
  8
0
 10
4404.8964771491528154
 20
215.5112476891050903
 30
0.0
 40
0.0040411632486422
 50
299.6515429002860174
 51
358.6854000073853967
  0
ARC
  5
DAC4
  8
0
 10
4404.9536406599909242
 20
215.5563553239263967
 30
0.0
 40
0.0744213081321145
 50
208.2129623540847092
 51
219.575008478249714
  0
LINE
  5
DAC5
  8
0
 10
4404.8986198502188927
 20
215.5264427541119119
 30
0.0
 11
4404.8499395786548121
 21
215.5026207531228124
 31
0.0
  0
LINE
  5
DAC6
  8
0
 10
4404.8381653137630565
 20
215.6663531281610915
 30
0.0
 11
4404.7931405506287774
 21
215.641963374992514
 31
0.0
  0
ARC
  5
DAC7
  8
0
 10
4404.7979777032633137
 20
215.6297212489758977
 30
0.0
 40
0.0131631187420527
 50
111.5601445298028978
 51
164.9806717911291969
  0
ARC
  5
DAC8
  8
0
 10
4404.8052542080640706
 20
215.6286473914499027
 30
0.0
 40
0.0204869100251319
 50
167.3543411798607963
 51
204.165784837056691
  0
ARC
  5
DAC9
  8
0
 10
4404.9081226246571532
 20
215.6396912184866039
 30
0.0
 40
0.1231031059419114
 50
189.0816048994136054
 51
199.0392527023896037
  0
ARC
  5
DACA
  8
0
 10
4408.0059600125823636
 20
216.8029181248755037
 30
0.0
 40
3.4320922220400192
 50
200.5256858932098112
 51
201.0277312312684046
  0
ARC
  5
DACB
  8
0
 10
4405.46746973190875
 20
215.8340915910945057
 30
0.0
 40
0.7150438682522664
 50
201.5526750111480112
 51
203.9162757336349046
  0
ARC
  5
DACC
  8
0
 10
4405.4952672084482401
 20
215.8543770328172116
 30
0.0
 40
0.7487137060789412
 50
204.4729760346259013
 51
206.2313155722127931
  0
ARC
  5
DACD
  8
0
 10
4404.9110479735727495
 20
215.5688485352698081
 30
0.0
 40
0.0984790221718947
 50
207.4524939769993068
 51
221.4171651460306123
  0
ARC
  5
DACE
  8
0
 10
4404.8445254659836792
 20
215.5144491865644909
 30
0.0
 40
0.0130086299701945
 50
235.7134286930956932
 51
294.5945256930318124
  0
ARC
  5
DACF
  8
0
 10
4404.5382800913794199
 20
215.4534681984997917
 30
0.0
 40
0.2960478481578903
 50
23.7294351350077086
 51
25.9227970320748504
  0
ARC
  5
DAD0
  8
0
 10
4404.6571054688638469
 20
215.5112251390754921
 30
0.0
 40
0.1639292101115726
 50
25.9227970320748504
 51
28.2284792842243704
  0
ARC
  5
DAD1
  8
0
 10
4404.7591135400580242
 20
215.5659866858437965
 30
0.0
 40
0.0481515197156614
 50
28.228479284222221
 51
33.2023101267628888
  0
ARC
  5
DAD2
  8
0
 10
4404.7934621445765515
 20
215.5884657608164048
 30
0.0
 40
0.0071011184508354
 50
33.2023101268145879
 51
45.2742274508462472
  0
ARC
  5
DAD3
  8
0
 10
4404.7982302640757553
 20
215.5932797422487965
 30
0.0
 40
0.0003254722975166
 50
45.2742274503429911
 51
101.3579166977202988
  0
ARC
  5
DAD4
  8
0
 10
4404.798255782614433
 20
215.5934333992586005
 30
0.0
 40
0.0001881538474914
 50
118.4435037282635932
 51
148.6496765003940084
  0
ARC
  5
DAD5
  8
0
 10
4404.7986832500901073
 20
215.5932758573912054
 30
0.0
 40
0.0006412236066324
 50
156.5248203035419863
 51
187.3017215480064976
  0
ARC
  5
DAD6
  8
0
 10
4404.8140886926594249
 20
215.5951801421664129
 30
0.0
 40
0.0161639093224561
 50
187.0567716571505059
 51
198.7035870586900899
  0
ARC
  5
DAD7
  8
0
 10
4404.9898546047306809
 20
215.654268547248904
 30
0.0
 40
0.2015960611527888
 50
198.5912386640522129
 51
204.5279085944978021
  0
ARC
  5
DAD8
  8
0
 10
4405.3081872888287762
 20
215.8005596807603865
 30
0.0
 40
0.5519337154265748
 50
204.6253029099509035
 51
207.3180567714474876
  0
ARC
  5
DAD9
  8
0
 10
4404.8585995810626628
 20
215.5689110144982124
 30
0.0
 40
0.0461797888915376
 50
207.9577738441070096
 51
214.1402756677742047
  0
ARC
  5
DADA
  8
0
 10
4404.8215450539219091
 20
215.5438013359515139
 30
0.0
 40
0.0013856122598902
 50
206.1338454605173069
 51
253.9661585395832049
  0
ARC
  5
DADB
  8
0
 10
4404.821054575270864
 20
215.5426769918202865
 30
0.0
 40
0.0002336965613697
 50
297.46033050572089
 51
0.0375029941615242
  0
ARC
  5
DADC
  8
0
 10
4404.8058078481963094
 20
215.5412517297980912
 30
0.0
 40
0.0155459101473967
 50
5.2608778330574371
 51
20.0236608540734906
  0
ARC
  5
DADD
  8
0
 10
4404.3909309351438424
 20
215.3785562092890018
 30
0.0
 40
0.461178887418722
 50
21.3397029947138392
 51
24.8827682766736693
  0
ARC
  5
DADE
  8
0
 10
4404.2160870192774382
 20
215.5943625804586929
 30
0.0
 40
0.5754752159633983
 50
23.88897043705024
 51
27.8795546279933006
  0
ARC
  5
DADF
  8
0
 10
4404.5404252058178827
 20
215.7869412796260065
 30
0.0
 40
0.1995944934806548
 50
22.5436016093939813
 51
31.8097252954131591
  0
ARC
  5
DAE0
  8
0
 10
4404.6990154587019788
 20
215.8866565890704976
 30
0.0
 40
0.0123174160695262
 50
26.4737722767991492
 51
58.3628400315448701
  0
ARC
  5
DAE1
  8
0
 10
4404.7047429855410883
 20
215.8959530358544043
 30
0.0
 40
0.0013982363158355
 50
58.362840031241042
 51
142.5462498794908015
  0
ARC
  5
DAE2
  8
0
 10
4404.7151570833439109
 20
215.8946186776115894
 30
0.0
 40
0.011729328046824
 50
169.2656454684301934
 51
188.6894366851514064
  0
ARC
  5
DAE3
  8
0
 10
4404.9676782474889478
 20
215.9363556949926988
 30
0.0
 40
0.2676755994166819
 50
189.3545911055987006
 51
193.7680986822547027
  0
ARC
  5
DAE4
  8
0
 10
4403.5454492895723888
 20
215.2881048242246038
 30
0.0
 40
1.3127116629978619
 50
20.6670121649231717
 51
24.2571801108714986
  0
ARC
  5
DAE5
  8
0
 10
4404.706295711814164
 20
215.7275065505573934
 30
0.0
 40
0.0715020705897464
 50
4.1917697007998642
 51
19.5287920257860215
  0
ARC
  5
DAE6
  8
0
 10
4404.7700189495426457
 20
215.7319681544836101
 30
0.0
 40
0.0076260146396362
 50
339.3732359917324857
 51
5.7560390656034359
  0
ARC
  5
DAE7
  8
0
 10
4404.7726431081091505
 20
215.7309803988983958
 30
0.0
 40
0.0048221121313219
 50
320.5219257253471028
 51
339.3732359917324857
  0
ARC
  5
DAE8
  8
0
 10
4404.774881436661417
 20
215.7296815352958106
 30
0.0
 40
0.0023072718272709
 50
284.8788451956447716
 51
310.0200837471275008
  0
ARC
  5
DAE9
  8
0
 10
4404.7755843544609888
 20
215.7285723236855119
 30
0.0
 40
0.0011261306639196
 50
231.9301790433221129
 51
264.3706169279763003
  0
ARC
  5
DAEA
  8
0
 10
4404.884832938882937
 20
215.8176696511507942
 30
0.0
 40
0.1420723707693409
 50
210.2682145224023031
 51
219.2989383382659128
  0
LINE
  5
DAEB
  8
0
 10
4404.7736599732779723
 20
215.7514840711137936
 30
0.0
 11
4404.7262944420454005
 21
215.7291989943834949
 31
0.0
  0
LINE
  5
DAEC
  8
0
 10
4404.7180533599421324
 20
215.877969850364309
 30
0.0
 11
4404.6693502671687384
 21
215.8529615746348043
 31
0.0
  0
ARC
  5
DAED
  8
0
 10
4404.6765496535999773
 20
215.8402527793693082
 30
0.0
 40
0.0146063219902665
 50
119.5310549094156016
 51
141.558740524164989
  0
ARC
  5
DAEE
  8
0
 10
4404.676053211085673
 20
215.8417071308890058
 30
0.0
 40
0.0133391744862587
 50
145.1281711832480141
 51
185.2046468166311968
  0
ARC
  5
DAEF
  8
0
 10
4404.7421802501412458
 20
215.8539738537195944
 30
0.0
 40
0.080546660450082
 50
189.6318158218917915
 51
202.1160797829913065
  0
ARC
  5
DAF0
  8
0
 10
4405.1246898273348052
 20
215.9946650304073898
 30
0.0
 40
0.4880718031401406
 50
200.5112022622058134
 51
204.0036753817454098
  0
ARC
  5
DAF1
  8
0
 10
4406.2552211135698599
 20
216.5314020199045899
 30
0.0
 40
1.7394421837757781
 50
205.005896852396603
 51
206.8238500471304064
  0
ARC
  5
DAF2
  8
0
 10
4404.7902943934059294
 20
215.7898013325618081
 30
0.0
 40
0.0975007498520388
 50
206.3794565464368986
 51
214.883570261978889
  0
ARC
  5
DAF3
  8
0
 10
4404.7219700082050622
 20
215.7420974836634002
 30
0.0
 40
0.0141709434811737
 50
214.6539925351474096
 51
250.7138727237515923
  0
ARC
  5
DAF4
  8
0
 10
4404.7211753262663478
 20
215.7405972261240947
 30
0.0
 40
0.012495000326272
 50
251.8812892079268977
 51
294.1855590911977174
  0
ARC
  5
DAF5
  8
0
 10
4404.4121258972345458
 20
215.679122173795605
 30
0.0
 40
0.2960478481578903
 50
23.7294351350077086
 51
25.9227970320748504
  0
ARC
  5
DAF6
  8
0
 10
4404.5309512747207918
 20
215.7368791143713906
 30
0.0
 40
0.1639292101115726
 50
25.9227970320748504
 51
28.2284792842243704
  0
ARC
  5
DAF7
  8
0
 10
4404.6329593459158787
 20
215.7916406611396098
 30
0.0
 40
0.0481515197156614
 50
28.228479284222221
 51
33.2023101267628888
  0
ARC
  5
DAF8
  8
0
 10
4404.6673079504344059
 20
215.8141197361121897
 30
0.0
 40
0.0071011184508354
 50
33.2023101268145879
 51
45.2742274508462472
  0
ARC
  5
DAF9
  8
0
 10
4404.6720760699336097
 20
215.8189337175446099
 30
0.0
 40
0.0003254722975166
 50
45.2742274503429911
 51
101.3579166977202988
  0
ARC
  5
DAFA
  8
0
 10
4404.6721015884713779
 20
215.8190873745544138
 30
0.0
 40
0.0001881538474914
 50
118.4435037282635932
 51
148.6496765003940084
  0
ARC
  5
DAFB
  8
0
 10
4404.6725290559470523
 20
215.8189298326869903
 30
0.0
 40
0.0006412236066324
 50
156.5248203035419863
 51
187.3017215480064976
  0
ARC
  5
DAFC
  8
0
 10
4404.6879344985163698
 20
215.8208341174621978
 30
0.0
 40
0.0161639093224561
 50
187.0567716571505059
 51
198.7035870586900899
  0
ARC
  5
DAFD
  8
0
 10
4404.8637004105867163
 20
215.8799225225446889
 30
0.0
 40
0.2015960611527888
 50
198.5912386640522129
 51
204.5279085944978021
  0
ARC
  5
DAFE
  8
0
 10
4406.0571373363718521
 20
216.4487722121432967
 30
0.0
 40
1.5236464283916309
 50
205.358132247532609
 51
206.9787912565909096
  0
ARC
  5
DAFF
  8
0
 10
4404.7400927723047062
 20
215.7792038224251883
 30
0.0
 40
0.0461797888915376
 50
207.9577738441070096
 51
214.1402756677742047
  0
ARC
  5
DB00
  8
0
 10
4404.7031152873487372
 20
215.7538970781527894
 30
0.0
 40
0.0013856122598902
 50
206.1338454605173069
 51
253.9661585395832049
  0
ARC
  5
DB01
  8
0
 10
4404.7026248086976921
 20
215.7527727340213062
 30
0.0
 40
0.0002336965613697
 50
297.46033050572089
 51
0.0375029941615242
  0
ARC
  5
DB02
  8
0
 10
4404.6873780816231374
 20
215.7513474719995088
 30
0.0
 40
0.0155459101473967
 50
5.2608778330574371
 51
20.0236608540734906
  0
ARC
  5
DB03
  8
0
 10
4403.6159640541072804
 20
215.2897424512221107
 30
0.0
 40
1.182142847318191
 50
23.2650055728077092
 51
25.4779389170893893
  0
LINE
  5
DB04
  8
0
 10
4404.659852018946367
 20
215.9807256713683046
 30
0.0
 11
4404.6152922571081945
 21
215.9591329120814009
 31
0.0
  0
LINE
  5
DB05
  8
0
 10
4404.6066232586708793
 20
216.1229877085216913
 30
0.0
 11
4404.5607208827814247
 21
216.0994175570685911
 31
0.0
  0
ARC
  5
DB06
  8
0
 10
4404.5679202692117542
 20
216.0867087618030098
 30
0.0
 40
0.0146063219902665
 50
119.5310549094156016
 51
141.558740524164989
  0
ARC
  5
DB07
  8
0
 10
4404.5673456716303917
 20
216.0886265440366003
 30
0.0
 40
0.0130144163426928
 50
146.6054978189829967
 51
188.818606659375007
  0
ARC
  5
DB08
  8
0
 10
4404.6338963200123544
 20
216.1001081101391037
 30
0.0
 40
0.080546660450082
 50
189.6318158218917915
 51
202.1160797829913065
  0
ARC
  5
DB09
  8
0
 10
4407.6063210791244273
 20
217.1203796231513934
 30
0.0
 40
3.2230785837769571
 50
199.0237721775206978
 51
199.5364912027415869
  0
ARC
  5
DB0A
  8
0
 10
4406.1966233233133607
 20
216.6205998087094997
 30
0.0
 40
1.727409062174833
 50
199.5499633119810881
 51
201.8721691124733866
  0
ARC
  5
DB0B
  8
0
 10
4404.7041314202542708
 20
216.0193910415804055
 30
0.0
 40
0.1183938136293321
 50
200.9412085659249101
 51
207.8599001042707926
  0
ARC
  5
DB0C
  8
0
 10
4404.610203599817396
 20
215.9706121495067066
 30
0.0
 40
0.0125814620304107
 50
211.3615777951854966
 51
251.8641822591118
  0
ARC
  5
DB0D
  8
0
 10
4404.6101731413300513
 20
215.9705311438220008
 30
0.0
 40
0.012495000326272
 50
251.8812892079268977
 51
294.1855590911977174
  0
ARC
  5
DB0E
  8
0
 10
4404.3094727755051281
 20
215.90613537714529
 30
0.0
 40
0.2960478481578903
 50
23.7294351350077086
 51
25.9227970320748504
  0
ARC
  5
DB0F
  8
0
 10
4404.4282981529895551
 20
215.9638923177205925
 30
0.0
 40
0.1639292101115726
 50
25.9227970320748504
 51
28.2284792842243704
  0
ARC
  5
DB10
  8
0
 10
4404.5303062241846419
 20
216.0186538644888969
 30
0.0
 40
0.0481515197156614
 50
28.228479284222221
 51
33.2023101267628888
  0
ARC
  5
DB11
  8
0
 10
4404.5646548287031692
 20
216.0411329394619031
 30
0.0
 40
0.0071011184508354
 50
33.2023101268145879
 51
45.2742274508462472
  0
ARC
  5
DB12
  8
0
 10
4404.5694229482041919
 20
216.0459469208942949
 30
0.0
 40
0.0003254722975166
 50
45.2742274503429911
 51
101.3579166977202988
  0
ARC
  5
DB13
  8
0
 10
4404.5694484667401412
 20
216.0461005779037009
 30
0.0
 40
0.0001881538474914
 50
118.4435037282635932
 51
148.6496765003940084
  0
ARC
  5
DB14
  8
0
 10
4404.569875934216725
 20
216.0459430360363058
 30
0.0
 40
0.0006412236066324
 50
156.5248203035419863
 51
187.3017215480064976
  0
ARC
  5
DB15
  8
0
 10
4404.585281376785133
 20
216.0478473208119965
 30
0.0
 40
0.0161639093224561
 50
187.0567716571505059
 51
198.7035870586900899
  0
ARC
  5
DB16
  8
0
 10
4404.7610472888563891
 20
216.1069357258944876
 30
0.0
 40
0.2015960611527888
 50
198.5912386640522129
 51
204.5279085944978021
  0
ARC
  5
DB17
  8
0
 10
4404.7922022306856888
 20
216.1171638215352004
 30
0.0
 40
0.2342137179315194
 50
203.6402447349994134
 51
207.7740261830018937
  0
ARC
  5
DB18
  8
0
 10
4404.6257620342748851
 20
216.0296736464908065
 30
0.0
 40
0.0461797888915376
 50
207.9577738441070096
 51
214.1402756677742047
  0
ARC
  5
DB19
  8
0
 10
4404.5887845493189161
 20
216.0043669022184076
 30
0.0
 40
0.0013856122598902
 50
206.1338454605173069
 51
253.9661585395832049
  0
ARC
  5
DB1A
  8
0
 10
4404.588294070667871
 20
216.0032425580868107
 30
0.0
 40
0.0002336965613697
 50
297.46033050572089
 51
0.0375029941615242
  0
ARC
  5
DB1B
  8
0
 10
4404.5730473435933163
 20
216.0018172960650986
 30
0.0
 40
0.0155459101473967
 50
5.2608778330574371
 51
20.0236608540734906
  0
ARC
  5
DB1C
  8
0
 10
4404.3837559591838726
 20
215.937073654256892
 30
0.0
 40
0.2156004583445092
 50
18.9646025709164796
 51
24.1467376774338511
  0
ARC
  5
DB1D
  8
0
 10
4404.6084023178018469
 20
214.6311066267400918
 30
0.0
 40
0.5754752159633983
 50
23.88897043705024
 51
27.8795546279933006
  0
ARC
  5
DB1E
  8
0
 10
4404.9327405043432009
 20
214.8236853259072916
 30
0.0
 40
0.1995944934806548
 50
22.5436016093939813
 51
31.8097252954131591
  0
ARC
  5
DB1F
  8
0
 10
4405.0913307572263875
 20
214.9234006353518112
 30
0.0
 40
0.0123174160695262
 50
26.4737722767991492
 51
58.3628400315448701
  0
ARC
  5
DB20
  8
0
 10
4405.0970582840664065
 20
214.9326970821356895
 30
0.0
 40
0.0013982363158355
 50
58.362840031241042
 51
142.5462498794908015
  0
ARC
  5
DB21
  8
0
 10
4405.1074723818692291
 20
214.9313627238925051
 30
0.0
 40
0.011729328046824
 50
169.2656454684301934
 51
188.6894366851514064
  0
ARC
  5
DB22
  8
0
 10
4405.359993546014266
 20
214.9730997412740976
 30
0.0
 40
0.2676755994166819
 50
189.3545911055987006
 51
193.7681930375896968
  0
ARC
  5
DB23
  8
0
 10
4404.5724428800967871
 20
214.6229431661344051
 30
0.0
 40
0.6117011841006881
 50
17.9645226608856596
 51
23.2240914074813496
  0
ARC
  5
DB24
  8
0
 10
4405.0869333940390788
 20
214.7877072175550097
 30
0.0
 40
0.0715020705897464
 50
4.1917697007998642
 51
19.5287920257860215
  0
ARC
  5
DB25
  8
0
 10
4405.1506566317675606
 20
214.7921688214811979
 30
0.0
 40
0.0076260146396362
 50
339.3732359917324857
 51
5.7560390656034359
  0
ARC
  5
DB26
  8
0
 10
4405.1532807903340654
 20
214.7911810658960121
 30
0.0
 40
0.0048221121313219
 50
320.5219257253471028
 51
339.3732359917324857
  0
ARC
  5
DB27
  8
0
 10
4405.1555191188863319
 20
214.7898822022933984
 30
0.0
 40
0.0023072718272709
 50
284.8788451956447716
 51
310.0200837471275008
  0
ARC
  5
DB28
  8
0
 10
4405.1562220366859037
 20
214.7887729906830998
 30
0.0
 40
0.0011261306639196
 50
231.9301790433221129
 51
264.3706169279763003
  0
ARC
  5
DB29
  8
0
 10
4405.2654706211078519
 20
214.8778703181484104
 30
0.0
 40
0.1420723707693409
 50
210.2680846911187018
 51
219.2989383382659128
  0
LINE
  5
DB2A
  8
0
 10
4405.1542976555037967
 20
214.8116847381110119
 30
0.0
 11
4405.1069321242694059
 21
214.7893996613811112
 31
0.0
  0
LINE
  5
DB2B
  8
0
 10
4405.1103683698738678
 20
214.9147137484582117
 30
0.0
 11
4405.0616655656940566
 21
214.8897056209162031
 31
0.0
  0
ARC
  5
DB2C
  8
0
 10
4405.0688649521252955
 20
214.8769968256505933
 30
0.0
 40
0.0146063219902665
 50
119.5310549094156016
 51
141.558740524164989
  0
ARC
  5
DB2D
  8
0
 10
4405.0683685096109912
 20
214.8784511771704047
 30
0.0
 40
0.0133391744862587
 50
145.1281711832480141
 51
185.2046468166311968
  0
ARC
  5
DB2E
  8
0
 10
4405.134495548664745
 20
214.890717900000908
 30
0.0
 40
0.080546660450082
 50
189.6318158218917915
 51
202.1160797829913065
  0
ARC
  5
DB2F
  8
0
 10
4405.5170051258601234
 20
215.0314090766887887
 30
0.0
 40
0.4880718031401406
 50
200.5112022622058134
 51
204.0036753817454098
  0
ARC
  5
DB30
  8
0
 10
4405.5106957574207627
 20
215.0256896567996137
 30
0.0
 40
0.4799888006447148
 50
203.6863695213428116
 51
207.1472300359693008
  0
ARC
  5
DB31
  8
0
 10
4405.1709320756299348
 20
214.850001999558998
 30
0.0
 40
0.0975007498520388
 50
206.3794565464368986
 51
214.883570261978889
  0
ARC
  5
DB32
  8
0
 10
4405.1026076904290676
 20
214.8022981506609881
 30
0.0
 40
0.0141709434811737
 50
214.6539925351474096
 51
250.7138727237515923
  0
ARC
  5
DB33
  8
0
 10
4405.1018130084912627
 20
214.8007978931213131
 30
0.0
 40
0.012495000326272
 50
251.8812892079268977
 51
294.1855590911977174
  0
ARC
  5
DB34
  8
0
 10
4404.8044411957598641
 20
214.7158662200768902
 30
0.0
 40
0.2960478481578903
 50
23.7294351350077086
 51
25.9227970320748504
  0
ARC
  5
DB35
  8
0
 10
4404.9232665732461101
 20
214.7736231606525905
 30
0.0
 40
0.1639292101115726
 50
25.9227970320748504
 51
28.2284792842243704
  0
ARC
  5
DB36
  8
0
 10
4405.0252746444411969
 20
214.828384707420895
 30
0.0
 40
0.0481515197156614
 50
28.228479284222221
 51
33.2023101267628888
  0
ARC
  5
DB37
  8
0
 10
4405.0596232489579052
 20
214.8508637823935032
 30
0.0
 40
0.0071011184508354
 50
33.2023101268145879
 51
45.2742274508462472
  0
ARC
  5
DB38
  8
0
 10
4405.0643913684580184
 20
214.855677763825895
 30
0.0
 40
0.0003254722975166
 50
45.2742274503429911
 51
101.3579166977202988
  0
ARC
  5
DB39
  8
0
 10
4405.0644168869957866
 20
214.855831420835699
 30
0.0
 40
0.0001881538474914
 50
118.4435037282635932
 51
148.6496765003940084
  0
ARC
  5
DB3A
  8
0
 10
4405.0648443544705515
 20
214.8556738789683038
 30
0.0
 40
0.0006412236066324
 50
156.5248203035419863
 51
187.3017215480064976
  0
ARC
  5
DB3B
  8
0
 10
4405.0802497970407785
 20
214.8575781637435966
 30
0.0
 40
0.0161639093224561
 50
187.0567716571505059
 51
198.7035870586900899
  0
ARC
  5
DB3C
  8
0
 10
4405.2560157091120345
 20
214.9166665688260878
 30
0.0
 40
0.2015960611527888
 50
198.5912386640522129
 51
204.5279085944978021
  0
ARC
  5
DB3D
  8
0
 10
4405.2871706509413343
 20
214.9268946644668006
 30
0.0
 40
0.2342137179315194
 50
203.6402447349994134
 51
207.7740261830018937
  0
ARC
  5
DB3E
  8
0
 10
4405.1207304545296211
 20
214.8394044894224066
 30
0.0
 40
0.0461797888915376
 50
207.9577738441070096
 51
214.1402756677742047
  0
ARC
  5
DB3F
  8
0
 10
4405.0837529695727426
 20
214.8140977451500078
 30
0.0
 40
0.0013856122598902
 50
206.1338454605173069
 51
253.9661585395832049
  0
ARC
  5
DB40
  8
0
 10
4405.083262490922607
 20
214.812973401018894
 30
0.0
 40
0.0002336965613697
 50
297.46033050572089
 51
0.0375029941615242
  0
ARC
  5
DB41
  8
0
 10
4405.0680157638471428
 20
214.8115481389970967
 30
0.0
 40
0.0155459101473967
 50
5.2608778330574371
 51
20.0236608540734906
  0
ARC
  5
DB42
  8
0
 10
4404.8787243794386086
 20
214.7468044971884922
 30
0.0
 40
0.2156004583445092
 50
18.9646025709164796
 51
24.1467376774338511
  0
ARC
  5
DB43
  8
0
 10
4403.7005558476503211
 20
214.4955177736229928
 30
0.0
 40
1.426066390531094
 50
24.4840431600883406
 51
25.9879919452633601
  0
ARC
  5
DB44
  8
0
 10
4452.1350675547937499
 20
234.0290232353567035
 30
0.0
 40
50.8004388144722085
 50
201.8933676544683067
 51
201.9565828100141118
  0
LINE
  5
DB45
  8
0
 10
4404.662803681956575
 20
215.8402944921444089
 30
0.0
 11
4404.6445760731021437
 21
215.8309360419654865
 31
0.0
  0
ARC
  5
DB46
  8
0
 10
4404.6499704334237322
 20
215.8204293567673915
 30
0.0
 40
0.0118105697207404
 50
117.1769487506360008
 51
201.3806076052266008
  0
LINE
  5
DB47
  8
0
 10
4404.6389726758607139
 20
215.816123676133401
 30
0.0
 11
4404.6705738116979774
 21
215.7354066745317027
 31
0.0
  0
ARC
  5
DB48
  8
0
 10
4404.6815660643060255
 20
215.7397101999470124
 30
0.0
 40
0.0118046579116614
 50
201.3806076052181879
 51
295.1858913948045142
  0
LINE
  5
DB49
  8
0
 10
4404.6865896128856548
 20
215.7290277887925924
 30
0.0
 11
4404.7072377610084004
 21
215.7387328291914059
 31
0.0
  0
LINE
  5
DB4A
  8
0
 10
4404.7869820373316543
 20
215.6177975482835052
 30
0.0
 11
4404.7417526111930783
 21
215.5945398195524092
 31
0.0
  0
ARC
  5
DB4B
  8
0
 10
4404.7474263538197192
 20
215.5836579876769861
 30
0.0
 40
0.0122721481555543
 50
117.5373519750307025
 51
200.4155211315579947
  0
ARC
  5
DB4C
  8
0
 10
4405.6136002034127159
 20
215.8821542276467937
 30
0.0
 40
0.9284328936067113
 50
199.033218327567397
 51
204.5248907722940999
  0
ARC
  5
DB4D
  8
0
 10
4404.7792756250719322
 20
215.5025533349119939
 30
0.0
 40
0.0118486716704183
 50
209.3983384190204902
 51
297.7001080018894186
  0
LINE
  5
DB4E
  8
0
 10
4404.7847834056246938
 20
215.4920626069232981
 30
0.0
 11
4404.8294112800849689
 21
215.5137706986712942
 31
0.0
  0
LINE
  5
DB4F
  8
0
 10
4404.8514770593519643
 20
215.360473898202514
 30
0.0
 11
4404.8280733064411834
 21
215.3488619392834948
 31
0.0
  0
ARC
  5
DB50
  8
0
 10
4404.8354286250887526
 20
215.3371265214213963
 30
0.0
 40
0.0138499366354074
 50
122.0779390913879041
 51
186.5574957354517949
  0
LINE
  5
DB51
  8
0
 10
4404.8216692981022788
 20
215.3355448559441925
 30
0.0
 11
4404.8568525507907907
 21
215.2553090175887007
 31
0.0
  0
ARC
  5
DB52
  8
0
 10
4404.8676696538623219
 20
215.2600526714321916
 30
0.0
 40
0.0118113220729689
 50
203.6790625715512988
 51
295.6748170754535181
  0
LINE
  5
DB53
  8
0
 10
4404.8727870626598815
 20
215.2494075102638078
 30
0.0
 11
4404.9368552582591292
 21
215.2806726583694967
 31
0.0
  0
LINE
  5
DB54
  8
0
 10
4405.0508880960378519
 20
214.9405564141403886
 30
0.0
 11
4405.0100090813448332
 21
214.9198036838340897
 31
0.0
  0
ARC
  5
DB55
  8
0
 10
4405.016355019324692
 20
214.9088726480241007
 30
0.0
 40
0.0126395598315314
 50
120.1370143316243997
 51
209.7179308067105978
  0
LINE
  5
DB56
  8
0
 10
4405.0053778596866323
 20
214.9026068329139889
 30
0.0
 11
4405.1346458641628487
 21
214.6255434823185055
 31
0.0
  0
ARC
  5
DB57
  8
0
 10
4405.1482506781012489
 20
214.6313793996847039
 30
0.0
 40
0.0148178885612017
 50
202.7306412278813923
 51
245.2058224442808978
  0
LINE
  5
DB58
  8
0
 10
4405.1320317913596227
 20
214.779817995486809
 30
0.0
 11
4405.086503276478652
 21
214.7574373023761893
 31
0.0
  0
ARC
  5
DB59
  8
0
 10
4405.0923170351288718
 20
214.7456105106018072
 30
0.0
 40
0.0131784973846382
 50
116.1775913142452055
 51
185.3013056948499866
  0
LINE
  5
DB5A
  8
0
 10
4405.0810396455635782
 20
214.811715653032195
 30
0.0
 11
4405.0639508290450976
 21
214.8033152130192889
 31
0.0
  0
ARC
  5
DB5B
  8
0
 10
4405.068949044515648
 20
214.7931474614495073
 30
0.0
 40
0.0113298424477255
 50
116.1775913141926964
 51
204.2753864777317006
  0
LINE
  5
DB5C
  8
0
 10
4405.0556832725060303
 20
214.8825765057154058
 30
0.0
 11
4405.0320381983592597
 21
214.8708050699825947
 31
0.0
  0
ARC
  5
DB5D
  8
0
 10
4405.0390848577471843
 20
214.8591897950400096
 30
0.0
 40
0.0135856549543153
 50
121.2440059903878051
 51
178.801789502919803
  0
LINE
  5
DB5E
  8
0
 10
4405.1244649949458108
 20
214.7976487268539927
 30
0.0
 11
4405.1619397043969002
 21
214.7093416758065985
 31
0.0
  0
ARC
  5
DB5F
  8
0
 10
4404.6360926527995616
 20
214.4057552731555063
 30
0.0
 40
0.6117492322380553
 50
25.1618901025982495
 51
31.1805486436000585
  0
ARC
  5
DB60
  8
0
 10
4404.887772537445926
 20
214.5522886561697931
 30
0.0
 40
0.3205993519425521
 50
32.0632019901316809
 51
33.1722095886447903
  0
ARC
  5
DB61
  8
0
 10
4405.1519475528548355
 20
214.7249769974687865
 30
0.0
 40
0.0049893045948908
 50
33.1722095885815307
 51
58.1624435055987092
  0
ARC
  5
DB62
  8
0
 10
4405.1542605873000866
 20
214.7287020858460949
 30
0.0
 40
0.0006045113547757
 50
58.1624435052983273
 51
167.827209671395309
  0
LINE
  5
DB63
  8
0
 10
4405.1659854055369578
 20
214.711452498757609
 30
0.0
 11
4405.1224986887609703
 21
214.6888575225459874
 31
0.0
  0
ARC
  5
DB64
  8
0
 10
4405.1291878891161105
 20
214.6778434737757948
 30
0.0
 40
0.0128862202249832
 50
121.271710407766605
 51
208.1176512620181995
  0
LINE
  5
DB65
  8
0
 10
4405.1178224784598569
 20
214.6717704092856991
 30
0.0
 11
4405.1420366508536972
 21
214.6179274226250868
 31
0.0
  0
LINE
  5
DB66
  8
0
 10
4405.1420366508536972
 20
214.6179274226250868
 30
0.0
 11
4405.1985404753550029
 21
214.5174391117242862
 31
0.0
  0
ARC
  5
DB67
  8
0
 10
4405.2123867556983896
 20
214.5204819028641907
 30
0.0
 40
0.0141766729962654
 50
192.3940355387404963
 51
288.0067285676933011
  0
LINE
  5
DB68
  8
0
 10
4405.2167691719096183
 20
214.506999600190511
 30
0.0
 11
4405.2552925096551917
 21
214.5260949963798112
 31
0.0
  0
ARC
  5
DB69
  8
0
 10
4410.5609503020295961
 20
216.8806529205594131
 30
0.0
 40
5.8046251726109928
 50
202.9033374211796001
 51
203.9308130062943007
  0
ARC
  5
DB6A
  8
0
 10
4404.4923165765922022
 20
214.2616474523381953
 30
0.0
 40
0.7467226196467838
 50
24.2634343822325107
 51
28.4935024404950887
  0
ARC
  5
DB6B
  8
0
 10
4405.8418479418141942
 20
214.9308870768365125
 30
0.0
 40
0.7606460961649609
 50
204.2993617632521932
 51
208.4519676414203104
  0
ARC
  5
DB6C
  8
0
 10
4405.1890012851108622
 20
214.5634657410539035
 30
0.0
 40
0.0117862327311461
 50
232.0677494519840138
 51
302.149983221598518
  0
ARC
  5
DB6D
  8
0
 10
4405.1533460134442066
 20
214.6346557894690079
 30
0.0
 40
0.0111494041898182
 50
109.1841102992914045
 51
184.0042676508145973
  0
LINE
  5
DB6E
  8
0
 10
4405.1164543467866679
 20
214.6798212430821877
 30
0.0
 11
4405.1800848231887358
 21
214.550261267199204
 31
0.0
  0
LINE
  5
DB6F
  8
0
 10
4405.1952731801457048
 20
214.553486832563209
 30
0.0
 11
4405.2344159569756812
 21
214.5737707680698918
 31
0.0
  0
LINE
  5
DB70
  8
0
 10
4405.1496822664639694
 20
214.6451860397910991
 30
0.0
 11
4405.1897882971834406
 21
214.6658672808279107
 31
0.0
  0
ARC
  5
DB71
  8
0
 10
4405.2476390275478479
 20
214.5894059637394093
 30
0.0
 40
0.0128485466922876
 50
222.1579737736782079
 51
295.124380828084611
  0
ARC
  5
DB72
  8
0
 10
4405.3946044699832782
 20
214.7001545041372879
 30
0.0
 40
0.1968218740049552
 50
202.1330430310190138
 51
217.3367568338348974
  0
ARC
  5
DB73
  8
0
 10
4405.3532513678801479
 20
214.7025592566226067
 30
0.0
 40
0.1604135203869556
 50
193.7507016685347025
 51
208.5066483806226074
  0
ARC
  5
DB74
  8
0
 10
4405.2102003582331236
 20
214.6660381184273092
 30
0.0
 40
0.0129127344975493
 50
118.8679154834324976
 51
187.1620108701006018
  0
LINE
  5
DB75
  8
0
 10
4405.2530943242400099
 20
214.5777730410580091
 30
0.0
 11
4405.2995305682670732
 21
214.6008999766719114
 31
0.0
  0
ARC
  5
DB76
  8
0
 10
4405.1568579988297643
 20
214.5426944576834956
 30
0.0
 40
0.1540887552656932
 50
22.1937762085876606
 51
29.1825397069748611
  0
ARC
  5
DB77
  8
0
 10
4405.0945037207757196
 20
214.565054436803905
 30
0.0
 40
0.2038345590318783
 50
15.0047868968382492
 51
36.1596018387658731
  0
ARC
  5
DB78
  8
0
 10
4405.2103011891485949
 20
214.6719420518807908
 30
0.0
 40
0.0505763056102088
 50
15.3430446557611599
 51
58.54256152195277
  0
ARC
  5
DB79
  8
0
 10
4405.4124466400207893
 20
214.7460161911641876
 30
0.0
 40
0.1784525293577245
 50
189.9814742096488942
 51
196.0789335971348066
  0
LINE
  5
DB7A
  8
0
 10
4405.2039684662477157
 20
214.6773466693769876
 30
0.0
 11
4405.2510867230794247
 21
214.7018502934095068
 31
0.0
  0
ARC
  5
DB7B
  8
0
 10
4404.8984815624362454
 20
215.5103521762484036
 30
0.0
 40
0.0026164660729783
 50
212.6022753915542864
 51
269.8871497911869142
  0
ARC
  5
DB7C
  8
0
 10
4404.8272602773504332
 20
215.6793643247492014
 30
0.0
 40
0.00161649737536
 50
46.8596929297336615
 51
115.6127732252541023
  0
ARC
  5
DB7D
  8
0
 10
4404.7220187497568986
 20
215.476463868012587
 30
0.0
 40
0.1835370200796997
 50
15.8017457609436107
 51
25.7556121440325114
  0
ARC
  5
DB7E
  8
0
 10
4404.9758037152550969
 20
215.0262795798421109
 30
0.0
 40
0.0120027400633277
 50
217.8713263885842935
 51
295.9330865802907056
  0
ARC
  5
DB7F
  8
0
 10
4404.9392523047863506
 20
215.1051944876269033
 30
0.0
 40
0.011950408753322
 50
117.667628968353597
 51
198.1608276367066992
  0
ARC
  5
DB80
  8
0
 10
4405.8418153339207493
 20
215.476901625429889
 30
0.0
 40
0.9880444271718364
 50
202.3439619166568946
 51
207.615270069274203
  0
ARC
  5
DB81
  8
0
 10
4404.45714871853761
 20
214.8337337213245064
 30
0.0
 40
0.5401690555621325
 50
22.3039624314398317
 51
27.3166832883524791
  0
ARC
  5
DB82
  8
0
 10
4405.4388550398562074
 20
215.2875603775815136
 30
0.0
 40
0.5423917478344461
 50
202.3142398780246083
 51
207.3064058417585898
  0
LINE
  5
DB83
  8
0
 10
4404.9810618153896939
 20
215.0154924650163082
 30
0.0
 11
4405.0193138493250444
 21
215.034541497008604
 31
0.0
  0
LINE
  5
DB84
  8
0
 10
4404.9337006375244528
 20
215.1157811028768094
 30
0.0
 11
4404.9754000665971034
 21
215.1374660068194089
 31
0.0
  0
ARC
  5
DB85
  8
0
 10
4404.6560896560085894
 20
214.9960914092727933
 30
0.0
 40
0.349209749252418
 50
20.8521831966915911
 51
23.8813770605611211
  0
ARC
  5
DB86
  8
0
 10
4404.6374358723760452
 20
214.8339515244481106
 30
0.0
 40
0.427663631196876
 50
25.3274500610107296
 51
27.7159620698903097
  0
ARC
  5
DB87
  8
0
 10
4404.9841801722195669
 20
215.0157847789012067
 30
0.0
 40
0.0398269976401908
 50
1.6076904477367571
 51
28.0962964451529906
  0
ARC
  5
DB88
  8
0
 10
4404.7318172722234522
 20
215.0564323689274886
 30
0.0
 40
0.253129510114974
 50
18.2715380351951602
 51
22.6652060926630803
  0
ARC
  5
DB89
  8
0
 10
4404.9282602350249363
 20
215.1200031466092923
 30
0.0
 40
0.050331856294756
 50
19.40917524736739
 51
42.4504558401101733
  0
ARC
  5
DB8A
  8
0
 10
4404.583212696580631
 20
215.9685616480182944
 30
0.0
 40
0.0775986417186696
 50
0.235471351910953
 51
31.1198253834943905
  0
ARC
  5
DB8B
  8
0
 10
4404.1164747002703734
 20
215.8484054641700141
 30
0.0
 40
0.5567343947018824
 50
16.7300093833017698
 51
26.4352027151916715
  0
ARC
  5
DB8C
  8
0
 10
4405.10471014007544
 20
216.2642977934137889
 30
0.0
 40
0.5177442240325347
 50
195.8389413420489973
 51
198.9381351323237936
  0
ARC
  5
DB8D
  8
0
 10
4404.4765049748193633
 20
216.0774272065073944
 30
0.0
 40
0.137864161899594
 50
19.2975395009133095
 51
27.5978046818545586
  0
ARC
  5
DB8E
  8
0
 10
4404.9713497078682849
 20
216.2322122412390968
 30
0.0
 40
0.3835969809202817
 50
193.7103632508398903
 51
196.75078678737529
  0
ARC
  5
DB8F
  8
0
 10
4404.9105201123211373
 20
216.0588351868107111
 30
0.0
 40
0.2654142092122977
 50
197.3996864213696085
 51
199.7982458082315134
  0
ARC
  5
DB90
  8
0
 10
4406.6174450065836936
 20
216.6054625358333112
 30
0.0
 40
2.067388697225427
 50
197.7494470069271131
 51
201.0585583376090142
  0
ARC
  5
DB91
  8
0
 10
4350.6149138696382579
 20
193.929960102254114
 30
0.0
 40
58.3447350689744013
 50
21.8180254763546486
 51
21.942879687270711
  0
ARC
  5
DB92
  8
0
 10
4404.8697422484228809
 20
215.3923998537190982
 30
0.0
 40
0.0099149049172422
 50
200.9187148292164977
 51
232.7744312153940882
  0
LINE
  5
DB93
  8
0
 10
4404.8637441819400919
 20
215.3845050112261106
 30
0.0
 11
4404.8686292222064367
 21
215.3707314707775993
 31
0.0
  0
LINE
  5
DB94
  8
0
 10
4404.8604808556965509
 20
215.3888598050880887
 30
0.0
 11
4404.8158909257826963
 21
215.5071940670206914
 31
0.0
  0
ARC
  5
DB95
  8
0
 10
4404.9252510788210202
 20
215.2541408335534925
 30
0.0
 40
0.0099020065670322
 50
171.5597667970498037
 51
203.0219324964265013
  0
LINE
  5
DB96
  8
0
 10
4404.9154563158426754
 20
215.2555942269202092
 30
0.0
 11
4404.9099917554303829
 21
215.2675633240621949
 31
0.0
  0
LINE
  5
DB97
  8
0
 10
4404.9161377154241563
 20
215.2502683225262956
 30
0.0
 11
4404.9665324759689611
 21
215.1328546043316123
 31
0.0
  0
LINE
  5
DB98
  8
0
 10
4405.07077661776475
 20
214.894384003528188
 30
0.0
 11
4405.0666312378616567
 21
214.9024570439943886
 31
0.0
  0
LINE
  5
DB99
  8
0
 10
4405.0666312378616567
 20
214.9024570439943886
 30
0.0
 11
4405.0508724820692805
 21
214.9405851836841919
 31
0.0
  0
LINE
  5
DB9A
  8
0
 10
4405.0508724820692805
 20
214.9405851836841919
 30
0.0
 11
4405.0414318748662481
 21
214.9579799896202132
 31
0.0
  0
LINE
  5
DB9B
  8
0
 10
4405.0414318748662481
 20
214.9579799896202132
 30
0.0
 11
4405.0104517474073873
 21
215.0301276962775034
 31
0.0
  0
LINE
  5
DB9C
  8
0
 10
4405.1817683585795749
 20
214.554159825960312
 30
0.0
 11
4405.1422238266040949
 21
214.6338772179149998
 31
0.0
  0
ARC
  5
DB9D
  8
0
 10
4405.2468957057371881
 20
214.446147359903506
 30
0.0
 40
0.0128396806970084
 50
122.0698493180706947
 51
209.5680843249942029
  0
ARC
  5
DB9E
  8
0
 10
4405.2689573331163047
 20
214.4012413358742037
 30
0.0
 40
0.0116814631447753
 50
110.6190581335866057
 51
180.0244804145696946
  0
ARC
  5
DB9F
  8
0
 10
4405.3050735353208438
 20
214.330239490114991
 30
0.0
 40
0.0112233861333047
 50
229.6553694833264103
 51
304.2373655929748111
  0
ARC
  5
DBA0
  8
0
 10
4405.3283530555572725
 20
214.2865142503991081
 30
0.0
 40
0.0128587555673114
 50
203.3406725412691003
 51
292.0076431791472942
  0
ARC
  5
DBA1
  8
0
 10
4407.0815904197743293
 20
215.2818365846713959
 30
0.0
 40
2.0288454274307388
 50
204.5209991104335927
 51
209.5443212291895065
  0
LINE
  5
DBA2
  8
0
 10
4405.2572758710375638
 20
214.401236344807586
 30
0.0
 11
4405.2978076984682048
 21
214.321685426131296
 31
0.0
  0
LINE
  5
DBA3
  8
0
 10
4405.3113880047676503
 20
214.3209610873311988
 30
0.0
 11
4405.3233676634681615
 21
214.326998036631295
 31
0.0
  0
LINE
  5
DBA4
  8
0
 10
4405.2648436709687303
 20
214.4121745131311911
 30
0.0
 11
4405.2768287736853381
 21
214.418313201923695
 31
0.0
  0
ARC
  5
DBA5
  8
0
 10
4404.6969671718961763
 20
214.0647480975480903
 30
0.0
 40
0.650927034896704
 50
24.6210541513294991
 51
29.4735287583745809
  0
ARC
  5
DBA6
  8
0
 10
4405.8616969572512971
 20
214.6592451711476031
 30
0.0
 40
0.6579055244559853
 50
204.6328607318500019
 51
209.4342823287215936
  0
LINE
  5
DBA7
  8
0
 10
4405.2400811298693952
 20
214.457022896431198
 30
0.0
 11
4405.2772353348673278
 21
214.4764562485360955
 31
0.0
  0
LINE
  5
DBA8
  8
0
 10
4405.2772353348673278
 20
214.4764562485360955
 30
0.0
 11
4405.2531553218013869
 21
214.5250356268859093
 31
0.0
  0
ARC
  5
DBA9
  8
0
 10
4405.202485970883572
 20
214.3844026211179994
 30
0.0
 40
0.1185805116198781
 50
27.4578754942086789
 51
50.9227193582817605
  0
LINE
  5
DBAA
  8
0
 10
4405.3331716205675548
 20
214.2745924625313023
 30
0.0
 11
4405.3704759958973227
 21
214.2931567449545867
 31
0.0
  0
ARC
  5
DBAB
  8
0
 10
4405.4358082360777189
 20
214.5208446531138122
 30
0.0
 40
0.0407983544981269
 50
171.1901173909811007
 51
199.2584317071448936
  0
ARC
  5
DBAC
  8
0
 10
4405.382533989320109
 20
214.4982681903356934
 30
0.0
 40
0.0316033187535926
 50
30.1532568703700683
 51
65.7954207995755951
  0
ARC
  5
DBAD
  8
0
 10
4405.2567064129725622
 20
214.5845276147950926
 30
0.0
 40
0.0458471646905336
 50
351.6793296058615965
 51
20.9226575875039593
  0
ARC
  5
DBAE
  8
0
 10
4405.3460111750282522
 20
214.6267468700895051
 30
0.0
 40
0.0657072988422885
 50
208.5812342746642116
 51
228.0311616462053905
  0
ARC
  5
DBAF
  8
0
 10
4406.005937156201071
 20
214.4065645936804003
 30
0.0
 40
0.5595522034265326
 50
195.9367374983308991
 51
197.7896247762363942
  0
ARC
  5
DBB0
  8
0
 10
4405.4626504369507529
 20
214.2308334684244926
 30
0.0
 40
0.0227047148432533
 50
25.9824179099576291
 51
76.6547772478908342
  0
LINE
  5
DBB1
  8
0
 10
4407.3639504891507386
 20
214.8577697628768135
 30
0.0
 11
4407.3639504891507386
 21
208.004867280171112
 31
0.0
  0
LINE
  5
DBB2
  8
0
 10
4407.3639504891507386
 20
207.3826647288751985
 30
0.0
 11
4407.3639504891507386
 21
207.1768586577018993
 31
0.0
  0
LINE
  5
DBB3
  8
0
 10
4406.3796985206508907
 20
207.3816389356811953
 30
0.0
 11
4406.3796985206508907
 21
207.1768787214926988
 31
0.0
  0
LINE
  5
DBB4
  8
0
 10
4406.3796985206508907
 20
211.7177281380809859
 30
0.0
 11
4406.3796985206508907
 21
212.2320863053016069
 31
0.0
  0
LINE
  5
DBB5
  8
0
 10
4406.3796985206508907
 20
214.7655743314533936
 30
0.0
 11
4406.3796985206508907
 21
214.8577697628768135
 31
0.0
  0
LINE
  5
DBB6
  8
0
 10
4409.6454201663646018
 20
167.3855941187767939
 30
0.0
 11
4409.706155213600141
 21
167.3855941187767939
 31
0.0
  0
ARC
  5
DBB7
  8
0
 10
4409.706155213600141
 20
167.4055941187768042
 30
0.0
 40
0.02
 50
270.0
 51
0.000000002259466
  0
LINE
  5
DBB8
  8
0
 10
4404.3549172036664459
 20
167.1862430061783868
 30
0.0
 11
4403.8167158834194197
 21
165.0150058447140111
 31
0.0
  0
LINE
  5
DBB9
  8
0
 10
4404.4929293406594297
 20
168.922999728213199
 30
0.0
 11
4403.6936485322858061
 21
165.3076782688486048
 31
0.0
  0
LINE
  5
DBBA
  8
0
 10
4404.926212451324318
 20
167.6701845887768059
 30
0.0
 11
4405.3751722619181237
 21
167.6701845887768059
 31
0.0
  0
LINE
  5
DBBB
  8
0
 10
4405.5179979713975627
 20
167.6890090259767874
 30
0.0
 11
4406.558537358256217
 21
167.6890090259767874
 31
0.0
  0
LINE
  5
DBBC
  8
0
 10
4405.5179979713975627
 20
167.6890090259767874
 30
0.0
 11
4405.6922399897575815
 21
169.6806044084767962
 31
0.0
  0
LINE
  5
DBBD
  8
0
 10
4405.3950961558803101
 20
167.6884414739303111
 30
0.0
 11
4405.4788923421156142
 21
168.6462362700586937
 31
0.0
  0
LINE
  5
DBBE
  8
0
 10
4405.4710380123651703
 20
168.7209652248340888
 30
0.0
 11
4405.1768665509798666
 21
169.6831567113331118
 31
0.0
  0
ARC
  5
DBBF
  8
0
 10
4405.3428631107281035
 20
166.9158954771777132
 30
0.0
 40
1.0242679833508579
 50
148.2063174713387923
 51
164.6958932941149101
  0
ARC
  5
DBC0
  8
0
 10
4404.8281711179197373
 20
167.2320339925003907
 30
0.0
 40
0.4202509765803157
 50
105.6734648103766006
 51
147.8696292388843858
  0
ARC
  5
DBC1
  8
0
 10
4404.9637843008986238
 20
166.7487155952076137
 30
0.0
 40
0.922234650178389
 50
92.3348768626659648
 51
105.6734648103766006
  0
ARC
  5
DBC2
  8
0
 10
4405.3751722619181237
 20
167.6901845887767877
 30
0.0
 40
0.02
 50
270.0
 51
355.0000000243346108
  0
ARC
  5
DBC3
  8
0
 10
4405.2827416060526957
 20
168.6633972357224138
 30
0.0
 40
0.1969
 50
355.0000000243385898
 51
17.0000001374472482
  0
ARC
  5
DBC4
  8
0
 10
4413.9650390830911419
 20
166.7216199175009876
 30
0.0
 40
9.7245532567657111
 50
162.2675880399557116
 51
166.9163500906321076
  0
ARC
  5
DBC5
  8
0
 10
4406.9264839420384305
 20
164.6657048493802904
 30
0.0
 40
3.2959603544116258
 50
168.7683713914159114
 51
173.1954270185190978
  0
ARC
  5
DBC6
  8
0
 10
4406.2975172976575777
 20
164.7407554953649083
 30
0.0
 40
2.6625318744667168
 50
173.1954270185190978
 51
176.5418781118237064
  0
ARC
  5
DBC7
  8
0
 10
4403.6693724580727576
 20
164.9013558921429876
 30
0.0
 40
0.0295389713066004
 50
179.9984511100917075
 51
262.3855708161908069
  0
ARC
  5
DBC8
  8
0
 10
4403.7064678199776608
 20
165.1505940543858912
 30
0.0
 40
0.2815196402617538
 50
261.623820461956484
 51
266.9855700701500041
  0
ARC
  5
DBC9
  8
0
 10
4403.6948368052344449
 20
164.9624821290769034
 30
0.0
 40
0.0930722980597473
 50
268.0460676036736913
 51
300.7937392325922019
  0
ARC
  5
DBCA
  8
0
 10
4403.6530698901742653
 20
165.0052738099842031
 30
0.0
 40
0.1518576228374069
 50
306.0725601186679228
 51
330.1243105689700883
  0
ARC
  5
DBCB
  8
0
 10
4403.4354578398852027
 20
165.1090957640884085
 30
0.0
 40
0.3926965860394262
 50
332.8058302720148163
 51
346.1370941629767799
  0
LINE
  5
DBCC
  8
0
 10
4405.6922399897575815
 20
169.6806044084767962
 30
0.0
 11
4408.1946292293769147
 21
169.6806044084767962
 31
0.0
  0
ARC
  5
DBCD
  8
0
 10
4405.5938154860768918
 20
170.1028485029843011
 30
0.0
 40
2.0875984252075259
 50
265.3421492871274268
 51
268.7036695078958815
  0
LINE
  5
DBCE
  8
0
 10
4405.6829400136775803
 20
169.5743051958768035
 30
0.0
 11
4405.5938154860768918
 21
169.5743051958768035
 31
0.0
  0
ARC
  5
DBCF
  8
0
 10
4405.5938154860768918
 20
167.4867067706769888
 30
0.0
 40
2.0875984251998321
 50
90.0
 51
100.3030973441145051
  0
LINE
  5
DBD0
  8
0
 10
4408.2340292293783932
 20
169.1060665596268109
 30
0.0
 11
4408.2340292293783932
 21
169.6412044084767956
 31
0.0
  0
ARC
  5
DBD1
  8
0
 10
4408.1946292293769147
 20
169.2334660430398969
 30
0.0
 40
0.0394
 50
0.0
 51
90.0
  0
LINE
  5
DBD2
  8
0
 10
4408.2340292293783932
 20
168.2635468746267122
 30
0.0
 11
4408.2340292293783932
 21
167.7284090259767879
 31
0.0
  0
ARC
  5
DBD3
  8
0
 10
4408.1946292293769147
 20
168.1365391463102981
 30
0.0
 40
0.0394
 50
270.0
 51
0.0
  0
LINE
  5
DBD4
  8
0
 10
4408.2143441899770551
 20
168.1483719732756867
 30
0.0
 11
4408.2143441899770551
 21
169.2213863148749908
 31
0.0
  0
ARC
  5
DBD5
  8
0
 10
4408.1957238448112548
 20
168.1819781091151924
 30
0.0
 40
0.038419911765629
 50
298.9897739502944773
 51
355.5749140291840718
  0
ARC
  5
DBD6
  8
0
 10
4408.1959946430815762
 20
169.1880201739004974
 30
0.0
 40
0.0380789342671298
 50
2.7655039078538151
 51
61.1916197845944723
  0
ARC
  5
DBD7
  8
0
 10
4408.1946292293769147
 20
169.6412044084767956
 30
0.0
 40
0.0394
 50
0.0000000000024427
 51
90.0
  0
ARC
  5
DBD8
  8
0
 10
4408.1946292293769147
 20
167.7284090259767879
 30
0.0
 40
0.0394
 50
270.0
 51
0.0000000000048853
  0
LINE
  5
DBD9
  8
0
 10
4407.2512415196642905
 20
168.1343391463103103
 30
0.0
 11
4407.2512415196642905
 21
169.2356660430399131
 31
0.0
  0
LINE
  5
DBDA
  8
0
 10
4407.288441519663138
 20
169.2728660430398975
 30
0.0
 11
4408.1946292293769147
 21
169.2728660430398975
 31
0.0
  0
LINE
  5
DBDB
  8
0
 10
4407.288441519663138
 20
168.0971391463102975
 30
0.0
 11
4408.1946292293769147
 21
168.0971391463102975
 31
0.0
  0
ARC
  5
DBDC
  8
0
 10
4407.288441519663138
 20
168.1343391463103103
 30
0.0
 40
0.0372
 50
179.9999999999942872
 51
270.0
  0
ARC
  5
DBDD
  8
0
 10
4407.288441519663138
 20
169.2356660430399131
 30
0.0
 40
0.0372
 50
90.0000000000521254
 51
179.9999999999917861
  0
ARC
  5
DBDE
  8
0
 10
4407.46610617470742
 20
169.4296329858624119
 30
0.0
 40
0.2618208691635969
 50
219.387433709296289
 51
251.5988973174528951
  0
ARC
  5
DBDF
  8
0
 10
4404.4975358996780415
 20
168.6747380494705055
 30
0.0
 40
2.9300253332331039
 50
350.3797420583695725
 51
9.9536868337465751
  0
ARC
  5
DBE0
  8
0
 10
4407.4993092284403247
 20
167.8520360630425046
 30
0.0
 40
0.3516768475114155
 50
108.7345315746484005
 51
132.8146403826708877
  0
LINE
  5
DBE1
  8
0
 10
4406.6700373582561951
 20
167.3804135652767968
 30
0.0
 11
4407.7446856734086396
 21
167.3804135652767968
 31
0.0
  0
LINE
  5
DBE2
  8
0
 10
4407.6699602651769965
 20
167.0142718329767888
 30
0.0
 11
4406.7447634147765712
 21
167.0142718329767888
 31
0.0
  0
LINE
  5
DBE3
  8
0
 10
4406.7447634147765712
 20
167.0142718329767888
 30
0.0
 11
4406.7447634147765712
 21
167.3804135652767968
 31
0.0
  0
LINE
  5
DBE4
  8
0
 10
4407.6699602651769965
 20
167.0142718329767888
 30
0.0
 11
4407.6699602651769965
 21
167.3804135652767968
 31
0.0
  0
LINE
  5
DBE5
  8
0
 10
4407.7446856734086396
 20
167.5775090259768092
 30
0.0
 11
4407.7446856734086396
 21
167.3804135652767968
 31
0.0
  0
LINE
  5
DBE6
  8
0
 10
4406.6700373582561951
 20
167.5775090259768092
 30
0.0
 11
4406.6700373582561951
 21
167.3804135652767968
 31
0.0
  0
ARC
  5
DBE7
  8
0
 10
4406.558537358256217
 20
167.5775090259768092
 30
0.0
 40
0.1115
 50
0.0000000000032569
 51
90.0
  0
LINE
  5
DBE8
  8
0
 10
4407.8561856734086177
 20
167.6890090259767874
 30
0.0
 11
4408.1946292293769147
 21
167.6890090259767874
 31
0.0
  0
ARC
  5
DBE9
  8
0
 10
4407.8561856734086177
 20
167.5775090259768092
 30
0.0
 40
0.1115
 50
90.0
 51
180.0
  0
ARC
  5
DBEA
  8
0
 10
4407.5209355136048543
 20
166.4695109733656864
 30
0.0
 40
1.3970280438730069
 50
111.8568626432017936
 51
127.5228200761095962
  0
ARC
  5
DBEB
  8
0
 10
4407.2060081217014158
 20
167.1437795850569898
 30
0.0
 40
0.6552846406312955
 50
61.0789808221434569
 51
108.2462727592195932
  0
ARC
  5
DBEC
  8
0
 10
4406.714820290741045
 20
166.1898987820138132
 30
0.0
 40
1.728029194073134
 50
53.4176996509779016
 51
62.1191544344715965
  0
LINE
  5
DBED
  8
0
 10
4407.5821663674450974
 20
165.9394686833767878
 30
0.0
 11
4406.8325573125111987
 21
165.9394686833767878
 31
0.0
  0
LINE
  5
DBEE
  8
0
 10
4406.8128743909710465
 20
165.9583485616456073
 30
0.0
 11
4406.768877587976931
 21
167.0142718329767888
 31
0.0
  0
LINE
  5
DBEF
  8
0
 10
4407.6018492889852496
 20
165.9583485616473979
 30
0.0
 11
4407.6458460918765923
 21
167.0142718329767888
 31
0.0
  0
ARC
  5
DBF0
  8
0
 10
4407.5821663674450974
 20
165.9591686833767881
 30
0.0
 40
0.0197
 50
270.0
 51
357.6140559738955176
  0
ARC
  5
DBF1
  8
0
 10
4406.8325573125102892
 20
165.9591686833767881
 30
0.0
 40
0.0197
 50
182.3859440315027882
 51
270.0
  0
LINE
  5
DBF2
  8
0
 10
4405.1542021282803034
 20
169.6999275018768003
 30
0.0
 11
4404.7250797795186372
 21
169.6999275018768003
 31
0.0
  0
ARC
  5
DBF3
  8
0
 10
4405.1542021282803034
 20
169.6762275018768094
 30
0.0
 40
0.0237
 50
17.0000001374410203
 51
90.0
  0
ARC
  5
DBF4
  8
0
 10
4404.7250797795186372
 20
169.6762275018768094
 30
0.0
 40
0.0237
 50
90.0000000000521254
 51
162.2675880399308141
  0
ARC
  5
DBF5
  8
0
 10
4409.8673536416090428
 20
165.8201055275640101
 30
0.0
 40
2.94378893726073
 50
177.6761647698992874
 51
206.5051034723232135
  0
ARC
  5
DBF6
  8
0
 10
4408.0737947334591809
 20
164.9256705646818943
 30
0.0
 40
0.9395765084421283
 50
206.5051034723238956
 51
237.7838865167952065
  0
ARC
  5
DBF7
  8
0
 10
4407.8793784519903056
 20
164.6171352144015998
 30
0.0
 40
0.5748961650285285
 50
237.7838865167952065
 51
294.9185439930216717
  0
ARC
  5
DBF8
  8
0
 10
4407.6738934802724543
 20
164.9076805893467963
 30
0.0
 40
0.9271782356767651
 50
298.8729475757195928
 51
335.882550841808893
  0
ARC
  5
DBF9
  8
0
 10
4410.0496413403352562
 20
165.8692302548597866
 30
0.0
 40
2.5557175551608009
 50
178.4251498044268089
 51
205.8834369658048047
  0
ARC
  5
DBFA
  8
0
 10
4408.0229198560136865
 20
164.8858311012212994
 30
0.0
 40
0.3030138750491712
 50
205.8834369658048047
 51
229.0290475591004054
  0
ARC
  5
DBFB
  8
0
 10
4407.69832183671042
 20
165.0306212262572103
 30
0.0
 40
0.3942288423372557
 50
288.6269965163348274
 51
337.1756922057151087
  0
ARC
  5
DBFC
  8
0
 10
4400.8006097489760577
 20
167.6176629388567108
 30
0.0
 40
7.7608364747685981
 50
339.3260005470704073
 51
351.2559891081683077
  0
ARC
  5
DBFD
  8
0
 10
4449.4759872286667814
 20
178.0937316563743025
 30
0.0
 40
40.6665358533247101
 50
180.360187718740292
 51
185.2339265332861089
  0
ARC
  5
DBFE
  8
0
 10
4365.4426442871117615
 20
170.3959248883047053
 30
0.0
 40
43.7186462284344515
 50
2.664967419318915
 51
5.2339265332861249
  0
ARC
  5
DBFF
  8
0
 10
4364.3742255956703957
 20
170.4060586726251074
 30
0.0
 40
44.2181238429312415
 50
358.5092155925805741
 51
2.4717648315295251
  0
ARC
  5
DC00
  8
0
 10
4487.8696219658377231
 20
163.9478583803586105
 30
0.0
 40
79.4374114949415997
 50
176.9937529426048002
 51
178.9060192367986133
  0
ARC
  5
DC01
  8
0
 10
4413.2700385929765616
 20
165.3724035862726964
 30
0.0
 40
4.8242278847500932
 50
178.9060192367986133
 51
193.7425945661483979
  0
ARC
  5
DC02
  8
0
 10
4409.2563151641215882
 20
164.3908015274442107
 30
0.0
 40
0.6922164659332314
 50
193.7425945661483979
 51
232.8763329905110027
  0
ARC
  5
DC03
  8
0
 10
4409.0647741817283531
 20
164.1377562764818094
 30
0.0
 40
0.3748525628641305
 50
232.8763329905110027
 51
312.0591031935459227
  0
ARC
  5
DC04
  8
0
 10
4408.1691592605820915
 20
164.8636278594970008
 30
0.0
 40
1.5242592486169839
 50
318.7915596238606781
 51
355.9128463291925755
  0
ARC
  5
DC05
  8
0
 10
4396.706026013214796
 20
165.822061604793106
 30
0.0
 40
13.0272918566312494
 50
355.3016035118718037
 51
5.8688765280571547
  0
ARC
  5
DC06
  8
0
 10
4305.9141487992974362
 20
158.4783720094359012
 30
0.0
 40
104.1129927777191
 50
4.7800129272474603
 51
6.6565514873367464
  0
ARC
  5
DC07
  8
0
 10
11850.035188215189919
 20
1006.9699263662159865
 30
0.0
 40
7487.5741826470057276
 50
186.389847495717504
 51
186.413792079236913
  0
ARC
  5
DC08
  8
0
 10
4743.301040557324086
 20
211.0797373701973072
 30
0.0
 40
336.4126384061989938
 50
185.3357487889655033
 51
186.3869151176097887
  0
ARC
  5
DC09
  8
0
 10
4678.8969364015711108
 20
204.9050145402493115
 30
0.0
 40
271.7134531846295999
 50
183.9338908803592005
 51
185.3022394649460125
  0
ARC
  5
DC0A
  8
0
 10
4685.2957169414748932
 20
205.2848922805536063
 30
0.0
 40
278.1232255276490264
 50
181.8987804601721905
 51
183.9215286529858986
  0
ARC
  5
DC0B
  8
0
 10
4721.1795492902174374
 20
206.4116043232633899
 30
0.0
 40
314.0246934978134732
 50
180.1593357261612027
 51
181.8873079542995015
  0
ARC
  5
DC0C
  8
0
 10
4718.280046652326746
 20
206.261414947714286
 30
0.0
 40
311.6936398205046999
 50
179.9924198352013889
 51
181.4680779760846008
  0
ARC
  5
DC0D
  8
0
 10
4690.2830952627282386
 20
205.5438977894449124
 30
0.0
 40
283.6874955306532229
 50
181.4680779760846008
 51
183.9077450076190985
  0
ARC
  5
DC0E
  8
0
 10
4675.3862203985218002
 20
204.5263076697544022
 30
0.0
 40
268.7559058506657266
 50
183.9077450076190985
 51
186.1009406307503014
  0
ARC
  5
DC0F
  8
0
 10
5302.8948364042717003
 20
271.5980525256510987
 30
0.0
 40
899.8388497807538897
 50
186.1009406307503014
 51
186.2467979970184047
  0
ARC
  5
DC10
  8
0
 10
4853.9961213878223134
 20
222.4610352574082981
 30
0.0
 40
448.2588426840716807
 50
186.2467979970184047
 51
186.5537703243475107
  0
ARC
  5
DC11
  8
0
 10
4217.1268332839381401
 20
149.2934396702517006
 30
0.0
 40
192.7996469827862995
 50
5.4452662792483526
 51
6.5537703243475862
  0
ARC
  5
DC12
  8
0
 10
4385.2445021848488977
 20
165.319255777792705
 30
0.0
 40
23.9198750188565903
 50
0.2526534448451237
 51
5.4452662792483526
  0
ARC
  5
DC13
  8
0
 10
4405.4487595534437787
 20
165.4083497451835001
 30
0.0
 40
3.7154212140272009
 50
347.3446777547156898
 51
0.2526534448451237
  0
ARC
  5
DC14
  8
0
 10
4420.7454686889686855
 20
165.7999484391783085
 30
0.0
 40
11.7336512342385593
 50
173.2797545681447957
 51
185.8973570494532908
  0
ARC
  5
DC15
  8
0
 10
4394.871143096384003
 20
168.535700916570903
 30
0.0
 40
13.6731157003519197
 50
3.018363995175581
 51
13.9836778482074795
  0
ARC
  5
DC16
  8
0
 10
4395.6658042585713702
 20
168.733591762070688
 30
0.0
 40
12.8541852091506605
 50
13.9836778482074795
 51
23.2186802668572589
  0
ARC
  5
DC17
  8
0
 10
4427.3972880377059482
 20
181.6500620857569004
 30
0.0
 40
21.4090297786069002
 50
195.0462840326422906
 51
201.5068478807671113
  0
ARC
  5
DC18
  8
0
 10
4416.3694824990434427
 20
178.0353695120431041
 30
0.0
 40
9.2377225775028293
 50
186.829268662388813
 51
200.6227611004634923
  0
ARC
  5
DC19
  8
0
 10
4267.775547909346642
 20
122.1152016346499067
 30
0.0
 40
149.5301034209745978
 50
19.7427686652897485
 51
20.6227611004635101
  0
LINE
  5
DC1A
  8
0
 10
4407.3639504892780678
 20
206.0032477971585934
 30
0.0
 11
4407.3639504892780678
 21
194.9668607500298947
 31
0.0
  0
LINE
  5
DC1B
  8
0
 10
4406.3796985206781756
 20
179.3262886604811115
 30
0.0
 11
4406.3796985206781756
 21
180.1083150002650086
 31
0.0
  0
LINE
  5
DC1C
  8
0
 10
4406.3796985206781756
 20
180.7099636436078072
 30
0.0
 11
4406.3796985206781756
 21
180.9744567325649029
 31
0.0
  0
LINE
  5
DC1D
  8
0
 10
4406.3796985206781756
 20
181.5761053759077868
 30
0.0
 11
4406.3796985206781756
 21
182.1609044084769096
 31
0.0
  0
ARC
  5
DC1E
  8
0
 10
4406.3993985206780053
 20
179.3262886604811968
 30
0.0
 40
0.0197
 50
180.0000000000163141
 51
270.0
  0
ARC
  5
DC1F
  8
0
 10
4406.3993985206780053
 20
182.1609044084769096
 30
0.0
 40
0.0197
 50
90.0
 51
179.999999999980389
  0
LINE
  5
DC20
  8
0
 10
4406.2735882844781372
 20
180.6845414163769021
 30
0.0
 11
4406.39490891539117
 21
180.6845414163769021
 31
0.0
  0
LINE
  5
DC21
  8
0
 10
4406.2735882844781372
 20
180.1333603139769082
 30
0.0
 11
4406.3955314090171669
 21
180.1333603139769082
 31
0.0
  0
LINE
  5
DC22
  8
0
 10
4406.261588284478421
 20
180.1453603139769086
 30
0.0
 11
4406.261588284478421
 21
180.6725414163769017
 31
0.0
  0
ARC
  5
DC23
  8
0
 10
4406.2735882844781372
 20
180.1453603139769086
 30
0.0
 40
0.012
 50
180.0
 51
269.9999999999478746
  0
ARC
  5
DC24
  8
0
 10
4406.2735882844781372
 20
180.6725414163769017
 30
0.0
 40
0.012
 50
90.0000000000521254
 51
180.0000000000194973
  0
ARC
  5
DC25
  8
0
 10
4405.8200610072117342
 20
180.3929104813053073
 30
0.0
 40
0.5226277799909504
 50
1.75878591367599
 51
32.3471649799246705
  0
ARC
  5
DC26
  8
0
 10
4405.8021919197990428
 20
180.4304724491900913
 30
0.0
 40
0.5406791558083609
 50
328.1752937676645274
 51
357.7187541930409225
  0
ARC
  5
DC27
  8
0
 10
4405.7518945465089928
 20
180.5227208403393035
 30
0.0
 40
0.7522433318214494
 50
326.5716787024805967
 51
345.1111807207495872
  0
ARC
  5
DC28
  8
0
 10
4406.1092814958938106
 20
180.4093974601343007
 30
0.0
 40
0.3781514265062704
 50
347.7924948360112012
 51
16.6739327558623884
  0
ARC
  5
DC29
  8
0
 10
4405.5414980319246752
 20
180.1911978000254919
 30
0.0
 40
0.9857474624937502
 50
19.3552468711305217
 51
31.7535410044420487
  0
LINE
  5
DC2A
  8
0
 10
4406.3916985206769823
 20
181.5506831486769102
 30
0.0
 11
4406.39490891539117
 21
181.5506831486769102
 31
0.0
  0
LINE
  5
DC2B
  8
0
 10
4406.3916985206769823
 20
180.9995020462768878
 30
0.0
 11
4406.3955314090171669
 21
180.9995020462768878
 31
0.0
  0
LINE
  5
DC2C
  8
0
 10
4406.3796985206781756
 20
181.0115020462768882
 30
0.0
 11
4406.3796985206781756
 21
181.5386831486769097
 31
0.0
  0
ARC
  5
DC2D
  8
0
 10
4406.3916985206769823
 20
181.0115020462768882
 30
0.0
 40
0.012
 50
180.0
 51
269.9999999999478746
  0
ARC
  5
DC2E
  8
0
 10
4406.3916985206769823
 20
181.5386831486769097
 30
0.0
 40
0.012
 50
90.0000000000521254
 51
180.0000000000194973
  0
ARC
  5
DC2F
  8
0
 10
4405.9381712434123983
 20
181.2590522136052869
 30
0.0
 40
0.5226277799909504
 50
1.75878591367599
 51
32.3471649799246705
  0
ARC
  5
DC30
  8
0
 10
4405.9203021559987974
 20
181.2966141814900993
 30
0.0
 40
0.5406791558083609
 50
328.1752937676645274
 51
357.7187541930409225
  0
ARC
  5
DC31
  8
0
 10
4405.7518945465089928
 20
181.3888625726393116
 30
0.0
 40
0.7522433318214494
 50
326.5716787024805967
 51
345.1111807207495872
  0
ARC
  5
DC32
  8
0
 10
4406.1092814958938106
 20
181.2755391924343087
 30
0.0
 40
0.3781514265062704
 50
347.7924948360112012
 51
16.6739327558623884
  0
ARC
  5
DC33
  8
0
 10
4405.5414980319246752
 20
181.0573395323253862
 30
0.0
 40
0.9857474624937502
 50
19.3552468711305217
 51
31.7535410044420487
  0
LINE
  5
DC34
  8
0
 10
4406.37969852077822
 20
206.0032277331542048
 30
0.0
 11
4406.37969852077822
 21
182.1806044084767962
 31
0.0
  0
ENDSEC
  0
EOF
