  0
SECTION
  2
HEADER
  9
$ACADVER
  1
AC1009
  9
$INSBASE
 10
5175.9212048235731345
 20
318.6249520432485269
 30
0.0
  9
$EXTMIN
 10
5171.7092736715494539
 20
297.0378296101674209
 30
-0.0000000000112498
  9
$EXTMAX
 10
5180.4041386254993995
 20
318.6496857419222124
 30
0.0000000000002956
  9
$LIMMIN
 10
0.0
 20
0.0
  9
$LIMMAX
 10
11.6929133858000007
 20
8.2677165353999982
  9
$ORTHOMODE
 70
     0
  9
$REGENMODE
 70
     1
  9
$FILLMODE
 70
     1
  9
$QTEXTMODE
 70
     0
  9
$MIRRTEXT
 70
     0
  9
$DRAGMODE
 70
     2
  9
$LTSCALE
 40
0.6431102362
  9
$OSMODE
 70
  4095
  9
$ATTMODE
 70
     1
  9
$TEXTSIZE
 40
0.2
  9
$TRACEWID
 40
0.05
  9
$TEXTSTYLE
  7
STANDARD
  9
$CLAYER
  8
0
  9
$CELTYPE
  6
BYLAYER
  9
$CECOLOR
 62
   256
  9
$DIMSCALE
 40
1.0
  9
$DIMASZ
 40
0.1875
  9
$DIMEXO
 40
0.0625
  9
$DIMDLI
 40
0.4443307087
  9
$DIMRND
 40
0.0
  9
$DIMDLE
 40
0.0
  9
$DIMEXE
 40
0.125
  9
$DIMTP
 40
0.01
  9
$DIMTM
 40
0.01
  9
$DIMTXT
 40
2.0
  9
$DIMCEN
 40
0.1052362205
  9
$DIMTSZ
 40
0.0
  9
$DIMTOL
 70
     1
  9
$DIMLIM
 70
     0
  9
$DIMTIH
 70
     1
  9
$DIMTOH
 70
     1
  9
$DIMSE1
 70
     0
  9
$DIMSE2
 70
     0
  9
$DIMTAD
 70
     0
  9
$DIMZIN
 70
     0
  9
$DIMBLK
  1

  9
$DIMASO
 70
     1
  9
$DIMSHO
 70
     1
  9
$DIMPOST
  1
\X
  9
$DIMAPOST
  1

  9
$DIMALT
 70
     1
  9
$DIMALTD
 70
     2
  9
$DIMALTF
 40
25.3999999999999986
  9
$DIMLFAC
 40
1.0
  9
$DIMTOFL
 70
     0
  9
$DIMTVP
 40
0.0
  9
$DIMTIX
 70
     0
  9
$DIMSOXD
 70
     0
  9
$DIMSAH
 70
     0
  9
$DIMBLK1
  1

  9
$DIMBLK2
  1

  9
$DIMSTYLE
  2
STANDARD
  9
$DIMCLRD
 70
     0
  9
$DIMCLRE
 70
     0
  9
$DIMCLRT
 70
     0
  9
$DIMTFAC
 40
1.0
  9
$DIMGAP
 40
0.09
  9
$LUNITS
 70
     2
  9
$LUPREC
 70
     4
  9
$SKETCHINC
 40
0.1
  9
$FILLETRAD
 40
0.0
  9
$AUNITS
 70
     0
  9
$AUPREC
 70
     0
  9
$MENU
  1
.
  9
$ELEVATION
 40
0.0
  9
$PELEVATION
 40
0.0
  9
$THICKNESS
 40
0.0
  9
$LIMCHECK
 70
     0
  9
$BLIPMODE
 70
     0
  9
$CHAMFERA
 40
0.0
  9
$CHAMFERB
 40
0.0
  9
$SKPOLY
 70
     0
  9
$TDCREATE
 40
2458060.468368056230247
  9
$TDUPDATE
 40
2460005.7469444437883794
  9
$TDINDWG
 40
0.3909908565
  9
$TDUSRTIMER
 40
0.3909908565
  9
$USRTIMER
 70
     1
  9
$ANGBASE
 50
0.0
  9
$ANGDIR
 70
     0
  9
$PDMODE
 70
     0
  9
$PDSIZE
 40
0.3125
  9
$PLINEWID
 40
0.0
  9
$COORDS
 70
     1
  9
$SPLFRAME
 70
     0
  9
$SPLINETYPE
 70
     6
  9
$SPLINESEGS
 70
     8
  9
$ATTDIA
 70
     1
  9
$ATTREQ
 70
     1
  9
$HANDLING
 70
     1
  9
$HANDSEED
  5
12E0A
  9
$SURFTAB1
 70
     6
  9
$SURFTAB2
 70
     6
  9
$SURFTYPE
 70
     6
  9
$SURFU
 70
     6
  9
$SURFV
 70
     6
  9
$UCSNAME
  2

  9
$UCSORG
 10
0.0
 20
0.0
 30
0.0
  9
$UCSXDIR
 10
1.0
 20
0.0
 30
0.0
  9
$UCSYDIR
 10
0.0
 20
1.0
 30
0.0
  9
$PUCSNAME
  2

  9
$PUCSORG
 10
0.0
 20
0.0
 30
0.0
  9
$PUCSXDIR
 10
1.0
 20
0.0
 30
0.0
  9
$PUCSYDIR
 10
0.0
 20
1.0
 30
0.0
  9
$USERI1
 70
     0
  9
$USERI2
 70
     0
  9
$USERI3
 70
     0
  9
$USERI4
 70
     0
  9
$USERI5
 70
     0
  9
$USERR1
 40
0.0
  9
$USERR2
 40
0.0
  9
$USERR3
 40
0.0
  9
$USERR4
 40
0.0
  9
$USERR5
 40
0.0
  9
$WORLDVIEW
 70
     1
  9
$SHADEDGE
 70
     3
  9
$SHADEDIF
 70
    70
  9
$TILEMODE
 70
     1
  9
$MAXACTVP
 70
    64
  9
$PLIMCHECK
 70
     0
  9
$PEXTMIN
 10
1.0000000000000000E+20
 20
1.0000000000000000E+20
 30
1.0000000000000000E+20
  9
$PEXTMAX
 10
-1.0000000000000000E+20
 20
-1.0000000000000000E+20
 30
-1.0000000000000000E+20
  9
$PLIMMIN
 10
0.0
 20
0.0
  9
$PLIMMAX
 10
12.0
 20
9.0
  9
$UNITMODE
 70
     0
  9
$VISRETAIN
 70
     1
  9
$PLINEGEN
 70
     0
  9
$PSLTSCALE
 70
     1
  0
ENDSEC
  0
SECTION
  2
TABLES
  0
TABLE
  2
VPORT
 70
     1
  0
VPORT
  2
*ACTIVE
 70
     0
 10
0.0
 20
0.0
 11
1.0
 21
1.0
 12
257.0503584922744267
 22
55.3065796364939999
 13
0.0
 23
0.0
 14
1.0
 24
1.0
 15
0.0
 25
0.0
 16
0.0
 26
0.0
 36
114.8290021139429058
 17
4919.00634765625
 27
252.5371780395508097
 37
0.0
 40
21.7822518437003509
 41
2.498684210526315
 42
50.0
 43
0.0
 44
0.0
 50
0.0
 51
0.0
 71
     0
 72
   100
 73
     1
 74
     1
 75
     0
 76
     0
 77
     0
 78
     0
  0
ENDTAB
  0
TABLE
  2
LTYPE
 70
     2
  0
LTYPE
  2
CONTINUOUS
 70
     0
  3
Solid line
 72
    65
 73
     0
 40
0.0
  0
LTYPE
  2
PHANTOM2
 70
     0
  3
___ _ _ ___ _ _ ___ _ _ ___ _ _
 72
    65
 73
     6
 40
1.25
 49
0.625
 49
-0.125
 49
0.125
 49
-0.125
 49
0.125
 49
-0.125
  0
ENDTAB
  0
TABLE
  2
LAYER
 70
     2
  0
LAYER
  2
0
 70
     0
 62
   255
  6
CONTINUOUS
  0
LAYER
  2
DEFPOINTS
 70
     0
 62
     7
  6
CONTINUOUS
  0
ENDTAB
  0
TABLE
  2
STYLE
 70
     1
  0
STYLE
  2
STANDARD
 70
     0
 40
0.0
 41
0.8
 50
0.0
 71
     0
 42
0.2
  3
txt
  4

  0
ENDTAB
  0
TABLE
  2
VIEW
 70
     0
  0
ENDTAB
  0
TABLE
  2
UCS
 70
     0
  0
ENDTAB
  0
TABLE
  2
APPID
 70
     9
  0
APPID
  2
ACAD
 70
     0
  0
APPID
  2
ACAD_MLEADERVER
 70
     0
  0
APPID
  2
ACAD_EXEMPT_FROM_CAD_STANDARDS
 70
     0
  0
APPID
  2
ACAD_NAV_VCDISPLAY
 70
     0
  0
APPID
  2
ACAECLAYERSTANDARD
 70
     0
  0
APPID
  2
ACCMTRANSPARENCY
 70
     0
  0
APPID
  2
ACAD_DSTYLE_DIMJAG
 70
     0
  0
APPID
  2
ACAD_DSTYLE_DIMTALN
 70
     0
  0
APPID
  2
ACDBATTR
 70
     0
  0
ENDTAB
  0
TABLE
  2
DIMSTYLE
 70
     1
  0
DIMSTYLE
  2
STANDARD
 70
     0
  3

  4

  5

  6

  7

 40
1.0
 41
0.1875
 42
0.0625
 43
0.38
 44
0.125
 45
0.0
 46
0.0
 47
0.01
 48
0.01
140
0.15625
141
0.09
142
0.0
143
25.3999999999999986
144
1.0
145
0.0
146
1.0
147
0.09
 71
     1
 72
     0
 73
     1
 74
     1
 75
     0
 76
     0
 77
     0
 78
     4
170
     0
171
     2
172
     0
173
     0
174
     0
175
     0
176
     0
177
     0
178
     0
  0
ENDTAB
  0
ENDSEC
  0
SECTION
  2
BLOCKS
  0
BLOCK
  8
0
  2
$MODEL_SPACE
 70
     0
 10
0.0
 20
0.0
 30
0.0
  3
$MODEL_SPACE
  1

  0
ENDBLK
  5
21
  8
0
  0
BLOCK
 67
     1
  8
0
  2
$PAPER_SPACE
 70
     0
 10
0.0
 20
0.0
 30
0.0
  3
$PAPER_SPACE
  1

  0
ENDBLK
  5
1D
 67
     1
  8
0
  0
BLOCK
  8
0
  2
_FILLED
 70
     0
 10
0.0
 20
0.0
 30
0.0
  3
_FILLED
  1

  0
SOLID
  5
D9CA
  8
0
  6
BYBLOCK
 62
     0
 10
0.0
 20
0.0
 30
0.0
 11
-1.0
 21
0.1666666667
 31
0.0
 12
-1.0
 22
-0.1666666667
 32
0.0
 13
-1.0
 23
-0.1666666667
 33
0.0
  0
ENDBLK
  5
D9CB
  8
0
  6
BYBLOCK
 62
     0
  0
ENDSEC
  0
SECTION
  2
ENTITIES
  0
ATTDEF
  5
3930
  8
DEFPOINTS
 10
5175.9181499904307202
 20
318.6291090202001897
 30
0.0
 40
0.001
  1
K-33225K-4
  3

  2
MODELNUMBER
 70
     0
1001
ACDBATTR
1070
     0
1070
     1
  0
ATTDEF
  5
3931
  8
DEFPOINTS
 10
5175.9181499904307202
 20
318.6274423535335814
 30
0.0
 40
0.001
  1
TAUT
  3

  2
TRADENAME
 70
     0
1001
ACDBATTR
1070
     0
1070
     1
  0
ATTDEF
  5
3932
  8
DEFPOINTS
 10
5175.9181499904307202
 20
318.6257756868669162
 30
0.0
 40
0.001
  1
SHOWER COLUMN 
  3

  2
PRODUCT
 70
     0
1001
ACDBATTR
1070
     0
1070
     1
  0
LINE
  5
12C46
  8
0
 10
5172.0628969495719502
 20
297.0501485124485157
 30
0.0
 11
5179.7795126975734092
 21
297.0501485124485157
 31
0.0
  0
LINE
  5
12C47
  8
0
 10
5171.9841969495728335
 20
297.1288485124484851
 30
0.0
 11
5171.9841969495728335
 21
304.8454642605485105
 31
0.0
  0
LINE
  5
12C48
  8
0
 10
5172.0628969495719502
 20
304.9241642605484799
 30
0.0
 11
5175.4881339574731101
 21
304.9241642605484799
 31
0.0
  0
LINE
  5
12C49
  8
0
 10
5176.3542756896731589
 20
304.9241642605484799
 30
0.0
 11
5179.7795126975734092
 21
304.9241642605484799
 31
0.0
  0
ARC
  5
12C4A
  8
0
 10
5172.0628969495719502
 20
297.1288485124484851
 30
0.0
 40
0.0787
 50
180.0000000000032117
 51
270.0
  0
ARC
  5
12C4B
  8
0
 10
5172.0628969495719502
 20
304.8454642605485105
 30
0.0
 40
0.0787
 50
90.0
 51
179.9999999999934914
  0
LINE
  5
12C4C
  8
0
 10
5172.0629819889727514
 20
304.904479221148506
 30
0.0
 11
5175.4881339574731101
 21
304.904479221148506
 31
0.0
  0
LINE
  5
12C4D
  8
0
 10
5176.3542756896731589
 20
304.904479221148506
 30
0.0
 11
5179.8315792360153864
 21
304.904479221148506
 31
0.0
  0
LINE
  5
12C4E
  8
0
 10
5172.0038819889741717
 20
304.8453792211485052
 30
0.0
 11
5172.0038819889741717
 21
297.1289335518484904
 31
0.0
  0
LINE
  5
12C4F
  8
0
 10
5172.0707972248728765
 20
304.8962639851484937
 30
0.0
 11
5175.4881339574731101
 21
304.8962639851484937
 31
0.0
  0
LINE
  5
12C50
  8
0
 10
5176.3542756896731589
 20
304.8962639851484937
 30
0.0
 11
5179.8396215819457211
 21
304.8962639851484937
 31
0.0
  0
LINE
  5
12C51
  8
0
 10
5172.0120972248732869
 20
304.8375639851485062
 30
0.0
 11
5172.0120972248732869
 21
297.1367487878484894
 31
0.0
  0
ARC
  5
12C52
  8
0
 10
5172.0629819889727514
 20
304.8453792211485052
 30
0.0
 40
0.0591
 50
90.0
 51
179.9999999999934914
  0
ARC
  5
12C53
  8
0
 10
5172.0707972248728765
 20
304.8375639851485062
 30
0.0
 40
0.0587
 50
90.0
 51
179.9999999999934914
  0
LINE
  5
12C54
  8
0
 10
5172.0629819889727514
 20
297.0698335518484896
 30
0.0
 11
5179.8315792360153864
 21
297.0698335518484896
 31
0.0
  0
LINE
  5
12C55
  8
0
 10
5172.0707972248728765
 20
297.0780487878485019
 30
0.0
 11
5179.8396215819457211
 21
297.0780487878485019
 31
0.0
  0
ARC
  5
12C56
  8
0
 10
5172.0707972248728765
 20
297.1367487878484894
 30
0.0
 40
0.0587
 50
180.0000000000065086
 51
270.0
  0
ARC
  5
12C57
  8
0
 10
5172.0629819889727514
 20
297.1289335518484904
 30
0.0
 40
0.0591
 50
180.0
 51
270.0
  0
LINE
  5
12C58
  8
0
 10
5175.4881339574731101
 20
300.9871563865484063
 30
0.0
 11
5175.4881339574731101
 21
315.9477866889484972
 31
0.0
  0
ARC
  5
12C59
  8
0
 10
5175.9212048235731345
 20
300.9871563865484063
 30
0.0
 40
0.4330708661000001
 50
180.0
 51
0.0
  0
ARC
  5
12C5A
  8
0
 10
5175.9212048235731345
 20
300.9871572108484088
 30
0.0
 40
0.7874015748004315
 50
123.3670129657432994
 51
56.6329870342566792
  0
ARC
  5
12C5B
  8
0
 10
5175.9212048235731345
 20
300.9871572108484088
 30
0.0
 40
0.6541448507005195
 50
131.4557355455908123
 51
48.5442644544092019
  0
LINE
  5
12C5C
  8
0
 10
5171.8070465558730575
 20
318.6249520432485269
 30
0.0
 11
5174.1298662408717064
 21
318.6249520432485269
 31
0.0
  0
LINE
  5
12C5D
  8
0
 10
5174.6810473432724393
 20
318.6249520432485269
 30
0.0
 11
5177.1613623038729202
 21
318.6249520432485269
 31
0.0
  0
LINE
  5
12C5E
  8
0
 10
5171.7873465558732278
 20
317.8769504684483991
 30
0.0
 11
5171.7873465558732278
 21
318.6052520432485267
 31
0.0
  0
LINE
  5
12C5F
  8
0
 10
5171.8267465558728873
 20
317.8375504684483985
 30
0.0
 11
5174.1101512802733851
 21
317.8375504684486828
 31
0.0
  0
ARC
  5
12C60
  8
0
 10
5171.8070465558730575
 20
318.6052520432485267
 30
0.0
 40
0.0197
 50
90.0
 51
179.9999999999153033
  0
ARC
  5
12C61
  8
0
 10
5171.8267465558728873
 20
317.8769504684483991
 30
0.0
 40
0.0394
 50
179.9999999999901945
 51
270.0
  0
LINE
  5
12C62
  8
0
 10
5174.149551280272135
 20
317.8769504684483991
 30
0.0
 11
5174.149551280272135
 21
318.6052520432485267
 31
0.0
  0
ARC
  5
12C63
  8
0
 10
5174.1298512802732148
 20
318.6052520432485267
 30
0.0
 40
0.0197
 50
0.0000000000814222
 51
90.0
  0
ARC
  5
12C64
  8
0
 10
5174.1101512802733851
 20
317.8769504684483991
 30
0.0
 40
0.0394
 50
270.0
 51
0.0000000000097707
  0
LINE
  5
12C65
  8
0
 10
5174.0708111227731933
 20
316.7154882637485116
 30
0.0
 11
5174.0708111227731933
 21
315.1800851141484827
 31
0.0
  0
LINE
  5
12C66
  8
0
 10
5174.0905111227730231
 20
316.7351882637485119
 30
0.0
 11
5175.6259292330723838
 21
316.7351882637485119
 31
0.0
  0
LINE
  5
12C67
  8
0
 10
5174.0905111227730231
 20
315.1603851141484824
 30
0.0
 11
5175.4881339574731101
 21
315.1603851141484824
 31
0.0
  0
ARC
  5
12C68
  8
0
 10
5174.0905111227730231
 20
316.7154882637483979
 30
0.0
 40
0.0197
 50
90.0
 51
179.9999999999575948
  0
ARC
  5
12C69
  8
0
 10
5174.0905111227730231
 20
315.1800851141484827
 30
0.0
 40
0.0197
 50
179.9999999999772058
 51
270.0
  0
CIRCLE
  5
12C6A
  8
0
 10
5174.9475355905724427
 20
315.9477866689472876
 30
0.0
 40
0.2949387191357628
  0
ARC
  5
12C6B
  8
0
 10
5174.8975827763733832
 20
315.9477866889484972
 30
0.0
 40
0.3188976378000001
 50
57.3207871456681488
 51
302.679166971731604
  0
LINE
  5
12C6C
  8
0
 10
5174.9475355905724427
 20
316.2430622795484965
 30
0.0
 11
5174.7771334966309951
 21
316.2430622795484965
 31
0.0
  0
LINE
  5
12C6D
  8
0
 10
5174.9475355905724427
 20
315.6525110984484854
 30
0.0
 11
5174.7771334963872505
 21
315.6525110984484854
 31
0.0
  0
ARC
  5
12C6E
  8
0
 10
5175.9212048235731345
 20
315.9477866889484972
 30
0.0
 40
0.4330708661000032
 50
90.0
 51
180.0
  0
ARC
  5
12C6F
  8
0
 10
5175.9212048235731345
 20
315.9477866889484972
 30
0.0
 40
0.4566929133999981
 50
90.0
 51
198.508628098754599
  0
ARC
  5
12C70
  8
0
 10
5175.9212048235731345
 20
315.9477866889484972
 30
0.0
 40
0.6299212598000006
 50
90.0
 51
226.5674634437826001
  0
ARC
  5
12C71
  8
0
 10
5175.9212048235731345
 20
315.9477866889484972
 30
0.0
 40
0.6102362205000001
 50
90.0
 51
224.7913246682556121
  0
LINE
  5
12C72
  8
0
 10
5175.6259292330723838
 20
316.5042155875535741
 30
0.0
 11
5175.6259292330723838
 21
317.1879441692485102
 31
0.0
  0
LINE
  5
12C73
  8
0
 10
5175.4487788393716983
 20
317.1879441692485102
 30
0.0
 11
5176.3936308077727517
 21
317.1879441692485102
 31
0.0
  0
LINE
  5
12C74
  8
0
 10
5175.4684489180717719
 20
317.1879441692485102
 30
0.0
 11
5175.4684489180717719
 21
316.7351882637485119
 31
0.0
  0
LINE
  5
12C75
  8
0
 10
5175.429078839372778
 20
317.2076441692485105
 30
0.0
 11
5175.429078839372778
 21
318.2312512558485196
 31
0.0
  0
ARC
  5
12C76
  8
0
 10
5175.4487788393716983
 20
317.2076441692485105
 30
0.0
 40
0.0197
 50
180.0000000000194973
 51
270.0
  0
LINE
  5
12C77
  8
0
 10
5174.7105330775730181
 20
318.2312512558485196
 30
0.0
 11
5177.1318765695732509
 21
318.2312512558485196
 31
0.0
  0
LINE
  5
12C78
  8
0
 10
5174.6810473432724393
 20
318.2706512558485201
 30
0.0
 11
5174.6810473432724393
 21
318.6249520432485269
 31
0.0
  0
ARC
  5
12C79
  8
0
 10
5174.7204473432730083
 20
318.2706512558485201
 30
0.0
 40
0.0394
 50
180.0
 51
270.0
  0
ARC
  5
12C7A
  8
0
 10
5174.7105330775730181
 20
318.2509362952484935
 30
0.0
 40
0.0196850394000001
 50
204.5873750620935141
 51
270.0
  0
LINE
  5
12C7B
  8
0
 10
5173.6603605533082373
 20
317.1210180535974814
 30
0.0
 11
5175.4684489180717719
 21
317.1210149905077174
 31
0.0
  0
LINE
  5
12C7C
  8
0
 10
5174.149550312023166
 20
317.1210148160485005
 30
0.0
 11
5174.1495503121232105
 21
317.1406998554484744
 31
0.0
  0
LINE
  5
12C7D
  8
0
 10
5174.1495503121232105
 20
317.1406998554484744
 30
0.0
 11
5174.3857707845227196
 21
317.1406998554484744
 31
0.0
  0
LINE
  5
12C7E
  8
0
 10
5174.3857707845227196
 20
317.1406998554484744
 30
0.0
 11
5174.3857707845227196
 21
317.1210148160485005
 31
0.0
  0
CIRCLE
  5
12C7F
  8
0
 10
5175.9194835451726249
 20
317.423001073448404
 30
0.0
 40
0.0393700786999999
  0
CIRCLE
  5
12C80
  8
0
 10
5175.9194835451726249
 20
317.423001073448404
 30
0.0
 40
0.0851126191255706
  0
CIRCLE
  5
12C81
  8
0
 10
5175.9194835451726249
 20
317.423001073448404
 30
0.0
 40
0.0669291339
  0
LINE
  5
12C82
  8
0
 10
5175.8902912923358599
 20
317.4636026011003196
 30
0.0
 11
5175.8697254643757333
 21
317.4180206047236084
 31
0.0
  0
LINE
  5
12C83
  8
0
 10
5175.8697254643757333
 20
317.4180206047236084
 30
0.0
 11
5175.8989177172115888
 21
317.3774190770719201
 31
0.0
  0
LINE
  5
12C84
  8
0
 10
5175.8989177172115888
 20
317.3774190770719201
 30
0.0
 11
5175.9486757980112088
 21
317.3823995457967158
 31
0.0
  0
LINE
  5
12C85
  8
0
 10
5175.9486757980112088
 20
317.3823995457967158
 30
0.0
 11
5175.9692416259713355
 21
317.4279815421733133
 31
0.0
  0
LINE
  5
12C86
  8
0
 10
5175.9692416259713355
 20
317.4279815421733133
 30
0.0
 11
5175.940049373131842
 21
317.4685830698251152
 31
0.0
  0
LINE
  5
12C87
  8
0
 10
5175.940049373131842
 20
317.4685830698251152
 30
0.0
 11
5175.8902912923358599
 21
317.4636026011003196
 31
0.0
  0
LINE
  5
12C88
  8
0
 10
5176.3542756896731589
 20
300.9871563865484063
 30
0.0
 11
5176.3542756896731589
 21
315.9477866889484972
 31
0.0
  0
LINE
  5
12C89
  8
0
 10
5178.3669069034731365
 20
316.7351882637485119
 30
0.0
 11
5176.7912048235721159
 21
316.7351882637485119
 31
0.0
  0
LINE
  5
12C8A
  8
0
 10
5176.7479766197729987
 20
316.7351882637483982
 30
0.0
 11
5176.2164804140729757
 21
316.7351882637485119
 31
0.0
  0
LINE
  5
12C8B
  8
0
 10
5177.3680789004520193
 20
315.1603851141484824
 30
0.0
 11
5176.7912048235721159
 21
315.1603851141484824
 31
0.0
  0
LINE
  5
12C8C
  8
0
 10
5176.7479764272602552
 20
315.1603851141484824
 30
0.0
 11
5176.3542756896731589
 21
315.1603851141484824
 31
0.0
  0
ARC
  5
12C8D
  8
0
 10
5175.9212048235731345
 20
315.9477866889484972
 30
0.0
 40
0.4330708661000032
 50
0.0
 51
90.0
  0
ARC
  5
12C8E
  8
0
 10
5175.9212048235731345
 20
315.9477866889484972
 30
0.0
 40
0.4566929133999981
 50
341.4913719012454862
 51
90.0
  0
ARC
  5
12C8F
  8
0
 10
5175.9212048235731345
 20
315.9477866889484972
 30
0.0
 40
0.6299212598000006
 50
313.4325365562174284
 51
90.0
  0
ARC
  5
12C90
  8
0
 10
5175.9212048235731345
 20
315.9477866889484972
 30
0.0
 40
0.6102362205000001
 50
315.2086753317444163
 51
90.0
  0
LINE
  5
12C91
  8
0
 10
5176.2164804140729757
 20
316.5042155875535741
 30
0.0
 11
5176.2164804140729757
 21
317.1879441692485102
 31
0.0
  0
LINE
  5
12C92
  8
0
 10
5176.3739607290726781
 20
317.1879441692485102
 30
0.0
 11
5176.3739607290726781
 21
316.7351882637485119
 31
0.0
  0
LINE
  5
12C93
  8
0
 10
5176.413330807771672
 20
317.2076441692485105
 30
0.0
 11
5176.413330807771672
 21
318.2312512558485196
 31
0.0
  0
ARC
  5
12C94
  8
0
 10
5176.3936308077727517
 20
317.2076441692485105
 30
0.0
 40
0.0197
 50
270.0
 51
359.9999999999772058
  0
LINE
  5
12C95
  8
0
 10
5177.1613623038729202
 20
318.2706512558485201
 30
0.0
 11
5177.1613623038729202
 21
318.6249520432485269
 31
0.0
  0
ARC
  5
12C96
  8
0
 10
5177.1219623038732607
 20
318.2706512558485201
 30
0.0
 40
0.0394
 50
270.0
 51
0.0
  0
ARC
  5
12C97
  8
0
 10
5177.1318765695732509
 20
318.2509362952484935
 30
0.0
 40
0.0196850394000001
 50
270.0
 51
335.4126249379065143
  0
LINE
  5
12C98
  8
0
 10
5176.7479764272602552
 20
315.1603851141484824
 30
0.0
 11
5176.7479766197729987
 21
316.7351882637483982
 31
0.0
  0
LINE
  5
12C99
  8
0
 10
5176.7912048235721159
 20
315.1603851141484824
 30
0.0
 11
5176.7912048235721159
 21
316.7351882637485119
 31
0.0
  0
LINE
  5
12C9A
  8
0
 10
5176.747976440254206
 20
315.2666843267484751
 30
0.0
 11
5176.7873465558732278
 21
315.2666843267484751
 31
0.0
  0
LINE
  5
12C9B
  8
0
 10
5176.7873465558732278
 20
315.2666843267484751
 30
0.0
 11
5176.7912067911765917
 21
315.2668740317872107
 31
0.0
  0
LINE
  5
12C9C
  8
0
 10
5176.7479764771733244
 20
316.6288890511485192
 30
0.0
 11
5176.7873465558732278
 21
316.6288679471484784
 31
0.0
  0
LINE
  5
12C9D
  8
0
 10
5176.7873465558732278
 20
316.6288679471484784
 30
0.0
 11
5176.7912067911765917
 21
316.6286993461097836
 31
0.0
  0
LINE
  5
12C9E
  8
0
 10
5178.3866069034720567
 20
316.7154882637485116
 30
0.0
 11
5178.3866069034720567
 21
316.1031825692797952
 31
0.0
  0
ARC
  5
12C9F
  8
0
 10
5178.3669069034731365
 20
316.7154882637483979
 30
0.0
 40
0.0197
 50
0.0000000000618809
 51
90.0
  0
ARC
  5
12CA0
  8
0
 10
5174.7669121906837972
 20
316.4098233205588144
 30
0.0
 40
3.6326599571292362
 50
355.0071641835521064
 51
4.8422238509207833
  0
ARC
  5
12CA1
  8
0
 10
5178.3647053013646655
 20
316.095510511059274
 30
0.0
 40
0.0211633408385853
 50
276.841136098081904
 51
355.0071641835521064
  0
ARC
  5
12CA2
  8
0
 10
5169.0246304384700125
 20
361.7650621035563745
 30
0.0
 40
46.6359491998281399
 50
281.4862482694747996
 51
281.5562773443097058
  0
ARC
  5
12CA3
  8
0
 10
5177.9303996041053324
 20
315.7739430060498194
 30
0.0
 40
0.3876928922148734
 50
85.898850694459739
 51
117.1322550355835972
  0
ARC
  5
12CA4
  8
0
 10
5177.9151758824964418
 20
315.7330586961700192
 30
0.0
 40
0.4297362153264293
 50
64.0778050388068436
 51
84.263923837471765
  0
ARC
  5
12CA5
  8
0
 10
4882.2483011777121646
 20
316.835468602496519
 30
0.0
 40
296.2463687555779757
 50
359.4555504090035924
 51
359.8256674607097239
  0
LINE
  5
12CA6
  8
0
 10
5178.3330639420728403
 20
316.0675264986484763
 30
0.0
 11
5178.3348131248485515
 21
316.0532627546506887
 31
0.0
  0
LINE
  5
12CA7
  8
0
 10
5179.8582126975716164
 20
297.1288485124484851
 30
0.0
 11
5179.8582126975716164
 21
304.8454642605485105
 31
0.0
  0
ARC
  5
12CA8
  8
0
 10
5179.7795126975734092
 20
297.1288485124484851
 30
0.0
 40
0.0787
 50
270.0
 51
359.9999999999935199
  0
ARC
  5
12CA9
  8
0
 10
5179.7795126975734092
 20
304.8454642605485105
 30
0.0
 40
0.0787
 50
0.0000000000032569
 51
90.0
  0
LINE
  5
12CAA
  8
0
 10
5179.8385276581730068
 20
304.8453792211485052
 30
0.0
 11
5179.8385276581730068
 21
297.1289335518484904
 31
0.0
  0
LINE
  5
12CAB
  8
0
 10
5179.8303124222729821
 20
304.8375639851485062
 30
0.0
 11
5179.8303124222729821
 21
297.1367487878484894
 31
0.0
  0
ARC
  5
12CAC
  8
0
 10
5179.7794276581716986
 20
304.8453792211485052
 30
0.0
 40
0.0591
 50
0.0000000000065138
 51
90.0
  0
ARC
  5
12CAD
  8
0
 10
5179.7716124222715735
 20
304.8375639851485062
 30
0.0
 40
0.0587
 50
0.0000000000065138
 51
90.0
  0
ARC
  5
12CAE
  8
0
 10
5179.7716124222715735
 20
297.1367487878484894
 30
0.0
 40
0.0587
 50
270.0
 51
359.9999999999935199
  0
ARC
  5
12CAF
  8
0
 10
5179.7794276581716986
 20
297.1289335518484904
 30
0.0
 40
0.0591
 50
270.0
 51
0.0
  0
ARC
  5
12CB0
  8
0
 10
5489.7961700424029914
 20
316.9651377494906797
 30
0.0
 40
312.4333037092524137
 50
180.1901171740227028
 51
180.539727279929906
  0
ARC
  5
12CB2
  8
0
 10
5173.6631972684817811
 20
317.1021487781251835
 30
0.0
 40
0.0190813131056442
 50
81.3902792709582883
 51
81.45026160027885
  0
ARC
  5
12CB3
  8
0
 10
5173.6631972334116654
 20
317.1021488400496082
 30
0.0
 40
0.0190812466555402
 50
98.5494677733865672
 51
182.4505175638136905
  0
LINE
  5
12CB4
  8
0
 10
5172.3975777869727608
 20
317.1013300347365771
 30
0.0
 11
5172.3975777869727608
 21
315.9482700010929079
 31
0.0
  0
LINE
  5
12CB5
  8
0
 10
5172.3975777869727608
 20
317.1013300347365771
 30
0.0
 11
5173.6441334361734334
 21
317.1013329915484746
 31
0.0
  0
LINE
  5
12CB6
  8
0
 10
5172.4289747794200593
 20
315.9167701695149049
 30
0.0
 11
5174.0708114788731109
 21
315.9114012017485038
 31
0.0
  0
ARC
  5
12CB7
  8
0
 10
5172.4290777869719022
 20
315.9482700010929079
 30
0.0
 40
0.0315
 50
180.0
 51
269.8126378238823122
  0
LINE
  5
12CB8
  8
0
 10
5172.3975817543723679
 20
317.7784942290484764
 30
0.0
 11
5173.5393140377727832
 21
317.7784942290484764
 31
0.0
  0
LINE
  5
12CB9
  8
0
 10
5172.3778967149728487
 20
317.7588087601484972
 30
0.0
 11
5172.3778967149728487
 21
317.2076285031484986
 31
0.0
  0
LINE
  5
12CBA
  8
0
 10
5173.5589990771732118
 20
317.2076285031484986
 30
0.0
 11
5173.5589990771732118
 21
317.7588087601484972
 31
0.0
  0
LINE
  5
12CBB
  8
0
 10
5172.3975817543723679
 20
317.1879430479485222
 30
0.0
 11
5173.5393140377727832
 21
317.1879430479485222
 31
0.0
  0
LINE
  5
12CBC
  8
0
 10
5172.3778967149728487
 20
317.2076285031484986
 30
0.0
 11
5172.3975817543723679
 21
317.1879430479485222
 31
0.0
  0
LINE
  5
12CBD
  8
0
 10
5173.5393140377727832
 20
317.1879430479485222
 30
0.0
 11
5173.5589990771732118
 21
317.2076285031484986
 31
0.0
  0
LINE
  5
12CBE
  8
0
 10
5173.5589990771732118
 20
317.7588087601484972
 30
0.0
 11
5173.5393140377727832
 21
317.7784942290484764
 31
0.0
  0
LINE
  5
12CBF
  8
0
 10
5172.3975817543723679
 20
317.7784942290484764
 30
0.0
 11
5172.3778967149728487
 21
317.7588087601484972
 31
0.0
  0
LINE
  5
12CC0
  8
0
 10
5172.3778967149728487
 20
317.7194391109484854
 30
0.0
 11
5172.4833366605716947
 21
317.7194391109484854
 31
0.0
  0
LINE
  5
12CC1
  8
0
 10
5172.8630079503727757
 20
317.7194391109484854
 30
0.0
 11
5173.0738878417732849
 21
317.7194391109484854
 31
0.0
  0
LINE
  5
12CC2
  8
0
 10
5173.4535591315725469
 20
317.7194391109484854
 30
0.0
 11
5173.5589990771732118
 21
317.7194391109484854
 31
0.0
  0
LINE
  5
12CC3
  8
0
 10
5172.3778967149728487
 20
317.2469981660483995
 30
0.0
 11
5172.4833366605716947
 21
317.2469981660483995
 31
0.0
  0
LINE
  5
12CC4
  8
0
 10
5172.8630079503727757
 20
317.2469981660483995
 30
0.0
 11
5173.0738878417732849
 21
317.2469981660483995
 31
0.0
  0
LINE
  5
12CC5
  8
0
 10
5173.4535591315725469
 20
317.2469981660483995
 30
0.0
 11
5173.5589990771732118
 21
317.2469981660483995
 31
0.0
  0
LINE
  5
12CC6
  8
0
 10
5172.4833366605716947
 20
317.7194391109484854
 30
0.0
 11
5172.4833366605716947
 21
317.2469981660483995
 31
0.0
  0
LINE
  5
12CC7
  8
0
 10
5172.8630079503727757
 20
317.7194391109484854
 30
0.0
 11
5172.8630079503727757
 21
317.2469981660483995
 31
0.0
  0
ARC
  5
12CC8
  8
0
 10
5172.6731723054717804
 20
317.2814425791165149
 30
0.0
 40
0.4773662472059079
 50
66.5672161288265301
 51
113.4327838711734984
  0
ARC
  5
12CC9
  8
0
 10
5172.6731723054717804
 20
317.6849946210655276
 30
0.0
 40
0.4773661767261083
 50
246.5672124624173023
 51
293.432787537582783
  0
LINE
  5
12CCA
  8
0
 10
5173.4535591315725469
 20
317.7194391109484854
 30
0.0
 11
5173.4535591315725469
 21
317.2469981660483995
 31
0.0
  0
LINE
  5
12CCB
  8
0
 10
5173.0738878417732849
 20
317.7194391109484854
 30
0.0
 11
5173.0738878417732849
 21
317.2469981660483995
 31
0.0
  0
ARC
  5
12CCC
  8
0
 10
5173.2637234866733706
 20
317.2814425791165149
 30
0.0
 40
0.4773662472059079
 50
66.5672161288265301
 51
113.4327838711734984
  0
ARC
  5
12CCD
  8
0
 10
5173.2637234866733706
 20
317.6849946210655276
 30
0.0
 40
0.4773661767261083
 50
246.5672124624173023
 51
293.432787537582783
  0
LINE
  5
12CCE
  8
0
 10
5172.4546683684729942
 20
317.8375504684485122
 30
0.0
 11
5172.4546683684729942
 21
317.7784942290484764
 31
0.0
  0
LINE
  5
12CCF
  8
0
 10
5173.482227423573022
 20
317.8375504684486259
 30
0.0
 11
5173.482227423573022
 21
317.7784942290484764
 31
0.0
  0
LINE
  5
12CD0
  8
0
 10
5173.3897077385718148
 20
317.1879430479485222
 30
0.0
 11
5173.3897077385718148
 21
317.1013323880544021
 31
0.0
  0
LINE
  5
12CD1
  8
0
 10
5172.5471880535733362
 20
317.1879430479485222
 30
0.0
 11
5172.5471880535733362
 21
317.1013303896100979
 31
0.0
  0
ARC
  5
12CD2
  8
0
 10
5175.921202360073039
 20
316.0934341839484887
 30
0.0
 40
1.0629941054000041
 50
115.209088598913695
 51
142.8629881383390057
  0
ARC
  5
12CD3
  8
0
 10
5175.921202360073039
 20
316.0934341839484887
 30
0.0
 40
1.0629941054000041
 50
35.0705424025402976
 51
64.7906178783521653
  0
ARC
  5
12CD4
  8
0
 10
5175.9163797879728008
 20
316.0925085836485096
 30
0.0
 40
0.8246868368796757
 50
122.8985147827443001
 51
128.8033351697604871
  0
ARC
  5
12CD5
  8
0
 10
5175.9163797879728008
 20
316.0925085836485096
 30
0.0
 40
0.8246868368796757
 50
51.1966648302374878
 51
56.2993281437300794
  0
LINE
  5
12CD6
  8
0
 10
5175.385750434737929
 20
311.1899127016484954
 30
0.0
 11
5175.4881339574731101
 21
311.1899127016484954
 31
0.0
  0
LINE
  5
12CD7
  8
0
 10
5175.2678911646453344
 20
311.3004759614324257
 30
0.0
 11
5175.0210617678703784
 21
315.1603851141484824
 31
0.0
  0
ARC
  5
12CD8
  8
0
 10
5175.385750434737929
 20
311.3080127016484084
 30
0.0
 40
0.1181
 50
183.6589081155983934
 51
270.0
  0
LINE
  5
12CD9
  8
0
 10
5175.2793464225878779
 20
313.0009357725631958
 30
0.0
 11
5175.1492481628729365
 21
315.1603851141484824
 31
0.0
  0
LINE
  5
12CDA
  8
0
 10
5175.3579039860533157
 20
312.9269685542485036
 30
0.0
 11
5175.4881339574731101
 21
312.9269685542485036
 31
0.0
  0
ARC
  5
12CDB
  8
0
 10
5175.3579039860533157
 20
313.0056685542484729
 30
0.0
 40
0.0787
 50
183.4476763325716036
 51
270.0
  0
ARC
  5
12CDC
  8
0
 10
5177.4413615833964286
 20
315.9270485894342073
 30
0.0
 40
0.076787740630404
 50
120.5432664874118984
 51
178.9672289939805978
  0
ARC
  5
12CDD
  8
0
 10
5177.9010049309799797
 20
315.1480747539537788
 30
0.0
 40
0.9812612025633086
 50
105.8603430703609973
 51
120.5432664874118984
  0
ARC
  5
12CDE
  8
0
 10
5177.9301143607808626
 20
315.0456162059155076
 30
0.0
 40
1.0877746428863451
 50
74.3167238452757601
 51
105.8603430703609973
  0
ARC
  5
12CDF
  8
0
 10
5177.9989201438766031
 20
315.290675132276192
 30
0.0
 40
0.8332395506563168
 50
67.1710618577052685
 51
74.3167238452757601
  0
ARC
  5
12CE0
  8
0
 10
5177.7804283034183754
 20
314.7716375619075961
 30
0.0
 40
1.3963902265869881
 50
61.1181069022283907
 51
67.1710618577052685
  0
ARC
  5
12CE1
  8
0
 10
5178.4191347957457765
 20
315.9295170851069088
 30
0.0
 40
0.0740321156401779
 50
14.6658287306495208
 51
61.1181069022283907
  0
ARC
  5
12CE2
  8
0
 10
5178.4017946048770682
 20
315.9249790229412156
 30
0.0
 40
0.0919562956115804
 50
5.684934263538385
 51
14.66582873064322
  0
LINE
  5
12CE3
  8
0
 10
5180.0353630912732115
 20
318.6249520432485269
 30
0.0
 11
5177.7125434062718341
 21
318.6249520432485269
 31
0.0
  0
LINE
  5
12CE4
  8
0
 10
5180.0550630912730412
 20
317.8769504684483991
 30
0.0
 11
5180.0550630912730412
 21
318.6052520432485267
 31
0.0
  0
LINE
  5
12CE5
  8
0
 10
5180.0156630912715627
 20
317.8375504684483985
 30
0.0
 11
5179.3782345737463402
 21
317.8375504684485122
 31
0.0
  0
LINE
  5
12CE6
  8
0
 10
5177.9614554797462915
 20
317.8375504684486259
 30
0.0
 11
5177.7322583668728839
 21
317.8375504684486828
 31
0.0
  0
ARC
  5
12CE7
  8
0
 10
5180.0353630912732115
 20
318.6052520432485267
 30
0.0
 40
0.0197
 50
0.0000000000814222
 51
90.0
  0
ARC
  5
12CE8
  8
0
 10
5180.0156630912715627
 20
317.8769504684483991
 30
0.0
 40
0.0394
 50
270.0
 51
0.0000000000097707
  0
LINE
  5
12CE9
  8
0
 10
5177.6928583668732244
 20
317.8769504684483991
 30
0.0
 11
5177.6928583668732244
 21
318.6052520432485267
 31
0.0
  0
ARC
  5
12CEA
  8
0
 10
5177.7125583668739637
 20
318.6052520432485267
 30
0.0
 40
0.0197
 50
90.0
 51
179.9999999999153033
  0
ARC
  5
12CEB
  8
0
 10
5177.7322583668728839
 20
317.8769504684483991
 30
0.0
 40
0.0394
 50
179.9999999999901945
 51
270.0
  0
LINE
  5
12CEC
  8
0
 10
5179.4448318601716892
 20
317.1013300347365771
 30
0.0
 11
5179.4448318601716892
 21
315.9482700010929079
 31
0.0
  0
LINE
  5
12CED
  8
0
 10
5179.4134348677262096
 20
315.9167701695149049
 30
0.0
 11
5178.4932360812717889
 21
315.9137610288221936
 31
0.0
  0
ARC
  5
12CEE
  8
0
 10
5179.4133318601716383
 20
315.9482700010929079
 30
0.0
 40
0.0315
 50
270.1873621761176878
 51
0.0
  0
LINE
  5
12CEF
  8
0
 10
5179.4448278927729916
 20
317.7784942290484764
 30
0.0
 11
5179.4274070065130218
 21
317.7784942290484764
 31
0.0
  0
LINE
  5
12CF0
  8
0
 10
5179.4645129321734203
 20
317.7588087601484972
 30
0.0
 11
5179.4645129321734203
 21
317.693589347203897
 31
0.0
  0
LINE
  5
12CF1
  8
0
 10
5179.4645129321734203
 20
317.547285945252213
 30
0.0
 11
5179.4645129321734203
 21
317.2076285031484986
 31
0.0
  0
LINE
  5
12CF2
  8
0
 10
5178.2834105699730571
 20
317.2076285031484986
 30
0.0
 11
5178.2834105699730571
 21
317.2105239164097839
 31
0.0
  0
LINE
  5
12CF3
  8
0
 10
5179.4448278927729916
 20
317.1879430479485222
 30
0.0
 11
5178.324121504924733
 21
317.1879430479485222
 31
0.0
  0
LINE
  5
12CF4
  8
0
 10
5179.4645129321734203
 20
317.2076285031484986
 30
0.0
 11
5179.4448278927729916
 21
317.1879430479485222
 31
0.0
  0
LINE
  5
12CF5
  8
0
 10
5179.4448278927729916
 20
317.7784942290484764
 30
0.0
 11
5179.4645129321734203
 21
317.7588087601484972
 31
0.0
  0
LINE
  5
12CF6
  8
0
 10
5179.4645129321734203
 20
317.7194391109484854
 30
0.0
 11
5179.4564472845104319
 21
317.7194391109484854
 31
0.0
  0
LINE
  5
12CF7
  8
0
 10
5179.4645129321734203
 20
317.2469981660483995
 30
0.0
 11
5179.3590729865727553
 21
317.2469981660483995
 31
0.0
  0
LINE
  5
12CF8
  8
0
 10
5178.9794016967716743
 20
317.2469981660483995
 30
0.0
 11
5178.8631489831150247
 21
317.2469981660483995
 31
0.0
  0
LINE
  5
12CF9
  8
0
 10
5179.3590729865727553
 20
317.3877915662116038
 30
0.0
 11
5179.3590729865727553
 21
317.2469981660483995
 31
0.0
  0
LINE
  5
12CFA
  8
0
 10
5178.9794016967716743
 20
317.2649033185247163
 30
0.0
 11
5178.9794016967716743
 21
317.2469981660483995
 31
0.0
  0
ARC
  5
12CFB
  8
0
 10
5179.1692373416726696
 20
317.6849946210655276
 30
0.0
 40
0.4773661767261083
 50
246.5672124624173023
 51
293.432787537582783
  0
ARC
  5
12CFC
  8
0
 10
5178.5786861604728983
 20
317.6849946210655276
 30
0.0
 40
0.4773661767261083
 50
267.5744449864628223
 51
285.4278805755178041
  0
LINE
  5
12CFD
  8
0
 10
5179.3877412786741843
 20
317.8375504684485122
 30
0.0
 11
5179.3877412786741843
 21
317.8283191633171896
 31
0.0
  0
LINE
  5
12CFE
  8
0
 10
5178.4527019085726351
 20
317.1879430479485222
 30
0.0
 11
5178.4527019085726351
 21
317.1013323880544021
 31
0.0
  0
LINE
  5
12CFF
  8
0
 10
5179.2952215935729328
 20
317.1879430479485222
 30
0.0
 11
5179.2952215935729328
 21
317.1013303896100979
 31
0.0
  0
ARC
  5
12D00
  8
0
 10
5169.1266634129769955
 20
428.0419879882319947
 30
0.0
 40
110.6875298670207002
 50
273.7745663813620922
 51
274.5312195203929946
  0
ARC
  5
12D01
  8
0
 10
5166.9170196596942333
 20
459.3416222550484918
 30
0.0
 40
142.6159671835023914
 50
273.8021036297641899
 51
274.3408443273328885
  0
LINE
  5
12D02
  8
0
 10
5179.4448318601716892
 20
317.1013300347365771
 30
0.0
 11
5178.264375839911736
 21
317.1013300347365771
 31
0.0
  0
LINE
  5
12D03
  8
0
 10
5177.707427233848648
 20
317.1013300347365771
 30
0.0
 11
5177.2617460826659226
 21
317.1013300347365771
 31
0.0
  0
ARC
  5
12D04
  8
0
 10
5182.5318566204387025
 20
316.4508125073056135
 30
0.0
 40
4.8680891486997249
 50
170.6828214377055133
 51
176.6510860320429117
  0
ARC
  5
12D05
  8
0
 10
5179.4565952445473158
 20
316.955352674840185
 30
0.0
 40
1.7517141214117671
 50
154.8280860720514909
 51
170.6828214377055133
  0
ARC
  5
12D06
  8
0
 10
5178.3938940217085474
 20
317.4547857784057214
 30
0.0
 40
0.5775048922034085
 50
133.0328046417924952
 51
154.8280860720514909
  0
ARC
  5
12D07
  8
0
 10
5178.4811636299109523
 20
317.3613079412357934
 30
0.0
 40
0.7053880050751326
 50
118.564092139230695
 51
133.0328046417924952
  0
ARC
  5
12D08
  8
0
 10
5178.3818133990444039
 20
317.5438011889032737
 30
0.0
 40
0.4976038530858184
 50
91.434487567821094
 51
118.564092139230695
  0
ARC
  5
12D09
  8
0
 10
5178.4076300713468299
 20
316.5128565371414879
 30
0.0
 40
1.5288717016902309
 50
81.3122248009988056
 51
91.434487567821094
  0
ARC
  5
12D0A
  8
0
 10
5181.0557420644090598
 20
333.8430750221501171
 30
0.0
 40
16.0024993190238796
 50
261.3122248009988198
 51
262.5901913327826946
  0
ARC
  5
12D0B
  8
0
 10
5178.8232493879959293
 20
316.6768428658410812
 30
0.0
 40
1.308293556940276
 50
72.2467897764195897
 51
82.5901913327827657
  0
ARC
  5
12D0C
  8
0
 10
5179.0642404525979146
 20
317.4295534850377862
 30
0.0
 40
0.5179455516482147
 50
59.8428434701114327
 51
72.2467897764205844
  0
ARC
  5
12D0D
  8
0
 10
5179.1729122633223596
 20
317.6165919141016047
 30
0.0
 40
0.3016288015051314
 50
32.4633580659861707
 51
59.8428434701114327
  0
ARC
  5
12D0E
  8
0
 10
5179.173514905385673
 20
317.6169752978374845
 30
0.0
 40
0.3009145462653142
 50
7.3262440718605779
 51
32.4633580659861707
  0
ARC
  5
12D0F
  8
0
 10
5179.1972374755023338
 20
317.6200252741364238
 30
0.0
 40
0.2769967142492519
 50
344.7755122367292984
 51
7.3262440718605779
  0
ARC
  5
12D10
  8
0
 10
5179.1707624095106439
 20
317.6272305422739919
 30
0.0
 40
0.3044347354646362
 50
322.058379239737917
 51
344.7755122367324248
  0
ARC
  5
12D11
  8
0
 10
5179.1657166751247132
 20
317.6311644292641745
 30
0.0
 40
0.3108327744099071
 50
296.9280761105525244
 51
322.058379239737917
  0
ARC
  5
12D12
  8
0
 10
5178.9900522216576064
 20
317.9769978683788167
 30
0.0
 40
0.6987229235776333
 50
278.9817366263358167
 51
296.9280761105525244
  0
ARC
  5
12D13
  8
0
 10
5178.2799270834721028
 20
321.4200300660228891
 30
0.0
 40
4.2135902769997067
 50
276.9711909382397153
 51
281.2108890423729122
  0
ARC
  5
12D14
  8
0
 10
5178.2459907053626011
 20
320.6044983771122929
 30
0.0
 40
3.4107875293170991
 50
273.7855243413147832
 51
279.2003433542913058
  0
ARC
  5
12D15
  8
0
 10
5178.6784545408891063
 20
314.0684718024057247
 30
0.0
 40
3.1395306579398592
 50
93.7855243413148969
 51
97.3265415665150044
  0
ARC
  5
12D16
  8
0
 10
5182.2623788464161407
 20
316.4792220165737149
 30
0.0
 40
4.0461149793679061
 50
170.1408334847924948
 51
176.3729192714669125
  0
ARC
  5
12D17
  8
0
 10
5179.3714739135948548
 20
316.9816429168573109
 30
0.0
 40
1.111876050506593
 50
165.6845357309576912
 51
170.1408334847924948
  0
ARC
  5
12D18
  8
0
 10
5179.9309355105442592
 20
316.8388771220381841
 30
0.0
 40
1.689266170470177
 50
161.3479295268762996
 51
165.6845357309576912
  0
ARC
  5
12D19
  8
0
 10
5178.7000293303826766
 20
317.254368543935982
 30
0.0
 40
0.3901267837884375
 50
146.2417562237774007
 51
161.3479295268732017
  0
ARC
  5
12D1A
  8
0
 10
5178.4528461476666052
 20
317.419582514633305
 30
0.0
 40
0.0928135114111494
 50
133.5911528003483966
 51
146.2417562237801008
  0
ARC
  5
12D1B
  8
0
 10
5178.3963028318676152
 20
317.4789772073988843
 30
0.0
 40
0.0108081695713115
 50
95.4403250821067246
 51
133.5911528003462081
  0
ARC
  5
12D1C
  8
0
 10
5178.4189164043609708
 20
317.359795015423515
 30
0.0
 40
0.1320742504150658
 50
90.0434859962222447
 51
100.3101922161495025
  0
ARC
  5
12D1D
  8
0
 10
5178.4152726414249628
 20
316.8700489199566164
 30
0.0
 40
0.6218304043653037
 50
82.5016582644805965
 51
89.6734962533861051
  0
ARC
  5
12D1E
  8
0
 10
5176.3319587164332916
 20
299.975295309419721
 30
0.0
 40
17.6445274100660896
 50
82.0625628423238993
 51
82.9537558570137463
  0
ARC
  5
12D1F
  8
0
 10
5178.728849702784828
 20
316.439022543159524
 30
0.0
 40
1.012533311988298
 50
71.4676103508575835
 51
87.7545173116935757
  0
ARC
  5
12D20
  8
0
 10
5178.4474871133470515
 20
319.4935266518647268
 30
0.0
 40
2.1796023988169089
 50
266.4123572424679764
 51
286.0658353568073835
  0
ARC
  5
12D21
  8
0
 10
5309.9503216677376258
 20
315.3349006908850924
 30
0.0
 40
132.5800935359561947
 50
180.5673688072930076
 51
180.7260554227815135
  0
ARC
  5
12D22
  8
0
 10
5176.7048096345779413
 20
313.646315490970494
 30
0.0
 40
0.6761175649009661
 50
348.1475285695598245
 51
0.7260554227815847
  0
ARC
  5
12D23
  8
0
 10
5176.4344541777700215
 20
313.703054135190996
 30
0.0
 40
0.9523626495158694
 50
334.5787936999420253
 51
348.1475285695598245
  0
ARC
  5
12D24
  8
0
 10
5175.7824376476382895
 20
314.012950133385516
 30
0.0
 40
1.6742775234891329
 50
323.4690012286199021
 51
334.5787936999420253
  0
ARC
  5
12D25
  8
0
 10
5175.8166961305669247
 20
313.9875714945115988
 30
0.0
 40
1.6316428080127849
 50
306.760083499910877
 51
323.4690012286199021
  0
ARC
  5
12D26
  8
0
 10
5180.4635066835480757
 20
307.7670213362129061
 30
0.0
 40
6.132897911644581
 50
126.7600834999109054
 51
128.7742877636841001
  0
ARC
  5
12D27
  8
0
 10
5177.9283051421671189
 20
310.9230753805372274
 30
0.0
 40
2.0846978194891879
 50
128.7742877636841001
 51
139.0288319267230861
  0
ARC
  5
12D28
  8
0
 10
5177.7188038782005606
 20
311.1342079016072262
 30
0.0
 40
1.824482376722252
 50
221.5913077917502108
 51
247.6599465889956946
  0
ARC
  5
12D29
  8
0
 10
5177.9575954825277222
 20
311.7152846224013842
 30
0.0
 40
2.4527113045390352
 50
247.6599465889956946
 51
266.6439671531877025
  0
ARC
  5
12D2A
  8
0
 10
5177.9441255630190426
 20
311.485582842949384
 30
0.0
 40
2.2226149199194469
 50
266.6439671531877025
 51
287.1407181190324991
  0
ARC
  5
12D2B
  8
0
 10
5177.9681138786618249
 20
311.4078043245419281
 30
0.0
 40
2.141221202636614
 50
287.1407181190324991
 51
311.9874429867653021
  0
ARC
  5
12D2C
  8
0
 10
5178.4374439763651026
 20
310.8863306571258249
 30
0.0
 40
1.4396475953667991
 50
311.9874429867653021
 51
341.3088846441596047
  0
ARC
  5
12D2D
  8
0
 10
5177.8132308363583434
 20
311.0975072698574877
 30
0.0
 40
2.0986146703577271
 50
341.3088846441596047
 51
357.7762800631282971
  0
ARC
  5
12D2E
  8
0
 10
5177.7855046497279545
 20
311.3894901080607838
 30
0.0
 40
1.9636330061259839
 50
223.2084346008770979
 51
252.3186268635541012
  0
ARC
  5
12D2F
  8
0
 10
5177.9395572321636791
 20
311.8727430019742997
 30
0.0
 40
2.4708465288468711
 50
252.3186268635541012
 51
272.4180387061344959
  0
ARC
  5
12D30
  8
0
 10
5177.9499088403672431
 20
311.6276057764868028
 30
0.0
 40
2.2254908378346392
 50
272.4180387061344959
 51
292.2799320530023124
  0
ARC
  5
12D31
  8
0
 10
5177.9575249551544402
 20
311.6090172275892201
 30
0.0
 40
2.205402548844039
 50
292.2799320530023124
 51
312.5617006976468133
  0
ARC
  5
12D32
  8
0
 10
5178.4826956376264206
 20
311.0371316286534125
 30
0.0
 40
1.428963636888765
 50
312.5617006976468133
 51
348.8168924839773126
  0
ARC
  5
12D33
  8
0
 10
5177.7487005318707816
 20
311.6161071805365168
 30
0.0
 40
1.9516343006582071
 50
224.3985123425746906
 51
249.0858520823819049
  0
ARC
  5
12D34
  8
0
 10
5177.9389522726833093
 20
312.1139583319514941
 30
0.0
 40
2.4845991154884381
 50
249.0858520823819049
 51
269.6875325384127109
  0
ARC
  5
12D35
  8
0
 10
5177.9383944221917773
 20
312.0116687634164236
 30
0.0
 40
2.3823080258067608
 50
269.6875325384127109
 51
290.7194926182575045
  0
ARC
  5
12D36
  8
0
 10
5178.0554630893939247
 20
311.7021740040256077
 30
0.0
 40
2.0514121525614919
 50
290.7194926182575045
 51
313.164337129370324
  0
ARC
  5
12D37
  8
0
 10
5178.4158820820257461
 20
311.3178877076601907
 30
0.0
 40
1.5245556181765829
 50
313.164337129370324
 51
348.5819724166801166
  0
ARC
  5
12D38
  8
0
 10
5178.6557038725541133
 20
311.2694526217965176
 30
0.0
 40
1.27989166751224
 50
348.5819724166801166
 51
20.4555948613069916
  0
ARC
  5
12D39
  8
0
 10
5178.2226909518367393
 20
311.107938118188315
 30
0.0
 40
1.74204653807289
 50
20.4555948613069916
 51
38.6322053206423135
  0
ARC
  5
12D3A
  8
0
 10
5177.6411740838666447
 20
310.6431838973838921
 30
0.0
 40
2.4864646688900378
 50
38.6322053206423135
 51
55.4877373335996822
  0
ARC
  5
12D3B
  8
0
 10
5180.0633860627731337
 20
314.0085390532645988
 30
0.0
 40
1.6613821202452601
 50
205.4590073579859109
 51
232.4113129748822075
  0
ARC
  5
12D3C
  8
0
 10
5179.3146068950163681
 20
313.6639987661196756
 30
0.0
 40
0.8372782560656995
 50
179.711628175365405
 51
206.1974727874246014
  0
ARC
  5
12D3D
  8
0
 10
4958.7833658681556699
 20
316.3116451015865209
 30
0.0
 40
219.7098761363444055
 50
359.3106310412736093
 51
359.4024925372081043
  0
LINE
  5
12D3E
  8
0
 10
5176.656012178009405
 20
312.5748714155030825
 30
0.0
 11
5176.8213478792749811
 21
315.1603851141484824
 31
0.0
  0
LINE
  5
12D3F
  8
0
 10
5176.5630632245583911
 20
313.0009357725631958
 30
0.0
 11
5176.6931614842733325
 21
315.1603851141484824
 31
0.0
  0
LINE
  5
12D40
  8
0
 10
5176.4845056610929532
 20
312.9269685542485036
 30
0.0
 11
5176.3542756896731589
 21
312.9269685542485036
 31
0.0
  0
ARC
  5
12D41
  8
0
 10
5176.4845056610929532
 20
313.0056685542484729
 30
0.0
 40
0.0787
 50
270.0
 51
356.5523236674283112
  0
ENDSEC
  0
EOF
