  0
SECTION
  2
HEADER
  9
$ACADVER
  1
AC1009
  9
$INSBASE
 10
4158.1641564355977607
 20
141.8247533329625867
 30
0.0
  9
$EXTMIN
 10
4150.2560647073905784
 20
141.8122719709114961
 30
-0.0000000000112498
  9
$EXTMAX
 10
4166.3464814042999933
 20
171.9002936809953042
 30
0.0000000000002956
  9
$LIMMIN
 10
0.0
 20
0.0
  9
$LIMMAX
 10
11.6929133858000007
 20
8.2677165353999982
  9
$ORTHOMODE
 70
     0
  9
$REGENMODE
 70
     1
  9
$FILLMODE
 70
     1
  9
$QTEXTMODE
 70
     0
  9
$MIRRTEXT
 70
     0
  9
$DRAGMODE
 70
     2
  9
$LTSCALE
 40
0.6431102362
  9
$OSMODE
 70
  4095
  9
$ATTMODE
 70
     1
  9
$TEXTSIZE
 40
0.2
  9
$TRACEWID
 40
0.05
  9
$TEXTSTYLE
  7
STANDARD
  9
$CLAYER
  8
0
  9
$CELTYPE
  6
BYLAYER
  9
$CECOLOR
 62
   256
  9
$DIMSCALE
 40
1.0
  9
$DIMASZ
 40
0.1875
  9
$DIMEXO
 40
0.0625
  9
$DIMDLI
 40
0.4443307087
  9
$DIMRND
 40
0.0
  9
$DIMDLE
 40
0.0
  9
$DIMEXE
 40
0.125
  9
$DIMTP
 40
0.01
  9
$DIMTM
 40
0.01
  9
$DIMTXT
 40
2.0
  9
$DIMCEN
 40
0.1052362205
  9
$DIMTSZ
 40
0.0
  9
$DIMTOL
 70
     1
  9
$DIMLIM
 70
     0
  9
$DIMTIH
 70
     1
  9
$DIMTOH
 70
     1
  9
$DIMSE1
 70
     0
  9
$DIMSE2
 70
     0
  9
$DIMTAD
 70
     0
  9
$DIMZIN
 70
     0
  9
$DIMBLK
  1

  9
$DIMASO
 70
     1
  9
$DIMSHO
 70
     1
  9
$DIMPOST
  1
\X
  9
$DIMAPOST
  1

  9
$DIMALT
 70
     1
  9
$DIMALTD
 70
     2
  9
$DIMALTF
 40
25.3999999999999986
  9
$DIMLFAC
 40
1.0
  9
$DIMTOFL
 70
     0
  9
$DIMTVP
 40
0.0
  9
$DIMTIX
 70
     0
  9
$DIMSOXD
 70
     0
  9
$DIMSAH
 70
     0
  9
$DIMBLK1
  1

  9
$DIMBLK2
  1

  9
$DIMSTYLE
  2
STANDARD
  9
$DIMCLRD
 70
     0
  9
$DIMCLRE
 70
     0
  9
$DIMCLRT
 70
     0
  9
$DIMTFAC
 40
1.0
  9
$DIMGAP
 40
0.09
  9
$LUNITS
 70
     2
  9
$LUPREC
 70
     4
  9
$SKETCHINC
 40
0.1
  9
$FILLETRAD
 40
0.25
  9
$AUNITS
 70
     0
  9
$AUPREC
 70
     0
  9
$MENU
  1
.
  9
$ELEVATION
 40
0.0
  9
$PELEVATION
 40
0.0
  9
$THICKNESS
 40
0.0
  9
$LIMCHECK
 70
     0
  9
$BLIPMODE
 70
     0
  9
$CHAMFERA
 40
0.0
  9
$CHAMFERB
 40
0.0
  9
$SKPOLY
 70
     0
  9
$TDCREATE
 40
2458060.468368056230247
  9
$TDUPDATE
 40
2460787.6757986121810973
  9
$TDINDWG
 40
0.5560834491
  9
$TDUSRTIMER
 40
0.5560834491
  9
$USRTIMER
 70
     1
  9
$ANGBASE
 50
0.0
  9
$ANGDIR
 70
     0
  9
$PDMODE
 70
     0
  9
$PDSIZE
 40
0.3125
  9
$PLINEWID
 40
0.0
  9
$COORDS
 70
     1
  9
$SPLFRAME
 70
     0
  9
$SPLINETYPE
 70
     6
  9
$SPLINESEGS
 70
     8
  9
$ATTDIA
 70
     1
  9
$ATTREQ
 70
     1
  9
$HANDLING
 70
     1
  9
$HANDSEED
  5
8ACA
  9
$SURFTAB1
 70
     6
  9
$SURFTAB2
 70
     6
  9
$SURFTYPE
 70
     6
  9
$SURFU
 70
     6
  9
$SURFV
 70
     6
  9
$UCSNAME
  2

  9
$UCSORG
 10
0.0
 20
0.0
 30
0.0
  9
$UCSXDIR
 10
1.0
 20
0.0
 30
0.0
  9
$UCSYDIR
 10
0.0
 20
1.0
 30
0.0
  9
$PUCSNAME
  2

  9
$PUCSORG
 10
0.0
 20
0.0
 30
0.0
  9
$PUCSXDIR
 10
1.0
 20
0.0
 30
0.0
  9
$PUCSYDIR
 10
0.0
 20
1.0
 30
0.0
  9
$USERI1
 70
     0
  9
$USERI2
 70
     0
  9
$USERI3
 70
     0
  9
$USERI4
 70
     0
  9
$USERI5
 70
     0
  9
$USERR1
 40
0.0
  9
$USERR2
 40
0.0
  9
$USERR3
 40
0.0
  9
$USERR4
 40
0.0
  9
$USERR5
 40
0.0
  9
$WORLDVIEW
 70
     1
  9
$SHADEDGE
 70
     3
  9
$SHADEDIF
 70
    70
  9
$TILEMODE
 70
     1
  9
$MAXACTVP
 70
    64
  9
$PLIMCHECK
 70
     0
  9
$PEXTMIN
 10
1.0000000000000000E+20
 20
1.0000000000000000E+20
 30
1.0000000000000000E+20
  9
$PEXTMAX
 10
-1.0000000000000000E+20
 20
-1.0000000000000000E+20
 30
-1.0000000000000000E+20
  9
$PLIMMIN
 10
0.0
 20
0.0
  9
$PLIMMAX
 10
12.0
 20
9.0
  9
$UNITMODE
 70
     0
  9
$VISRETAIN
 70
     1
  9
$PLINEGEN
 70
     0
  9
$PSLTSCALE
 70
     1
  0
ENDSEC
  0
SECTION
  2
TABLES
  0
TABLE
  2
VPORT
 70
     1
  0
VPORT
  2
*ACTIVE
 70
     0
 10
0.0
 20
0.0
 11
1.0
 21
1.0
 12
116.055545516783198
 22
21.2641721327979099
 13
0.0
 23
0.0
 14
1.0
 24
1.0
 15
0.0
 25
0.0
 16
0.0
 26
0.0
 36
53.2874995227186403
 17
4042.2457275390629547
 27
135.5921106931554903
 37
0.0
 40
30.3078606377722508
 41
2.204387990762124
 42
50.0
 43
0.0
 44
0.0
 50
0.0
 51
0.0
 71
     0
 72
   100
 73
     1
 74
     1
 75
     0
 76
     0
 77
     0
 78
     0
  0
ENDTAB
  0
TABLE
  2
LTYPE
 70
     2
  0
LTYPE
  2
CONTINUOUS
 70
     0
  3
Solid line
 72
    65
 73
     0
 40
0.0
  0
LTYPE
  2
PHANTOM2
 70
     0
  3
___ _ _ ___ _ _ ___ _ _ ___ _ _
 72
    65
 73
     6
 40
1.25
 49
0.625
 49
-0.125
 49
0.125
 49
-0.125
 49
0.125
 49
-0.125
  0
ENDTAB
  0
TABLE
  2
LAYER
 70
     2
  0
LAYER
  2
0
 70
     0
 62
   255
  6
CONTINUOUS
  0
LAYER
  2
DEFPOINTS
 70
     0
 62
     7
  6
CONTINUOUS
  0
ENDTAB
  0
TABLE
  2
STYLE
 70
     1
  0
STYLE
  2
STANDARD
 70
     0
 40
0.0
 41
0.8
 50
0.0
 71
     0
 42
0.2
  3
txt
  4

  0
ENDTAB
  0
TABLE
  2
VIEW
 70
     0
  0
ENDTAB
  0
TABLE
  2
UCS
 70
     0
  0
ENDTAB
  0
TABLE
  2
APPID
 70
     9
  0
APPID
  2
ACAD
 70
     0
  0
APPID
  2
ACAD_MLEADERVER
 70
     0
  0
APPID
  2
ACAD_EXEMPT_FROM_CAD_STANDARDS
 70
     0
  0
APPID
  2
ACAD_NAV_VCDISPLAY
 70
     0
  0
APPID
  2
ACAECLAYERSTANDARD
 70
     0
  0
APPID
  2
ACCMTRANSPARENCY
 70
     0
  0
APPID
  2
ACAD_DSTYLE_DIMJAG
 70
     0
  0
APPID
  2
ACAD_DSTYLE_DIMTALN
 70
     0
  0
APPID
  2
ACDBATTR
 70
     0
  0
ENDTAB
  0
TABLE
  2
DIMSTYLE
 70
     1
  0
DIMSTYLE
  2
STANDARD
 70
     0
  3

  4

  5

  6

  7

 40
1.0
 41
0.1875
 42
0.0625
 43
0.38
 44
0.125
 45
0.0
 46
0.0
 47
0.01
 48
0.01
140
0.15625
141
0.09
142
0.0
143
25.3999999999999986
144
1.0
145
0.0
146
1.0
147
0.09
 71
     1
 72
     0
 73
     1
 74
     1
 75
     0
 76
     0
 77
     0
 78
     4
170
     0
171
     2
172
     0
173
     0
174
     0
175
     0
176
     0
177
     0
178
     0
  0
ENDTAB
  0
ENDSEC
  0
SECTION
  2
BLOCKS
  0
BLOCK
  8
0
  2
$MODEL_SPACE
 70
     0
 10
0.0
 20
0.0
 30
0.0
  3
$MODEL_SPACE
  1

  0
ENDBLK
  5
21
  8
0
  0
BLOCK
 67
     1
  8
0
  2
$PAPER_SPACE
 70
     0
 10
0.0
 20
0.0
 30
0.0
  3
$PAPER_SPACE
  1

  0
ENDBLK
  5
1D
 67
     1
  8
0
  0
BLOCK
  8
0
  2
_FILLED
 70
     0
 10
0.0
 20
0.0
 30
0.0
  3
_FILLED
  1

  0
SOLID
  5
816D
  8
0
  6
BYBLOCK
 62
     0
 10
0.0
 20
0.0
 30
0.0
 11
-1.0
 21
0.1666666667
 31
0.0
 12
-1.0
 22
-0.1666666667
 32
0.0
 13
-1.0
 23
-0.1666666667
 33
0.0
  0
ENDBLK
  5
816E
  8
0
  6
BYBLOCK
 62
     0
  0
ENDSEC
  0
SECTION
  2
ENTITIES
  0
ATTDEF
  5
8017
  8
DEFPOINTS
 10
4158.1597728291326348
 20
141.8230760084690871
 30
0.0
 40
0.001
  1
K-33235K-S
  3

  2
MODELNUMBER
 70
     0
1001
ACDBATTR
1070
     0
1070
     1
  0
ATTDEF
  5
8018
  8
DEFPOINTS
 10
4158.1597728291326348
 20
141.8214093418025072
 30
0.0
 40
0.001
  1
BRIVE
  3

  2
TRADENAME
 70
     0
1001
ACDBATTR
1070
     0
1070
     1
  0
ATTDEF
  5
8019
  8
DEFPOINTS
 10
4158.1597728291326348
 20
141.8197426751358137
 30
0.0
 40
0.001
  1
TOILET
  3

  2
PRODUCT
 70
     0
1001
ACDBATTR
1070
     0
1070
     1
  0
LINE
  5
8961
  8
0
 10
4152.5853168680978342
 20
141.8247533329625867
 30
0.0
 11
4163.7429960030967777
 21
141.8247533329625867
 31
0.0
  0
LINE
  5
8962
  8
0
 10
4151.1831481848375915
 20
158.0845958689625093
 30
0.0
 11
4158.1641564355977607
 21
158.0845958689625093
 31
0.0
  0
ARC
  5
8963
  8
0
 10
4165.6691666102378804
 20
157.3610012304492045
 30
0.0
 40
14.7266471823622407
 50
178.0575529301339941
 51
179.79818516978969
  0
ARC
  5
8964
  8
0
 10
4158.2538790275866631
 20
157.3871204526014083
 30
0.0
 40
7.3113135993617409
 50
179.79818516978969
 51
184.2167233160205058
  0
ARC
  5
8965
  8
0
 10
4155.174329757115629
 20
157.1600687745134053
 30
0.0
 40
4.2234055415039489
 50
184.2167233160205058
 51
197.4200834144565988
  0
ARC
  5
8966
  8
0
 10
4154.2284978202578714
 20
156.8632988786008013
 30
0.0
 40
3.2321081976659261
 50
197.4200834144565988
 51
214.4073623470565053
  0
ARC
  5
8967
  8
0
 10
4154.8953307296887942
 20
157.3200147707487986
 30
0.0
 40
4.0403504480091623
 50
214.4073623470565053
 51
230.9716374420642069
  0
ARC
  5
8968
  8
0
 10
4252.7254673729330534
 20
278.0079680457719178
 30
0.0
 40
159.3990248159053067
 50
230.9716374420642069
 51
231.3744865593278917
  0
ARC
  5
8969
  8
0
 10
4151.1995244175686821
 20
150.9447019029219916
 30
0.0
 40
3.243499438560312
 50
39.5995276709114705
 51
51.3744865593278206
  0
ARC
  5
896A
  8
0
 10
4152.4427101667242823
 20
151.9731373346795067
 30
0.0
 40
1.6300589394416689
 50
29.8765306312782783
 51
39.5995276709114705
  0
ARC
  5
896B
  8
0
 10
4152.6936802835862181
 20
152.1173147910758132
 30
0.0
 40
1.3406230424111201
 50
355.7051570963448057
 51
29.8765306312782783
  0
ARC
  5
896C
  8
0
 10
4117.7880271129970424
 20
156.8629726944915888
 30
0.0
 40
36.5650639587269026
 50
349.6908708276492916
 51
352.3840451989169082
  0
ARC
  5
896D
  8
0
 10
4379.0633861379128575
 20
112.5792153670994935
 30
0.0
 40
228.4396378637974863
 50
170.490668164140601
 51
170.889749288071414
  0
ARC
  5
896E
  8
0
 10
4312.4086002567537435
 20
124.1114138594948031
 30
0.0
 40
160.8018790575320054
 50
171.1865444698092915
 51
173.6756745449472135
  0
LINE
  5
896F
  8
0
 10
4152.7460249459427359
 20
143.2191702309937966
 30
0.0
 11
4152.5410292239339469
 21
143.242108063576012
 31
0.0
  0
ARC
  5
8970
  8
0
 10
4152.5377457523973135
 20
143.2127636337625063
 30
0.0
 40
0.0295275590999991
 50
83.6154914774704565
 51
166.6612723838985914
  0
ARC
  5
8971
  8
0
 10
4154.6734166521946463
 20
142.7063879641478934
 30
0.0
 40
2.224409449092744
 50
166.6612723838985914
 51
180.5697106119284001
  0
ARC
  5
8972
  8
0
 10
4152.4786432648097616
 20
142.6845638976938062
 30
0.0
 40
0.0295275589115048
 50
180.5697106119284001
 51
263.6154918197685788
  0
LINE
  5
8973
  8
0
 10
4152.475359793469579
 20
142.6552194680481023
 30
0.0
 11
4152.6769266498649813
 21
142.6326653068643964
 31
0.0
  0
LINE
  5
8974
  8
0
 10
4152.5090147537048324
 20
143.2195758625113911
 30
0.0
 11
4152.4491171655781727
 21
142.6842703003887038
 31
0.0
  0
LINE
  5
8975
  8
0
 10
4151.0263166458043997
 20
158.3002651602625122
 30
0.0
 11
4158.1641564355977607
 21
158.3002651602625122
 31
0.0
  0
LINE
  5
8976
  8
0
 10
4150.9665929074753876
 20
158.3660162540695069
 30
0.0
 11
4151.0820377713343987
 21
159.5648836472857965
 31
0.0
  0
ARC
  5
8977
  8
0
 10
4151.0263166458043997
 20
158.3602651602625997
 30
0.0
 40
0.06
 50
174.4996655182812049
 51
270.0
  0
ARC
  5
8978
  8
0
 10
4159.1497961004415629
 20
44.4895980278098975
 30
0.0
 40
115.6323149392166982
 50
90.4883900908806851
 51
92.6139550537232736
  0
ARC
  5
8979
  8
0
 10
4158.2225167299948225
 20
85.6608942721941702
 30
0.0
 40
74.4676452365129364
 50
93.3459529370167331
 51
95.0808271561877092
  0
ARC
  5
897A
  8
0
 10
4152.36452691989507
 20
150.9359723194901051
 30
0.0
 40
8.9304236716912673
 50
94.733429065598159
 51
96.7378716677628177
  0
ARC
  5
897B
  8
0
 10
4151.3481070255902523
 20
159.5392625243756868
 30
0.0
 40
0.2673
 50
96.7378716677628177
 51
174.4996655182804091
  0
ARC
  5
897C
  8
0
 10
4152.334969900138276
 20
-456.7067567236035188
 30
0.0
 40
616.390687233942117
 50
89.4581476133037654
 51
89.8008782779912167
  0
ARC
  5
897D
  8
0
 10
4156.3301127276154148
 20
294.3228098311536201
 30
0.0
 40
134.6553517092557115
 50
268.3860634552254965
 51
269.2115304423862767
  0
ARC
  5
897E
  8
0
 10
4153.3079165306744471
 20
190.9263934322594025
 30
0.0
 40
31.2150236289686802
 50
266.6563307969843777
 51
268.5858780943954116
  0
ARC
  5
897F
  8
0
 10
4151.5599735805517412
 20
161.0916011803008985
 30
0.0
 40
1.329080786958897
 50
260.0012139419745836
 51
266.8656503873986026
  0
ARC
  5
8980
  8
0
 10
4151.4788298712010146
 20
159.161863417119207
 30
0.0
 40
0.6570741265556622
 50
97.1112518451683258
 51
102.8500247646974941
  0
ARC
  5
8981
  8
0
 10
4151.355266058440975
 20
159.7064858658845878
 30
0.0
 40
0.098613052353735
 50
103.2304222004661938
 51
113.8235305286813031
  0
ARC
  5
8982
  8
0
 10
4151.3195941077701718
 20
159.7872751282314141
 30
0.0
 40
0.0102988803580822
 50
113.8235305286813031
 51
145.0640409850620927
  0
ARC
  5
8983
  8
0
 10
4151.3138252200851639
 20
159.7918904962311899
 30
0.0
 40
0.0029656573113484
 50
154.3790976941226063
 51
233.2357471400617897
  0
ARC
  5
8984
  8
0
 10
4151.3379305515072701
 20
159.829719289548791
 30
0.0
 40
0.0478142444072256
 50
237.2299615491577072
 51
259.4899555279965853
  0
LINE
  5
8985
  8
0
 10
4151.314875172198299
 20
158.2907188523624882
 30
0.0
 11
4158.1641564355977607
 21
158.2907188523624882
 31
0.0
  0
ARC
  5
8986
  8
0
 10
4151.3167949171956934
 20
158.3697822842185872
 30
0.0
 40
0.0790867351564799
 50
241.5217916944770025
 51
268.6090702756059159
  0
ARC
  5
8987
  8
0
 10
4151.3261708616373653
 20
155.2264683150928875
 30
0.0
 40
3.5691029234617151
 50
53.2062949436104304
 51
59.1540777709073708
  0
LINE
  5
8988
  8
0
 10
4153.1686176292532764
 20
158.1675692460624987
 30
0.0
 11
4151.9392354816318402
 21
158.1675692460624987
 31
0.0
  0
LINE
  5
8989
  8
0
 10
4153.2276366347614385
 20
158.22357619110781
 30
0.0
 11
4153.2288192216410607
 21
158.2461412934852945
 31
0.0
  0
ARC
  5
898A
  8
0
 10
4153.1686176292532764
 20
158.2266692460624995
 30
0.0
 40
0.0591
 50
270.0
 51
357.0000000574809746
  0
ARC
  5
898B
  8
0
 10
4151.7683995213710659
 20
158.1834827342682104
 30
0.0
 40
0.1171101022055279
 50
14.1868767707609607
 51
66.3033818297895579
  0
ARC
  5
898C
  8
0
 10
4151.9392354816318402
 20
158.2266692460624995
 30
0.0
 40
0.0591
 50
194.1868767707624954
 51
270.0
  0
LINE
  5
898D
  8
0
 10
4153.7661377463391545
 20
158.152710049337486
 30
0.0
 11
4153.7612962913617594
 21
158.2450905131969989
 31
0.0
  0
LINE
  5
898E
  8
0
 10
4154.8890032080525998
 20
158.09670310436249
 30
0.0
 11
4153.8251567518418597
 21
158.09670310436249
 31
0.0
  0
LINE
  5
898F
  8
0
 10
4154.9480222135580334
 20
158.1527100493684941
 30
0.0
 11
4154.9552549483969415
 21
158.2907188523624882
 31
0.0
  0
ARC
  5
8990
  8
0
 10
4153.8251567518418597
 20
158.1558031043624908
 30
0.0
 40
0.0591
 50
183.0000000107202993
 51
270.0
  0
ARC
  5
8991
  8
0
 10
4154.8890032080525998
 20
158.1558031043624908
 30
0.0
 40
0.0591
 50
270.0
 51
357.0000000193783762
  0
ARC
  5
8992
  8
0
 10
4153.6711498814538572
 20
158.2281555017690948
 30
0.0
 40
0.0917233330794826
 50
10.6396455398868106
 51
43.0069937505736277
  0
ARC
  5
8993
  8
0
 10
4151.1831481848375915
 20
157.8522958689626137
 30
0.0
 40
0.2323
 50
90.0
 51
178.0575529301339941
  0
LINE
  5
8994
  8
0
 10
4151.8325711683755799
 20
158.2814458689624928
 30
0.0
 11
4151.3423069542013764
 21
158.2814458687801107
 31
0.0
  0
ARC
  5
8995
  8
0
 10
4151.3423069540276629
 20
158.7451749119967985
 30
0.0
 40
0.4637290432167212
 50
253.6210182845071017
 51
270.0000000213130988
  0
ARC
  5
8996
  8
0
 10
4152.4241767212970444
 20
158.1734458689624887
 30
0.0
 40
0.0099999999999967
 50
216.0450400046850064
 51
270.0
  0
LINE
  5
8997
  8
0
 10
4152.4241767212970444
 20
158.1634458689626115
 30
0.0
 11
4153.3541399260775506
 21
158.1634458689626967
 31
0.0
  0
ARC
  5
8998
  8
0
 10
4152.5091767212979903
 20
158.1434458689626013
 30
0.0
 40
0.0199999999999996
 50
359.9999999999984084
 51
90.0
  0
LINE
  5
8999
  8
0
 10
4152.5291767212966079
 20
158.1434458689626013
 30
0.0
 11
4152.5291767212966079
 21
158.0845958689625093
 31
0.0
  0
ARC
  5
899A
  8
0
 10
4152.6204040435231946
 20
158.1436551068711935
 30
0.0
 40
0.0198035187759791
 50
359.3946190937003848
 51
87.9433581309806129
  0
LINE
  5
899B
  8
0
 10
4152.6402064568974311
 20
158.1434458689626013
 30
0.0
 11
4152.6402064568974311
 21
158.0845958689625093
 31
0.0
  0
ARC
  5
899C
  8
0
 10
4152.7779267212981722
 20
158.1434458689626013
 30
0.0
 40
0.0199999999999983
 50
359.9999999999943157
 51
90.0
  0
LINE
  5
899D
  8
0
 10
4152.7979267212967898
 20
158.1434458689626013
 30
0.0
 11
4152.7979267212967898
 21
158.0845958689625093
 31
0.0
  0
ARC
  5
899E
  8
0
 10
4152.9914943055728145
 20
158.1451606385058142
 30
0.0
 40
0.0183629097917779
 50
95.2719689680668722
 51
185.3582147181583082
  0
LINE
  5
899F
  8
0
 10
4152.9732116355980907
 20
158.1434458689626013
 30
0.0
 11
4152.9732116355980907
 21
158.0845958689625093
 31
0.0
  0
ARC
  5
89A0
  8
0
 10
4153.3367510408361341
 20
158.1451276086901885
 30
0.0
 40
0.0184674990501042
 50
5.2248691358323116
 51
82.7110104019663765
  0
LINE
  5
89A1
  8
0
 10
4153.3551418067972918
 20
158.1468093484178041
 30
0.0
 11
4153.3551418067972918
 21
158.0845958689625093
 31
0.0
  0
LINE
  5
89A2
  8
0
 10
4150.5267895064980621
 20
171.7657606550625076
 30
0.0
 11
4165.8015233646983688
 21
171.7657606550625076
 31
0.0
  0
LINE
  5
89A3
  8
0
 10
4150.3410895063971111
 20
170.7309243881624923
 30
0.0
 11
4165.9872233647965913
 21
170.7309243881624923
 31
0.0
  0
LINE
  5
89A4
  8
0
 10
4150.2905895063968273
 20
170.781424388169313
 30
0.0
 11
4150.2905895064968718
 21
171.5295606550940875
 31
0.0
  0
ARC
  5
89A5
  8
0
 10
4150.3410895063971111
 20
170.7814243881624918
 30
0.0
 40
0.0505
 50
179.9999999923454936
 51
270.0
  0
ARC
  5
89A6
  8
0
 10
4150.5267895064980621
 20
171.5295606550625109
 30
0.0
 40
0.2362
 50
90.0
 51
179.9999999923421967
  0
LINE
  5
89A7
  8
0
 10
4150.5844745391386823
 20
170.7214458689626042
 30
0.0
 11
4165.7438383320559296
 21
170.7214458689626042
 31
0.0
  0
ARC
  5
89A8
  8
0
 10
4150.6061701394137344
 20
170.841741560440795
 30
0.0
 40
0.1204041454642617
 50
272.4320487382834131
 51
292.9848965080065
  0
LINE
  5
89A9
  8
0
 10
4150.4645476000050621
 20
170.5972590718436948
 30
0.0
 11
4150.8788840420456836
 21
158.7289741142957098
 31
0.0
  0
ARC
  5
89AA
  8
0
 10
4151.3423205814005996
 20
158.7451532545433963
 30
0.0
 40
0.4637188702086358
 50
181.9994541709370992
 51
217.7630926097664883
  0
ARC
  5
89AB
  8
0
 10
4150.5844745391386823
 20
170.601445868962486
 30
0.0
 40
0.12
 50
90.0
 51
181.9994541709355076
  0
LINE
  5
89AC
  8
0
 10
4157.2279430740272801
 20
171.8730286994563983
 30
0.0
 11
4159.1003683227672809
 21
171.8730286994563983
 31
0.0
  0
LINE
  5
89AD
  8
0
 10
4157.3955289301220546
 20
171.88091783586259
 30
0.0
 11
4158.9327839410725574
 21
171.88091783586259
 31
0.0
  0
LINE
  5
89AE
  8
0
 10
4157.5509003883389596
 20
171.8956821215350033
 30
0.0
 11
4158.7774124828556523
 21
171.8956821215350033
 31
0.0
  0
LINE
  5
89AF
  8
0
 10
4157.2153375379966747
 20
171.7657608664626139
 30
0.0
 11
4157.2170080798414347
 21
171.861466145417694
 31
0.0
  0
ARC
  5
89B0
  8
0
 10
4157.4661795087349674
 20
168.5962337921205858
 30
0.0
 40
3.2854437708582722
 50
91.2321903233376332
 51
94.1581892452275753
  0
ARC
  5
89B1
  8
0
 10
4157.2288062826437454
 20
171.8612602070236051
 30
0.0
 40
0.0118
 50
94.1581892452275468
 51
179.0000000087927106
  0
LINE
  5
89B2
  8
0
 10
4157.5390740699976959
 20
171.88091783586259
 30
0.0
 11
4157.53910083764913
 21
171.8839850949873096
 31
0.0
  0
ARC
  5
89B3
  8
0
 10
4157.5509003883389596
 20
171.8838821215350094
 30
0.0
 40
0.0118
 50
90.0
 51
179.4999983809435946
  0
LINE
  5
89B4
  8
0
 10
4165.1451646863561109
 20
158.0845958689625093
 30
0.0
 11
4158.1641564355977607
 21
158.0845958689625093
 31
0.0
  0
ARC
  5
89B5
  8
0
 10
4150.6591462609567316
 20
157.3610012304492045
 30
0.0
 40
14.7266471823622407
 50
0.2018148302102965
 51
1.9424470698659599
  0
ARC
  5
89B6
  8
0
 10
4158.0744338436079488
 20
157.3871204526014083
 30
0.0
 40
7.3113135993617409
 50
355.7832766839786132
 51
0.2018148302102965
  0
ARC
  5
89B7
  8
0
 10
4161.1539831140780734
 20
157.1600687745134053
 30
0.0
 40
4.2234055415039489
 50
342.5799165855434012
 51
355.7832766839786132
  0
ARC
  5
89B8
  8
0
 10
4162.0998150509358311
 20
156.8632988786008013
 30
0.0
 40
3.2321081976659261
 50
325.5926376529429263
 51
342.5799165855434012
  0
ARC
  5
89B9
  8
0
 10
4161.4329821415067272
 20
157.3200147707487986
 30
0.0
 40
4.0403504480091623
 50
309.0283625579356794
 51
325.5926376529429263
  0
ARC
  5
89BA
  8
0
 10
4063.6028454982620133
 20
278.0079680457719178
 30
0.0
 40
159.3990248159053067
 50
308.6255134406720799
 51
309.0283625579356794
  0
ARC
  5
89BB
  8
0
 10
4165.1287884536259298
 20
150.9447019029219916
 30
0.0
 40
3.243499438560312
 50
128.6255134406721083
 51
140.4004723290885011
  0
ARC
  5
89BC
  8
0
 10
4163.8856027044703296
 20
151.9731373346795067
 30
0.0
 40
1.6300589394416689
 50
140.4004723290885011
 51
150.1234693687216861
  0
ARC
  5
89BD
  8
0
 10
4163.6346325876102128
 20
152.1173147910758132
 30
0.0
 40
1.3406230424111201
 50
150.1234693687216861
 51
184.2948429036543985
  0
ARC
  5
89BE
  8
0
 10
4198.5402857581975695
 20
156.8629726944915888
 30
0.0
 40
36.5650639587269026
 50
187.6159548010822959
 51
190.3091291723497989
  0
ARC
  5
89BF
  8
0
 10
3937.2649267332831187
 20
112.5792153670994935
 30
0.0
 40
228.4396378637974863
 50
9.110250711928586
 51
9.5093318358593297
  0
ARC
  5
89C0
  8
0
 10
4003.9197126144408685
 20
124.1114138594948031
 30
0.0
 40
160.8018790575320054
 50
6.3243254550527688
 51
8.8134555301906659
  0
LINE
  5
89C1
  8
0
 10
4163.5822879252527855
 20
143.2191702309937966
 30
0.0
 11
4163.7872836472615745
 21
143.242108063576012
 31
0.0
  0
ARC
  5
89C2
  8
0
 10
4163.7905671187972985
 20
143.2127636337625063
 30
0.0
 40
0.0295275590999991
 50
13.3387276161013197
 51
96.3845085225295293
  0
ARC
  5
89C3
  8
0
 10
4161.6548962189999656
 20
142.7063879641478934
 30
0.0
 40
2.224409449092744
 50
359.4302893880716283
 51
13.3387276161013197
  0
ARC
  5
89C4
  8
0
 10
4163.8496696063839408
 20
142.6845638976938062
 30
0.0
 40
0.0295275589115048
 50
276.3845081802314212
 51
359.4302893880716283
  0
LINE
  5
89C5
  8
0
 10
4163.8529530777241234
 20
142.6552194680481023
 30
0.0
 11
4163.6513862213314496
 21
142.6326653068643964
 31
0.0
  0
LINE
  5
89C6
  8
0
 10
4163.8192981174897795
 20
143.2195758625113911
 30
0.0
 11
4163.8791957056173487
 21
142.6842703003887038
 31
0.0
  0
LINE
  5
89C7
  8
0
 10
4165.3019962253911217
 20
158.3002651602625122
 30
0.0
 11
4158.1641564355977607
 21
158.3002651602625122
 31
0.0
  0
LINE
  5
89C8
  8
0
 10
4165.3617199637201338
 20
158.3660162540695069
 30
0.0
 11
4165.2462750998620322
 21
159.5648836472857965
 31
0.0
  0
ARC
  5
89C9
  8
0
 10
4165.3019962253911217
 20
158.3602651602625997
 30
0.0
 40
0.06
 50
270.0
 51
5.5003344817187303
  0
ARC
  5
89CA
  8
0
 10
4157.1785167707530491
 20
44.4895980278098975
 30
0.0
 40
115.6323149392166982
 50
87.3860449462767406
 51
89.5116099091193291
  0
ARC
  5
89CB
  8
0
 10
4158.1057961411997894
 20
85.6608942721941702
 30
0.0
 40
74.4676452365129364
 50
84.9191728438122766
 51
86.6540470629832527
  0
ARC
  5
89CC
  8
0
 10
4163.9637859513013609
 20
150.9359723194901051
 30
0.0
 40
8.9304236716912673
 50
83.2621283322371966
 51
85.2665709344018552
  0
ARC
  5
89CD
  8
0
 10
4164.9802058456052691
 20
159.5392625243756868
 30
0.0
 40
0.2673
 50
5.5003344817195403
 51
83.2621283322371966
  0
ARC
  5
89CE
  8
0
 10
4163.993342971056336
 20
-456.7067567236035188
 30
0.0
 40
616.390687233942117
 50
90.1991217220087975
 51
90.5418523866962346
  0
ARC
  5
89CF
  8
0
 10
4159.9982001435801067
 20
294.3228098311536201
 30
0.0
 40
134.6553517092557115
 50
270.7884695576137233
 51
271.6139365447745035
  0
ARC
  5
89D0
  8
0
 10
4163.0203963405219838
 20
190.9263934322594025
 30
0.0
 40
31.2150236289686802
 50
271.4141219056045884
 51
273.3436692030156223
  0
ARC
  5
89D1
  8
0
 10
4164.7683392906428708
 20
161.0916011803008985
 30
0.0
 40
1.329080786958897
 50
273.1343496126013974
 51
279.9987860580253027
  0
ARC
  5
89D2
  8
0
 10
4164.8494829999935973
 20
159.161863417119207
 30
0.0
 40
0.6570741265556622
 50
77.1499752353024348
 51
82.8887481548316742
  0
ARC
  5
89D3
  8
0
 10
4164.9730468127527274
 20
159.7064858658845878
 30
0.0
 40
0.098613052353735
 50
66.1764694713187254
 51
76.7695777995337352
  0
ARC
  5
89D4
  8
0
 10
4165.0087187634253496
 20
159.7872751282314141
 30
0.0
 40
0.0102988803580822
 50
34.9359590149378505
 51
66.1764694713187254
  0
ARC
  5
89D5
  8
0
 10
4165.014487651111267
 20
159.7918904962311899
 30
0.0
 40
0.0029656573113484
 50
306.7642528599382103
 51
25.6209023058774186
  0
ARC
  5
89D6
  8
0
 10
4164.9903823196891608
 20
159.829719289548791
 30
0.0
 40
0.0478142444072256
 50
280.5100444720034147
 51
302.7700384508423213
  0
LINE
  5
89D7
  8
0
 10
4165.013437698996313
 20
158.2907188523624882
 30
0.0
 11
4158.1641564355977607
 21
158.2907188523624882
 31
0.0
  0
ARC
  5
89D8
  8
0
 10
4165.011517953998009
 20
158.3697822842185872
 30
0.0
 40
0.0790867351564799
 50
271.3909297243941978
 51
298.478208305523026
  0
ARC
  5
89D9
  8
0
 10
4165.0021420095581561
 20
155.2264683150928875
 30
0.0
 40
3.5691029234617151
 50
120.8459222290925936
 51
126.793705056389598
  0
LINE
  5
89DA
  8
0
 10
4163.159695241942245
 20
158.1675692460624987
 30
0.0
 11
4164.3890773895627717
 21
158.1675692460624987
 31
0.0
  0
LINE
  5
89DB
  8
0
 10
4163.100676236434083
 20
158.22357619110781
 30
0.0
 11
4163.0994936495526417
 21
158.2461412934852945
 31
0.0
  0
ARC
  5
89DC
  8
0
 10
4163.159695241942245
 20
158.2266692460624995
 30
0.0
 40
0.0591
 50
182.9999999425189969
 51
270.0
  0
ARC
  5
89DD
  8
0
 10
4164.559913349823546
 20
158.1834827342682104
 30
0.0
 40
0.1171101022055279
 50
113.6966181702103995
 51
165.8131232292390109
  0
ARC
  5
89DE
  8
0
 10
4164.3890773895627717
 20
158.2266692460624995
 30
0.0
 40
0.0591
 50
270.0
 51
345.8131232292374762
  0
LINE
  5
89DF
  8
0
 10
4162.5621751248572764
 20
158.152710049337486
 30
0.0
 11
4162.5670165798337621
 21
158.2450905131969989
 31
0.0
  0
LINE
  5
89E0
  8
0
 10
4161.4393096631420121
 20
158.09670310436249
 30
0.0
 11
4162.5031561193527523
 21
158.09670310436249
 31
0.0
  0
LINE
  5
89E1
  8
0
 10
4161.3802906576365785
 20
158.1527100493684941
 30
0.0
 11
4161.373057922796761
 21
158.2907188523624882
 31
0.0
  0
ARC
  5
89E2
  8
0
 10
4162.5031561193527523
 20
158.1558031043624908
 30
0.0
 40
0.0591
 50
270.0
 51
356.9999999892796723
  0
ARC
  5
89E3
  8
0
 10
4161.4393096631420121
 20
158.1558031043624908
 30
0.0
 40
0.0591
 50
182.9999999806215953
 51
270.0
  0
ARC
  5
89E4
  8
0
 10
4162.6571629897407547
 20
158.2281555017690948
 30
0.0
 40
0.0917233330794826
 50
136.9930062494264007
 51
169.3603544601132
  0
ARC
  5
89E5
  8
0
 10
4165.1451646863561109
 20
157.8522958689626137
 30
0.0
 40
0.2323
 50
1.9424470698659599
 51
90.0
  0
LINE
  5
89E6
  8
0
 10
4164.4957417028181226
 20
158.2814458689624928
 30
0.0
 11
4164.9860059169941451
 21
158.2814458687801107
 31
0.0
  0
ARC
  5
89E7
  8
0
 10
4164.9860059171669491
 20
158.7451749119967985
 30
0.0
 40
0.4637290432167212
 50
269.9999999786869012
 51
286.3789817154927846
  0
ARC
  5
89E8
  8
0
 10
4163.9041361498975675
 20
158.1734458689624887
 30
0.0
 40
0.0099999999999967
 50
270.0
 51
323.9549599953149936
  0
LINE
  5
89E9
  8
0
 10
4163.9041361498975675
 20
158.1634458689626115
 30
0.0
 11
4162.9741729451179708
 21
158.1634458689626967
 31
0.0
  0
ARC
  5
89EA
  8
0
 10
4163.8191361498966216
 20
158.1434458689626013
 30
0.0
 40
0.0199999999999996
 50
90.0
 51
180.0000000000007958
  0
LINE
  5
89EB
  8
0
 10
4163.7991361498980041
 20
158.1434458689626013
 30
0.0
 11
4163.7991361498980041
 21
158.0845958689625093
 31
0.0
  0
ARC
  5
89EC
  8
0
 10
4163.7079088276714174
 20
158.1436551068711935
 30
0.0
 40
0.0198035187759791
 50
92.0566418690193871
 51
180.6053809062995867
  0
LINE
  5
89ED
  8
0
 10
4163.6881064142980904
 20
158.1434458689626013
 30
0.0
 11
4163.6881064142980904
 21
158.0845958689625093
 31
0.0
  0
ARC
  5
89EE
  8
0
 10
4163.5503861498973492
 20
158.1434458689626013
 30
0.0
 40
0.0199999999999983
 50
90.0
 51
180.0000000000048885
  0
LINE
  5
89EF
  8
0
 10
4163.5303861498969127
 20
158.1434458689626013
 30
0.0
 11
4163.5303861498969127
 21
158.0845958689625093
 31
0.0
  0
ARC
  5
89F0
  8
0
 10
4163.336818565620888
 20
158.1451606385058142
 30
0.0
 40
0.0183629097917779
 50
354.6417852818415781
 51
84.7280310319331136
  0
LINE
  5
89F1
  8
0
 10
4163.3551012355974308
 20
158.1434458689626013
 30
0.0
 11
4163.3551012355974308
 21
158.0845958689625093
 31
0.0
  0
ARC
  5
89F2
  8
0
 10
4162.9915618303593874
 20
158.1451276086901885
 30
0.0
 40
0.0184674990501042
 50
97.2889895980336377
 51
174.7751308641676928
  0
LINE
  5
89F3
  8
0
 10
4162.9731710643973202
 20
158.1468093484178041
 30
0.0
 11
4162.9731710643973202
 21
158.0845958689625093
 31
0.0
  0
LINE
  5
89F4
  8
0
 10
4166.0377233647968751
 20
170.781424388169313
 30
0.0
 11
4166.0377233646977402
 21
171.5295606550940875
 31
0.0
  0
ARC
  5
89F5
  8
0
 10
4165.9872233647965913
 20
170.7814243881624918
 30
0.0
 40
0.0505
 50
270.0
 51
0.000000007654501
  0
ARC
  5
89F6
  8
0
 10
4165.8015233646983688
 20
171.5295606550625109
 30
0.0
 40
0.2362
 50
0.0000000076577579
 51
90.0
  0
ARC
  5
89F7
  8
0
 10
4165.722142731781787
 20
170.841741560440795
 30
0.0
 40
0.1204041454642617
 50
247.0151034919936137
 51
267.5679512617167006
  0
LINE
  5
89F8
  8
0
 10
4165.8637652711886403
 20
170.5972590718436948
 30
0.0
 11
4165.4494288291480188
 21
158.7289741142957098
 31
0.0
  0
ARC
  5
89F9
  8
0
 10
4164.9859922897949218
 20
158.7451532545433963
 30
0.0
 40
0.4637188702086358
 50
322.236907390233398
 51
358.0005458290619913
  0
ARC
  5
89FA
  8
0
 10
4165.7438383320559296
 20
170.601445868962486
 30
0.0
 40
0.12
 50
358.0005458290644924
 51
90.0
  0
LINE
  5
89FB
  8
0
 10
4159.1129753331970278
 20
171.7657608664626139
 30
0.0
 11
4159.1113047913549963
 21
171.861466145417694
 31
0.0
  0
ARC
  5
89FC
  8
0
 10
4158.8621333624596446
 20
168.5962337921205858
 30
0.0
 40
3.2854437708582722
 50
85.8418107547724105
 51
88.7678096766623668
  0
ARC
  5
89FD
  8
0
 10
4159.0995065885508666
 20
171.8612602070236051
 30
0.0
 40
0.0118
 50
0.9999999912072297
 51
85.8418107547724532
  0
LINE
  5
89FE
  8
0
 10
4158.789238801196916
 20
171.88091783586259
 30
0.0
 11
4158.7892120335463915
 21
171.8839850949873096
 31
0.0
  0
ARC
  5
89FF
  8
0
 10
4158.7774124828556523
 20
171.8838821215350094
 30
0.0
 40
0.0118
 50
0.50000161905637
 51
90.0
  0
LINE
  5
8A00
  8
0
 10
4158.3280946672975915
 20
171.88091783586259
 30
0.0
 11
4158.3280511647317326
 21
171.884035880651993
 31
0.0
  0
ARC
  5
8A01
  8
0
 10
4158.3161956718968213
 20
171.883870474317888
 30
0.0
 40
0.0118566466425104
 50
0.7993315951394369
 51
85.0068478596000574
  0
LINE
  5
8A02
  8
0
 10
4158.3489499065890413
 20
171.88091783586259
 30
0.0
 11
4158.3489499065890413
 21
171.8839741719625067
 31
0.0
  0
ARC
  5
8A03
  8
0
 10
4158.3613081255271027
 20
171.8839741719625067
 30
0.0
 40
0.0123582189371783
 50
108.6692858771373977
 51
180.0
  0
ENDSEC
  0
EOF
