  0
SECTION
  2
HEADER
  9
$ACADVER
  1
AC1009
  9
$INSBASE
 10
4790.8628989407134213
 20
493.1046308283986832
 30
0.0
  9
$EXTMIN
 10
4762.8090725460251633
 20
493.0878827617934235
 30
-0.0015258207003583
  9
$EXTMAX
 10
4791.2017010275831126
 20
519.6766165996128848
 30
0.0000000349246037
  9
$LIMMIN
 10
0.0
 20
0.0
  9
$LIMMAX
 10
11.6929133858000007
 20
8.2677165353999982
  9
$ORTHOMODE
 70
     0
  9
$REGENMODE
 70
     1
  9
$FILLMODE
 70
     1
  9
$QTEXTMODE
 70
     0
  9
$MIRRTEXT
 70
     0
  9
$DRAGMODE
 70
     2
  9
$LTSCALE
 40
0.6431102362
  9
$OSMODE
 70
     7
  9
$ATTMODE
 70
     1
  9
$TEXTSIZE
 40
0.2
  9
$TRACEWID
 40
0.05
  9
$TEXTSTYLE
  7
STANDARD
  9
$CLAYER
  8
0
  9
$CELTYPE
  6
BYLAYER
  9
$CECOLOR
 62
   256
  9
$DIMSCALE
 40
1.0
  9
$DIMASZ
 40
0.1875
  9
$DIMEXO
 40
0.0625
  9
$DIMDLI
 40
0.4443307087
  9
$DIMRND
 40
0.0
  9
$DIMDLE
 40
0.0
  9
$DIMEXE
 40
0.125
  9
$DIMTP
 40
0.01
  9
$DIMTM
 40
0.01
  9
$DIMTXT
 40
2.0
  9
$DIMCEN
 40
0.1052362205
  9
$DIMTSZ
 40
0.0
  9
$DIMTOL
 70
     1
  9
$DIMLIM
 70
     0
  9
$DIMTIH
 70
     1
  9
$DIMTOH
 70
     1
  9
$DIMSE1
 70
     0
  9
$DIMSE2
 70
     0
  9
$DIMTAD
 70
     0
  9
$DIMZIN
 70
     0
  9
$DIMBLK
  1

  9
$DIMASO
 70
     1
  9
$DIMSHO
 70
     1
  9
$DIMPOST
  1
\X
  9
$DIMAPOST
  1

  9
$DIMALT
 70
     1
  9
$DIMALTD
 70
     2
  9
$DIMALTF
 40
25.3999999999999986
  9
$DIMLFAC
 40
1.0
  9
$DIMTOFL
 70
     0
  9
$DIMTVP
 40
0.0
  9
$DIMTIX
 70
     0
  9
$DIMSOXD
 70
     0
  9
$DIMSAH
 70
     0
  9
$DIMBLK1
  1

  9
$DIMBLK2
  1

  9
$DIMSTYLE
  2
STANDARD
  9
$DIMCLRD
 70
     0
  9
$DIMCLRE
 70
     0
  9
$DIMCLRT
 70
     0
  9
$DIMTFAC
 40
1.0
  9
$DIMGAP
 40
0.09
  9
$LUNITS
 70
     2
  9
$LUPREC
 70
     4
  9
$SKETCHINC
 40
0.1
  9
$FILLETRAD
 40
0.0
  9
$AUNITS
 70
     0
  9
$AUPREC
 70
     0
  9
$MENU
  1
.
  9
$ELEVATION
 40
0.0
  9
$PELEVATION
 40
0.0
  9
$THICKNESS
 40
0.0
  9
$LIMCHECK
 70
     0
  9
$BLIPMODE
 70
     0
  9
$CHAMFERA
 40
0.0
  9
$CHAMFERB
 40
0.0
  9
$SKPOLY
 70
     0
  9
$TDCREATE
 40
2458060.468368056230247
  9
$TDUPDATE
 40
2459331.9485300919041038
  9
$TDINDWG
 40
1.5039668287000001
  9
$TDUSRTIMER
 40
1.5039668287000001
  9
$USRTIMER
 70
     1
  9
$ANGBASE
 50
0.0
  9
$ANGDIR
 70
     0
  9
$PDMODE
 70
     0
  9
$PDSIZE
 40
0.3125
  9
$PLINEWID
 40
0.0
  9
$COORDS
 70
     1
  9
$SPLFRAME
 70
     0
  9
$SPLINETYPE
 70
     6
  9
$SPLINESEGS
 70
     8
  9
$ATTDIA
 70
     1
  9
$ATTREQ
 70
     1
  9
$HANDLING
 70
     1
  9
$HANDSEED
  5
1D02B
  9
$SURFTAB1
 70
     6
  9
$SURFTAB2
 70
     6
  9
$SURFTYPE
 70
     6
  9
$SURFU
 70
     6
  9
$SURFV
 70
     6
  9
$UCSNAME
  2

  9
$UCSORG
 10
0.0
 20
0.0
 30
0.0
  9
$UCSXDIR
 10
1.0
 20
0.0
 30
0.0
  9
$UCSYDIR
 10
0.0
 20
1.0
 30
0.0
  9
$PUCSNAME
  2

  9
$PUCSORG
 10
0.0
 20
0.0
 30
0.0
  9
$PUCSXDIR
 10
1.0
 20
0.0
 30
0.0
  9
$PUCSYDIR
 10
0.0
 20
1.0
 30
0.0
  9
$USERI1
 70
     0
  9
$USERI2
 70
     0
  9
$USERI3
 70
     0
  9
$USERI4
 70
     0
  9
$USERI5
 70
     0
  9
$USERR1
 40
0.0
  9
$USERR2
 40
0.0
  9
$USERR3
 40
0.0
  9
$USERR4
 40
0.0
  9
$USERR5
 40
0.0
  9
$WORLDVIEW
 70
     1
  9
$SHADEDGE
 70
     3
  9
$SHADEDIF
 70
    70
  9
$TILEMODE
 70
     1
  9
$MAXACTVP
 70
    64
  9
$PLIMCHECK
 70
     0
  9
$PEXTMIN
 10
1.0000000000000000E+20
 20
1.0000000000000000E+20
 30
1.0000000000000000E+20
  9
$PEXTMAX
 10
-1.0000000000000000E+20
 20
-1.0000000000000000E+20
 30
-1.0000000000000000E+20
  9
$PLIMMIN
 10
0.0
 20
0.0
  9
$PLIMMAX
 10
12.0
 20
9.0
  9
$UNITMODE
 70
     0
  9
$VISRETAIN
 70
     1
  9
$PLINEGEN
 70
     0
  9
$PSLTSCALE
 70
     1
  0
ENDSEC
  0
SECTION
  2
TABLES
  0
TABLE
  2
VPORT
 70
     1
  0
VPORT
  2
*ACTIVE
 70
     0
 10
0.0
 20
0.0
 11
1.0
 21
1.0
 12
865.6400303414920927
 22
373.8026445781641769
 13
0.0
 23
0.0
 14
1.0
 24
1.0
 15
0.0
 25
0.0
 16
0.0
 26
0.0
 36
60.4960186965801583
 17
3911.3653564453120453
 27
132.5796051025390057
 37
0.0
 40
26.8070541578372286
 41
2.3461538461538458
 42
50.0
 43
0.0
 44
0.0
 50
0.0
 51
0.0
 71
     0
 72
   100
 73
     1
 74
     1
 75
     0
 76
     0
 77
     0
 78
     0
  0
ENDTAB
  0
TABLE
  2
LTYPE
 70
     2
  0
LTYPE
  2
CONTINUOUS
 70
     0
  3
Solid line
 72
    65
 73
     0
 40
0.0
  0
LTYPE
  2
PHANTOM2
 70
     0
  3
___ _ _ ___ _ _ ___ _ _ ___ _ _
 72
    65
 73
     6
 40
1.25
 49
0.625
 49
-0.125
 49
0.125
 49
-0.125
 49
0.125
 49
-0.125
  0
ENDTAB
  0
TABLE
  2
LAYER
 70
     2
  0
LAYER
  2
0
 70
     0
 62
   255
  6
CONTINUOUS
  0
LAYER
  2
DEFPOINTS
 70
     0
 62
     7
  6
CONTINUOUS
  0
ENDTAB
  0
TABLE
  2
STYLE
 70
     1
  0
STYLE
  2
STANDARD
 70
     0
 40
0.0
 41
0.8
 50
0.0
 71
     0
 42
0.2
  3
txt
  4

  0
ENDTAB
  0
TABLE
  2
VIEW
 70
     0
  0
ENDTAB
  0
TABLE
  2
UCS
 70
     0
  0
ENDTAB
  0
TABLE
  2
APPID
 70
    11
  0
APPID
  2
ACAD
 70
     0
  0
APPID
  2
ACAD_MLEADERVER
 70
     0
  0
APPID
  2
ACAD_EXEMPT_FROM_CAD_STANDARDS
 70
     0
  0
APPID
  2
ACAD_NAV_VCDISPLAY
 70
     0
  0
APPID
  2
ACAECLAYERSTANDARD
 70
     0
  0
APPID
  2
ACCMTRANSPARENCY
 70
     0
  0
APPID
  2
ACAD_DSTYLE_DIMJAG
 70
     0
  0
APPID
  2
ACAD_DSTYLE_DIMTALN
 70
     0
  0
APPID
  2
ACDBATTR
 70
     0
  0
APPID
  2
ACADANNOTATIVE
 70
     0
  0
APPID
  2
DCO15
 70
     0
  0
ENDTAB
  0
TABLE
  2
DIMSTYLE
 70
     1
  0
DIMSTYLE
  2
STANDARD
 70
     0
  3

  4

  5

  6

  7

 40
1.0
 41
0.1875
 42
0.0625
 43
0.38
 44
0.125
 45
0.0
 46
0.0
 47
0.01
 48
0.01
140
0.15625
141
0.09
142
0.0
143
25.3999999999999986
144
1.0
145
0.0
146
1.0
147
0.09
 71
     1
 72
     0
 73
     1
 74
     1
 75
     0
 76
     0
 77
     0
 78
     4
170
     0
171
     2
172
     0
173
     0
174
     0
175
     0
176
     0
177
     0
178
     0
  0
ENDTAB
  0
ENDSEC
  0
SECTION
  2
BLOCKS
  0
BLOCK
  8
0
  2
$MODEL_SPACE
 70
     0
 10
0.0
 20
0.0
 30
0.0
  3
$MODEL_SPACE
  1

  0
ENDBLK
  5
21
  8
0
  0
BLOCK
 67
     1
  8
0
  2
$PAPER_SPACE
 70
     0
 10
0.0
 20
0.0
 30
0.0
  3
$PAPER_SPACE
  1

  0
ENDBLK
  5
1D
 67
     1
  8
0
  0
ENDSEC
  0
SECTION
  2
ENTITIES
  0
ATTDEF
  5
159BF
  8
DEFPOINTS
 10
4790.8628982744976383
 20
493.1079632730608751
 30
0.0
 40
0.001
  1
K-3323X-C
  3

  2
MODELNUMBER
 70
     0
1001
ACDBATTR
1070
     0
1070
     1
  0
ATTDEF
  5
159C0
  8
DEFPOINTS
 10
4790.8628982744976383
 20
493.1062964326818019
 30
0.0
 40
0.001
  1
SANTA ROSA
  3

  2
TRADENAME
 70
     0
1001
ACDBATTR
1070
     0
1070
     1
  0
ATTDEF
  5
159C1
  8
DEFPOINTS
 10
4790.8628982744976383
 20
493.1046299397276016
 30
0.0
 40
0.001
  1
TOILET
  3

  2
PRODUCT
 70
     0
1001
ACDBATTR
1070
     0
1070
     1
  0
LINE
  5
1CEE1
  8
0
 10
4786.5528990004613661
 20
493.1046308283986832
 30
0.0
 11
4765.0431596685439217
 21
493.1046308283986832
 31
0.0
  0
LINE
  5
1CEE2
  8
0
 10
4782.6196899084961842
 20
508.0770734663237818
 30
0.0
 11
4763.3840049695372727
 21
508.0770734663237818
 31
0.0
  0
LINE
  5
1CEE3
  8
0
 10
4780.0741155744690332
 20
508.4169473414236791
 30
0.0
 11
4763.2643282213020939
 21
508.4169473414236791
 31
0.0
  0
LINE
  5
1CEE4
  8
0
 10
4766.4356846998098263
 20
509.3596134455236779
 30
0.0
 11
4775.9550801847071853
 21
509.3596134455236779
 31
0.0
  0
LINE
  5
1CEE5
  8
0
 10
4780.3857400395572768
 20
509.3596134455236779
 30
0.0
 11
4780.977420663562043
 21
509.3596134455236779
 31
0.0
  0
LINE
  5
1CEE6
  8
0
 10
4783.5398170543867309
 20
518.0819553561237854
 30
0.0
 11
4789.8523400755066177
 21
518.0819553561237854
 31
0.0
  0
LINE
  5
1CEE7
  8
0
 10
4783.5656897320923235
 20
518.0219553561236125
 30
0.0
 11
4789.7349749483337291
 21
518.0219553561236125
 31
0.0
  0
LINE
  5
1CEE8
  8
0
 10
4775.1008198196477679
 20
494.2566848209236809
 30
0.0
 11
4786.1143136766377211
 21
494.2566848209236809
 31
0.0
  0
LINE
  5
1CEE9
  8
0
 10
4762.8263185139621783
 20
506.0140813404236724
 30
0.0
 11
4790.1058622197861041
 21
506.0140813404236724
 31
0.0
  0
LINE
  5
1CEEA
  8
0
 10
4774.7084094254623778
 20
494.617471164223673
 30
0.0
 11
4774.4406531592621832
 21
497.7967548454237203
 31
0.0
  0
ARC
  5
1CEEB
  8
0
 10
4774.5324781261406315
 20
497.7869938354400006
 30
0.0
 40
0.0923423080617082
 50
114.7020368924532931
 51
173.9322348855297093
  0
ARC
  5
1CEEC
  8
0
 10
4774.559393242940132
 20
497.7909215404544057
 30
0.0
 40
0.1033694384998519
 50
77.466071055261537
 51
129.3234147128887912
  0
ARC
  5
1CEED
  8
0
 10
4778.4707350124135701
 20
505.5392398790335164
 30
0.0
 40
8.5794247112971078
 50
243.0454757795299088
 51
261.3442097553473786
  0
ARC
  5
1CEEE
  8
0
 10
4778.1568037586748687
 20
502.351603242666215
 30
0.0
 40
5.3835133957912369
 50
259.5412583686737094
 51
315.8264941638446999
  0
ARC
  5
1CEEF
  8
0
 10
4834.8906872407142146
 20
457.1080213824067755
 30
0.0
 40
67.2095029209047397
 50
139.6931590957671858
 51
141.8767107275076
  0
ARC
  5
1CEF0
  8
0
 10
4787.8770760165762113
 20
496.6014235360344742
 30
0.0
 40
5.8172954083216553
 50
128.2713094653356904
 51
136.7875082188245983
  0
ARC
  5
1CEF1
  8
0
 10
4784.8782060753637779
 20
500.5915939130496213
 30
0.0
 40
0.8354528817116751
 50
86.4397277799434676
 51
136.3274339537400124
  0
ARC
  5
1CEF2
  8
0
 10
4784.8043101037028464
 20
500.2384066290650821
 30
0.0
 40
1.1936727349301699
 50
39.6571621767783569
 51
83.9515620922478263
  0
ARC
  5
1CEF3
  8
0
 10
4785.3611476970399963
 20
500.6999992601647023
 30
0.0
 40
0.4703914186790287
 50
305.0312724265000952
 51
39.6571621767783569
  0
ARC
  5
1CEF4
  8
0
 10
4797.0237431119448956
 20
484.0634204859337046
 30
0.0
 40
19.8468890372035887
 50
125.0312724264999957
 51
129.2549348808892091
  0
ARC
  5
1CEF5
  8
0
 10
4786.0145034958868564
 20
497.5356883260366203
 30
0.0
 40
2.4484592896870661
 50
129.2549348808892091
 51
169.9730439201377976
  0
ARC
  5
1CEF6
  8
0
 10
4613.3049835100810014
 20
528.0728248524224
 30
0.0
 40
172.9399525309314924
 50
349.4140366856295259
 51
349.9730439201379113
  0
LINE
  5
1CEF7
  8
0
 10
4783.3015646701769583
 20
496.3019329027237063
 30
0.0
 11
4777.5182861832608978
 21
496.3019329027237063
 31
0.0
  0
ARC
  5
1CEF8
  8
0
 10
4777.5184226450037386
 20
494.9366485657466228
 30
0.0
 40
1.365284343796884
 50
90.0057267791331554
 51
137.9763080036597103
  0
ARC
  5
1CEF9
  8
0
 10
4777.7779938247886093
 20
494.8144701544637201
 30
0.0
 40
1.642001643615326
 50
140.8738846150345125
 51
180.5970427202209976
  0
LINE
  5
1CEFA
  8
0
 10
4776.1360813253622837
 20
494.7973602137237776
 30
0.0
 11
4776.1360813253622837
 21
494.3543041388899155
 31
0.0
  0
ARC
  5
1CEFB
  8
0
 10
4776.0380590431077508
 20
494.3547070783068875
 30
0.0
 40
0.09802311042973
 50
270.2390342061819979
 51
359.7644760208876278
  0
ARC
  5
1CEFC
  8
0
 10
4775.1011539516539415
 20
494.6508446082921182
 30
0.0
 40
0.3941599289913476
 50
184.8570376033983962
 51
269.951429979133195
  0
ARC
  5
1CEFD
  8
0
 10
4780.8442614088198752
 20
499.7381804570056261
 30
0.0
 40
6.5289442204580963
 50
186.5461536249054859
 51
196.4270914877832013
  0
ARC
  5
1CEFE
  8
0
 10
4775.0382929787765534
 20
499.1647211643561945
 30
0.0
 40
0.7015348531834381
 50
97.6254158642164214
 51
194.09654614888629
  0
ARC
  5
1CEFF
  8
0
 10
4773.5761039564586099
 20
540.1691299084894808
 30
0.0
 40
40.3323217329782082
 50
271.9453037292435056
 51
273.5716324248688807
  0
ARC
  5
1CF00
  8
0
 10
4776.9850366971922995
 20
491.3430011780642985
 30
0.0
 40
8.6188835128785861
 50
82.4307508716092343
 51
95.9696299704451548
  0
ARC
  5
1CF01
  8
0
 10
4778.4950851492867514
 20
500.2585975401187852
 30
0.0
 40
0.5278916786055464
 50
224.7761412403804968
 51
309.4611868059265021
  0
ARC
  5
1CF02
  8
0
 10
4774.7861159277017578
 20
505.5605682904244986
 30
0.0
 40
6.9968940287492121
 50
305.3126938880569128
 51
319.0046550833536116
  0
ARC
  5
1CF03
  8
0
 10
4791.8024455910608594
 20
491.3698773738378804
 30
0.0
 40
15.1622014559145004
 50
130.1902031929008956
 51
140.7132027127026959
  0
ARC
  5
1CF04
  8
0
 10
4784.9043536587842027
 20
499.7122433225742952
 30
0.0
 40
4.3393885802845737
 50
33.6736673377819784
 51
131.6963615390837958
  0
ARC
  5
1CF05
  8
0
 10
4789.5906989043578506
 20
502.7543331621898233
 30
0.0
 40
1.2491380279973849
 50
210.6106976687964902
 51
222.2389350349108099
  0
ARC
  5
1CF06
  8
0
 10
4786.1322997369388759
 20
500.4087974127721736
 30
0.0
 40
2.9473176270767141
 50
305.2297137913835172
 51
30.7249458620750708
  0
ARC
  5
1CF07
  8
0
 10
4796.5192554523118815
 20
485.2234971616430812
 30
0.0
 40
15.4509605408737691
 50
124.2091905046915059
 51
129.021956490337999
  0
ARC
  5
1CF08
  8
0
 10
4787.2940676236030413
 20
496.6321409917309779
 30
0.0
 40
0.7793495020695539
 50
130.198108480337595
 51
178.706913697111986
  0
ARC
  5
1CF09
  8
0
 10
4783.6859988017777141
 20
496.7288530781660825
 30
0.0
 40
2.8300241311085359
 50
337.8099886043723927
 51
358.397856552926612
  0
ARC
  5
1CF0A
  8
0
 10
4774.9717184900173379
 20
500.7131649390034909
 30
0.0
 40
12.4100704446469692
 50
329.4385842048109794
 51
335.9720838133703182
  0
ARC
  5
1CF0B
  8
0
 10
4785.7437666735859239
 20
494.3551127988313283
 30
0.0
 40
0.0984285442890746
 50
150.8081173878458969
 51
269.9968633615204112
  0
LINE
  5
1CF0C
  8
0
 10
4786.5528990004613661
 20
493.1046308283986832
 30
0.0
 11
4786.5071334853801091
 21
493.8893781598495138
 31
0.0
  0
ARC
  5
1CF0D
  8
0
 10
4786.1143136766895623
 20
493.8629789396820229
 30
0.0
 40
0.3937058812416668
 50
3.8447473498931681
 51
90.0000000076080937
  0
ARC
  5
1CF0E
  8
0
 10
4778.8589142561622793
 20
494.3955443040845239
 30
0.0
 40
0.6960870134392111
 50
35.2573216948742569
 51
144.7426783051257075
  0
ARC
  5
1CF0F
  8
0
 10
4779.5448738398781643
 20
494.1831552896646826
 30
0.0
 40
1.396664337052729
 50
153.9110738209305964
 51
172.9279057796586869
  0
ARC
  5
1CF10
  8
0
 10
4787.4655380943977434
 20
492.8430349461319224
 30
0.0
 40
9.4287373480343621
 50
170.7716980366645885
 51
171.3771344199386135
  0
ARC
  5
1CF11
  8
0
 10
4778.1729546724463944
 20
494.1831552896646826
 30
0.0
 40
1.396664337052729
 50
7.0720942203412891
 51
26.0889261790693716
  0
ARC
  5
1CF12
  8
0
 10
4770.2522904179259058
 20
492.8430349461319224
 30
0.0
 40
9.4287373480343621
 50
8.6228655800613154
 51
9.2283019633353867
  0
ARC
  5
1CF13
  8
0
 10
4778.1888057662135907
 20
499.9591330037309831
 30
0.0
 40
0.0996001625655257
 50
135.2640568493079058
 51
226.5857964445162906
  0
ARC
  5
1CF14
  8
0
 10
4769.914419252550033
 20
508.6623568372385193
 30
0.0
 40
11.9092570988580597
 50
313.5387667858661871
 51
325.3532219778396097
  0
ARC
  5
1CF15
  8
0
 10
4774.3271673435237972
 20
505.4017676420568819
 30
0.0
 40
6.4276617869762527
 50
326.9015916608976227
 51
348.7934233792220198
  0
ARC
  5
1CF16
  8
0
 10
4758.7010764872338768
 20
507.0577911189405995
 30
0.0
 40
22.12278549086464
 50
352.4539776724549256
 51
357.0549996302872273
  0
ARC
  5
1CF17
  8
0
 10
4780.9016635295356537
 20
505.9060949113813876
 30
0.0
 40
0.1080769954242158
 50
92.3457668272360905
 51
171.9757495718492919
  0
ARC
  5
1CF18
  8
0
 10
4790.1058622197861041
 20
506.1125065374977225
 30
0.0
 40
0.0984251970739818
 50
269.9999999863471203
 51
1.7024460068321901
  0
LINE
  5
1CF19
  8
0
 10
4789.8530326615618833
 20
517.9073670959237461
 30
0.0
 11
4790.2042439712622581
 21
506.1154306434236787
 31
0.0
  0
LINE
  5
1CF1A
  8
0
 10
4783.4478330417623511
 20
517.9116975647236814
 30
0.0
 11
4782.829020182261047
 21
508.6283554041236812
 31
0.0
  0
ARC
  5
1CF1B
  8
0
 10
4782.2397559052706129
 20
508.6676396812969756
 30
0.0
 40
0.5905723008843998
 50
308.6534420727804786
 51
356.1859259362126977
  0
LINE
  5
1CF1C
  8
0
 10
4782.5886735494623281
 20
508.3941375833236975
 30
0.0
 11
4782.6223868733559357
 21
508.0770861413723765
 31
0.0
  0
LINE
  5
1CF1D
  8
0
 10
4783.4202554947623867
 20
518.2124068979237563
 30
0.0
 11
4783.493368889762678
 21
519.0532991952236443
 31
0.0
  0
ARC
  5
1CF1E
  8
0
 10
4783.9315882606715604
 20
519.0153158616327573
 30
0.0
 40
0.4398624224357679
 50
97.5580237253644782
 51
175.0461817197345908
  0
LINE
  5
1CF1F
  8
0
 10
4784.4494372838616982
 20
519.0287758418237445
 30
0.0
 11
4784.4279347206620514
 21
518.2124524599237247
 31
0.0
  0
ARC
  5
1CF20
  8
0
 10
4783.5398405145388097
 20
518.2019929606267397
 30
0.0
 40
0.120037606795548
 50
175.0230123702451976
 51
269.9888020996244791
  0
ARC
  5
1CF21
  8
0
 10
4783.5656897320523058
 20
517.9038368101255401
 30
0.0
 40
0.1181185459982466
 50
89.9999999806150015
 51
176.1841624955019086
  0
ARC
  5
1CF22
  8
0
 10
4783.6098052108000047
 20
518.0219549012888365
 30
0.0
 40
0.0600008178353789
 50
30.00072690411438
 51
89.9997898589686542
  0
ARC
  5
1CF23
  8
0
 10
4783.7137305672104048
 20
518.0819581712487434
 30
0.0
 40
0.0600028159047274
 50
210.0008753122932035
 51
269.9907628853623009
  0
ARC
  5
1CF24
  8
0
 10
4784.5454711039819813
 20
518.2001142609228737
 30
0.0
 40
0.1181822006842163
 50
174.0074119863517126
 51
268.8633329170559136
  0
ARC
  5
1CF25
  8
0
 10
4784.6210213460799423
 20
518.0244789608231031
 30
0.0
 40
0.0574774356011395
 50
28.5615736439393402
 51
89.6004263164401067
  0
ARC
  5
1CF26
  8
0
 10
4784.7219926019652121
 20
518.0794339678493543
 30
0.0
 40
0.0574801538297843
 50
208.5541382648719946
 51
269.5803023930292284
  0
ARC
  5
1CF27
  8
0
 10
4789.8523400755066177
 20
518.2019553300515327
 30
0.0
 40
0.1199999739277509
 50
270.0000017927995941
 51
2.4897090053623372
  0
LINE
  5
1CF28
  8
0
 10
4789.9722267742617987
 20
518.2071681224238091
 30
0.0
 11
4789.9361853641621565
 21
519.0363609361237422
 31
0.0
  0
ARC
  5
1CF29
  8
0
 10
4789.4965921164221072
 20
519.0172532269532439
 30
0.0
 40
0.4400083272032134
 50
2.4888971616094331
 51
82.4761079886289252
  0
LINE
  5
1CF2A
  8
0
 10
4789.1203089697619362
 20
519.0782657371237292
 30
0.0
 11
4789.162056911261061
 21
518.223504767723739
 31
0.0
  0
ARC
  5
1CF2B
  8
0
 10
4789.0344352986539889
 20
518.2042430204138554
 30
0.0
 40
0.1290670016474955
 50
288.6525133990379004
 51
8.5827908413966298
  0
ARC
  5
1CF2C
  8
0
 10
4789.02485437467476
 20
518.0380347863469979
 30
0.0
 40
0.0440852532118135
 50
94.9436855175972028
 51
161.5931464436810927
  0
ARC
  5
1CF2D
  8
0
 10
4788.9411957398933737
 20
518.0658754249169533
 30
0.0
 40
0.044084289882287
 50
274.9493023333408246
 51
341.5931464436841907
  0
ARC
  5
1CF2E
  8
0
 10
4789.7741843160620192
 20
518.0219560109236454
 30
0.0
 40
0.0599999940000045
 50
92.8056208472890916
 51
150.0008620579874901
  0
ARC
  5
1CF2F
  8
0
 10
4789.670245972455632
 20
518.0819809285915198
 30
0.0
 40
0.0600257126633159
 50
270.0065771293520811
 51
329.9858401614235959
  0
ARC
  5
1CF30
  8
0
 10
4789.7349749483337291
 20
517.9038451196080359
 30
0.0
 40
0.1181102365157059
 50
1.7087790370580069
 51
89.999999937884624
  0
ARC
  5
1CF31
  8
0
 10
4784.4288052027322919
 20
517.905694322027216
 30
0.0
 40
0.1162679398516742
 50
90.6244754640632948
 51
174.515192711080914
  0
LINE
  5
1CF32
  8
0
 10
4784.313069586562051
 20
517.9168074218237052
 30
0.0
 11
4783.2329999288622275
 21
508.5936161133237192
 31
0.0
  0
ARC
  5
1CF33
  8
0
 10
4782.6467026034815717
 20
508.666825650620126
 30
0.0
 40
0.5908503957001143
 50
302.407859780834599
 51
352.882453278048672
  0
ARC
  5
1CF34
  8
0
 10
4782.6177375477709575
 20
508.7794248770724153
 30
0.0
 40
0.7023541242799912
 50
270.1592674831637737
 51
299.4785613106777191
  0
LINE
  5
1CF35
  8
0
 10
4764.9370003434623868
 20
510.7314685609237017
 30
0.0
 11
4763.6468444839620133
 21
510.1084984261236741
 31
0.0
  0
LINE
  5
1CF36
  8
0
 10
4763.5500313347611154
 20
509.9879647583236988
 30
0.0
 11
4763.4912763639622426
 21
509.732019160623679
 31
0.0
  0
LINE
  5
1CF37
  8
0
 10
4763.4530020885622434
 20
509.2365343351236788
 30
0.0
 11
4763.2643282213020939
 21
508.4169473414236791
 31
0.0
  0
LINE
  5
1CF38
  8
0
 10
4763.1117031613621293
 20
507.8439503855237263
 30
0.0
 11
4762.8263185139621783
 21
506.0140813404236724
 31
0.0
  0
LINE
  5
1CF39
  8
0
 10
4789.3470288021617307
 20
506.0140813404236724
 30
0.0
 11
4788.6611707424626729
 21
501.9588150694236788
 31
0.0
  0
ARC
  5
1CF3A
  8
0
 10
4788.7367276226668764
 20
501.9445617951133158
 30
0.0
 40
0.0768895179781112
 50
169.3170945679690931
 51
202.9076419143412124
  0
LINE
  5
1CF3B
  8
0
 10
4780.7285699167623534
 20
504.2267537505236987
 30
0.0
 11
4787.8804909076661716
 21
504.2267537505236987
 31
0.0
  0
LINE
  5
1CF3C
  8
0
 10
4788.8214357895622015
 20
506.0140813402236972
 30
0.0
 11
4788.8214357895622015
 21
505.3527654847438839
 31
0.0
  0
ARC
  5
1CF3D
  8
0
 10
4787.1585069863886019
 20
505.4027883095337188
 30
0.0
 40
1.66368100530882
 50
331.8086501217831028
 51
358.2769961552892255
  0
ARC
  5
1CF3E
  8
0
 10
4787.8801336216320124
 20
505.1326421387444157
 30
0.0
 40
0.9058884586782134
 50
270.0225976854151781
 51
325.2921185439536771
  0
ARC
  5
1CF3F
  8
0
 10
4769.815766999879088
 20
508.481279941431012
 30
0.0
 40
7.4121156948665003
 50
199.4424725956149871
 51
238.1033429275387903
  0
ARC
  5
1CF40
  8
0
 10
4765.4658051754950066
 20
501.5309887195325018
 30
0.0
 40
0.7874415653787623
 50
346.4272184324735235
 51
56.5989987831479766
  0
ARC
  5
1CF41
  8
0
 10
4809.4594894650617789
 20
490.9080311549237194
 30
0.0
 40
44.4706127989999729
 50
166.4248574822009914
 51
177.1687567074629897
  0
ARC
  5
1CF42
  8
0
 10
4766.3854117712999141
 20
501.0063627265731725
 30
0.0
 40
1.2780725270216211
 50
76.2029354851004967
 51
112.3557910406677962
  0
ARC
  5
1CF43
  8
0
 10
4776.2809422303489555
 20
531.3727534069215608
 30
0.0
 40
30.6636446930800304
 50
251.7736332795579983
 51
265.0847318205455281
  0
ARC
  5
1CF44
  8
0
 10
4773.6468596494551093
 20
499.2331325300127105
 30
0.0
 40
1.5887560973371559
 50
43.6997279507707006
 51
89.7566763414668287
  0
ARC
  5
1CF45
  8
0
 10
4780.261021988644643
 20
502.0705754445891102
 30
0.0
 40
5.7357678992092866
 50
197.6574509277403138
 51
201.7956720042840004
  0
ARC
  5
1CF46
  8
0
 10
4774.4570117308758199
 20
499.8411805160783956
 30
0.0
 40
0.4885549482661518
 50
2.2137451942079669
 51
11.7772313406113405
  0
ARC
  5
1CF47
  8
0
 10
4765.0945711487247536
 20
510.3962332748171775
 30
0.0
 40
0.3704203770339958
 50
90.3816026355492568
 51
115.1749553026045021
  0
ARC
  5
1CF48
  8
0
 10
4764.9027542158592041
 20
470.153183450166182
 30
0.0
 40
40.6139033813031531
 50
89.2474888526588188
 51
89.7328750318438466
  0
ARC
  5
1CF49
  8
0
 10
4765.0761852018767968
 20
482.8343701033231241
 30
0.0
 40
27.9315335460287102
 50
84.3222543687564894
 51
89.2615785388517935
  0
ARC
  5
1CF4A
  8
0
 10
4765.079189321722879
 20
483.1199626437812071
 30
0.0
 40
27.6470564389930793
 50
82.051842082418716
 51
84.2698947085912948
  0
ARC
  5
1CF4B
  8
0
 10
4766.5777960024342974
 20
524.5591656728159933
 30
0.0
 40
13.8723067638640494
 50
263.8519634168089851
 51
264.4634774462431892
  0
ARC
  5
1CF4C
  8
0
 10
4770.4152416758752224
 20
555.7096963446713289
 30
0.0
 40
45.2550784409548186
 50
263.4326781630568917
 51
264.8740832583480938
  0
ARC
  5
1CF4D
  8
0
 10
4774.6105280073243193
 20
641.3995953436697164
 30
0.0
 40
131.023264455611411
 50
266.3949284005051936
 51
268.0957311975997186
  0
ARC
  5
1CF4E
  8
0
 10
4773.1272518047026097
 20
594.178299057487493
 30
0.0
 40
83.7788025767993503
 50
268.0364446519824924
 51
272.9220021788194117
  0
ARC
  5
1CF4F
  8
0
 10
4776.3921676052978
 20
533.6037935383776585
 30
0.0
 40
23.1172646684474792
 50
272.4937225779684127
 51
278.6642595979503767
  0
ARC
  5
1CF50
  8
0
 10
4779.9426799679331452
 20
510.0122416854957237
 30
0.0
 40
0.7412288622746976
 50
84.7339060327080489
 51
95.2660939672919227
  0
ARC
  5
1CF51
  8
0
 10
4780.2240250883123736
 20
512.368788589291853
 30
0.0
 40
1.632443696606438
 50
262.4915925192706823
 51
268.3624912562684131
  0
ARC
  5
1CF52
  8
0
 10
4780.186691768773926
 20
523.4160325116793047
 30
0.0
 40
12.6790243868405703
 50
269.9579040689740737
 51
270.3260801652552914
  0
ARC
  5
1CF53
  8
0
 10
4780.2832517808246848
 20
510.4718592828741066
 30
0.0
 40
0.2664738075151424
 50
8.6666416909923232
 51
95.2541244883646243
  0
ARC
  5
1CF54
  8
0
 10
4767.634262086158742
 20
495.5561662104281027
 30
0.0
 40
19.7587439942979088
 50
46.7826836049253529
 51
49.19367757981518
  0
ARC
  5
1CF55
  8
0
 10
4781.0428831541421459
 20
509.8262996543801933
 30
0.0
 40
0.1774307764483875
 50
2.7032397078029922
 51
46.7721958700702487
  0
LINE
  5
1CF56
  8
0
 10
4781.2201164873622474
 20
509.834667809923701
 30
0.0
 11
4781.2365740396926412
 21
509.5188263789830785
 31
0.0
  0
LINE
  5
1CF57
  8
0
 10
4763.8267023853932187
 20
509.5294440290787747
 30
0.0
 11
4781.0363457938656211
 21
509.5294440290787747
 31
0.0
  0
ARC
  5
1CF58
  8
0
 10
4763.7206253336180453
 20
509.9500901388786929
 30
0.0
 40
0.1747478161349149
 50
114.9744005403673981
 51
167.4824453099938921
  0
LINE
  5
1CF59
  8
0
 10
4765.3859207861542018
 20
509.4109711830736842
 30
0.0
 11
4766.2442173138506405
 21
509.4109711830736842
 31
0.0
  0
LINE
  5
1CF5A
  8
0
 10
4775.1536234837112715
 20
509.4072145555236943
 30
0.0
 11
4774.1043871423689779
 21
509.4072145555236943
 31
0.0
  0
LINE
  5
1CF5B
  8
0
 10
4763.4912769643196953
 20
509.7320217758737044
 30
0.0
 11
4763.7070762086950708
 21
509.7320217758737044
 31
0.0
  0
LINE
  5
1CF5C
  8
0
 10
4765.3068649837623525
 20
509.5294428672236791
 30
0.0
 11
4765.3084903680619391
 21
509.4870770898236856
 31
0.0
  0
ARC
  5
1CF5D
  8
0
 10
4765.3872993970599055
 20
509.4898157303513244
 30
0.0
 40
0.0788565989847057
 50
181.9902469266720004
 51
268.9982752023851162
  0
LINE
  5
1CF5E
  8
0
 10
4766.3259322972617156
 20
509.5293781638237078
 30
0.0
 11
4766.322737606861665
 21
509.4841966053236888
 31
0.0
  0
ARC
  5
1CF5F
  8
0
 10
4766.2442173138506405
 20
509.4896829099830029
 30
0.0
 40
0.0787117269112258
 50
269.9996105574356875
 51
356.0031726074254266
  0
LINE
  5
1CF60
  8
0
 10
4766.1534734858632874
 20
509.5293770983237209
 30
0.0
 11
4766.1517137003620519
 21
509.4897180107237773
 31
0.0
  0
ARC
  5
1CF61
  8
0
 10
4766.2347759106478406
 20
509.483813495530228
 30
0.0
 40
0.0832718084183249
 50
175.9339429019773888
 51
241.0158252076201961
  0
ARC
  5
1CF62
  8
0
 10
4781.115229024088876
 20
509.761734731343779
 30
0.0
 40
0.1086081801707845
 50
348.7773697954290242
 51
0.9617796609976851
  0
ARC
  5
1CF63
  8
0
 10
4780.4907700176163416
 20
509.914871884332797
 30
0.0
 40
0.7514776480516749
 50
337.5194436098880146
 51
346.5904924541756031
  0
ARC
  5
1CF64
  8
0
 10
4781.0490616896058782
 20
509.6734576382694968
 30
0.0
 40
0.1436222602842226
 50
300.396563990716686
 51
341.3501051363787724
  0
ARC
  5
1CF65
  8
0
 10
4781.0304606073741525
 20
509.745535271828885
 30
0.0
 40
0.2161713686251464
 50
271.5600494070394006
 51
294.9746760872994855
  0
ARC
  5
1CF66
  8
0
 10
4781.0878520142414345
 20
509.4661899273318113
 30
0.0
 40
0.1577311675016096
 50
26.1623775148858684
 51
57.6852045762453471
  0
ARC
  5
1CF67
  8
0
 10
4781.0886830171648398
 20
509.4662540568617146
 30
0.0
 40
0.1569573305000423
 50
3.3997057281418561
 51
26.2751180168462604
  0
LINE
  5
1CF68
  8
0
 10
4781.2453641235615578
 20
509.4755618222237104
 30
0.0
 11
4781.3031883389621726
 21
508.5274433595237724
 31
0.0
  0
LINE
  5
1CF69
  8
0
 10
4781.3031883389621726
 20
508.5274433595237724
 30
0.0
 11
4780.558402475994626
 21
508.5274433595237724
 31
0.0
  0
ARC
  5
1CF6A
  8
0
 10
4780.5587852507132993
 20
507.7402422434486198
 30
0.0
 40
0.7872012091367973
 50
90.0278599378260367
 51
108.7943807394174058
  0
ARC
  5
1CF6B
  8
0
 10
4779.4559018121535701
 20
510.9253254692080191
 30
0.0
 40
2.5834374557674891
 50
283.8451650570564766
 51
289.1920663893428127
  0
LINE
  5
1CF6C
  8
0
 10
4781.3964915231626946
 20
508.4623333271237016
 30
0.0
 11
4780.5810512064999784
 21
508.3825799500260132
 31
0.0
  0
LINE
  5
1CF6D
  8
0
 10
4780.6713494202622314
 20
508.3914114823236901
 30
0.0
 11
4780.6315613027618383
 21
508.387320467823713
 31
0.0
  0
ARC
  5
1CF6E
  8
0
 10
4781.3518379536617431
 20
508.6161979374236921
 30
0.0
 40
0.157480314999984
 50
214.3241376996923009
 51
275.585628438621427
  0
LINE
  5
1CF6F
  8
0
 10
4781.3896395436622697
 20
508.4635623575236991
 30
0.0
 11
4781.3939721236620244
 21
508.5048089708237171
 31
0.0
  0
LINE
  5
1CF70
  8
0
 10
4781.4567549694620539
 20
508.5575219136237024
 30
0.0
 11
4782.5324497969631921
 21
508.4835168870235975
 31
0.0
  0
LINE
  5
1CF71
  8
0
 10
4782.5881512391470096
 20
508.3962158366849735
 30
0.0
 11
4782.5885848983616597
 21
508.4046113412236991
 31
0.0
  0
LINE
  5
1CF72
  8
0
 10
4782.5885848983616597
 20
508.4046113412236991
 30
0.0
 11
4782.5873673998621598
 21
508.4278126260236945
 31
0.0
  0
ARC
  5
1CF73
  8
0
 10
4782.5285255188309748
 20
508.424724870215698
 30
0.0
 40
0.05892284106518
 50
3.0038681878513969
 51
86.1812580119725737
  0
ARC
  5
1CF74
  8
0
 10
4781.4526468225967619
 20
508.4986701645694893
 30
0.0
 40
0.0589949594236134
 50
86.0069449024668558
 51
174.0271924551151983
  0
LINE
  5
1CF75
  8
0
 10
4781.3896395453621153
 20
508.4635623361236867
 30
0.0
 11
4782.5811588746619236
 21
508.4011923379237032
 31
0.0
  0
ARC
  5
1CF76
  8
0
 10
4782.5807792952409727
 20
508.3932583460295973
 30
0.0
 40
0.0079430666565348
 50
6.3552322465677014
 51
87.2609338697498345
  0
LINE
  5
1CF77
  8
0
 10
4775.3027067315542809
 20
508.278243519223679
 30
0.0
 11
4775.8151553470588624
 21
508.278243519223679
 31
0.0
  0
LINE
  5
1CF78
  8
0
 10
4767.7024855937706889
 20
508.144037914773719
 30
0.0
 11
4766.8274963758121885
 21
508.144037914773719
 31
0.0
  0
ARC
  5
1CF79
  8
0
 10
4786.7219579589509522
 20
498.0121575732312067
 30
0.0
 40
21.6275668964998893
 50
82.4751899486025479
 51
97.5675039802924431
  0
ARC
  5
1CF7A
  8
0
 10
4784.8840788794459513
 20
518.994963640930564
 30
0.0
 40
0.4359547930001476
 50
92.3911009316627627
 51
175.551731552893699
  0
ARC
  5
1CF7B
  8
0
 10
4788.7387788153973815
 20
519.0649501829899464
 30
0.0
 40
0.3817624427195555
 50
1.9988342048925409
 51
78.2720900769301977
  0
ARC
  5
1CF7C
  8
0
 10
4785.688522366241159
 20
544.06521255497114
 30
0.0
 40
24.6484050422524383
 50
268.0874186236845844
 51
271.0334636447030903
  0
ARC
  5
1CF7D
  8
0
 10
4786.6143130311666027
 20
648.2242938762738049
 30
0.0
 40
128.8043757915220908
 50
269.7859380745319982
 51
271.3078602599505871
  0
ARC
  5
1CF7E
  8
0
 10
4784.2678844342053708
 20
514.5832196673227372
 30
0.0
 40
4.8840674397221742
 50
82.9670453946330184
 51
94.6288865471750142
  0
ARC
  5
1CF7F
  8
0
 10
4764.0442725273805991
 20
508.0905703995211979
 30
0.0
 40
1.326064709664756
 50
81.7214306877388736
 51
98.2785693122611548
  0
ARC
  5
1CF80
  8
0
 10
4763.3840049695163543
 20
507.8014794644673771
 30
0.0
 40
0.2755940018562715
 50
89.9999999955706329
 51
171.1350003489635867
  0
ARC
  5
1CF81
  8
0
 10
4764.2903697422871119
 20
506.7194611776292277
 30
0.0
 40
1.968731681146632
 50
44.9541311118761513
 51
59.5671295722276213
  0
ARC
  5
1CF82
  8
0
 10
4765.8094913864260889
 20
508.2361524613743882
 30
0.0
 40
0.1779129144681828
 50
224.9541311118761087
 51
243.3981363722404865
  0
ARC
  5
1CF83
  8
0
 10
4763.601149821931358
 20
509.2068172417551182
 30
0.0
 40
0.1510988303753707
 50
101.1100545543314979
 51
168.6575150042199027
  0
ARC
  5
1CF84
  8
0
 10
4764.2017289002196776
 20
506.4968747045198256
 30
0.0
 40
2.9267521007116759
 50
96.8365171961136042
 51
102.4244123533362938
  0
ARC
  5
1CF85
  8
0
 10
4763.7033560472818863
 20
509.7044414256748723
 30
0.0
 40
0.0278301153076073
 50
22.0285551583547097
 51
82.3324204766741303
  0
ARC
  5
1CF86
  8
0
 10
4765.7031219959008013
 20
510.4046643339856928
 30
0.0
 40
2.0910166631437579
 50
199.2614958603570869
 51
203.94148572368141
  0
ARC
  5
1CF87
  8
0
 10
4763.8313321568666652
 20
509.5713522299702163
 30
0.0
 40
0.0421631602924737
 50
201.1744264256946053
 51
263.641048343566581
  0
ARC
  5
1CF88
  8
0
 10
4776.879895242755083
 20
-269.4026336469070202
 30
0.0
 40
779.6234467088344218
 50
90.9625788280113312
 51
90.9725648621621445
  0
ARC
  5
1CF89
  8
0
 10
4762.331061942033557
 20
572.66805313298687
 30
0.0
 40
62.5741006128678592
 50
271.329311713217578
 51
272.5664450414707858
  0
ARC
  5
1CF8A
  8
0
 10
4764.9892370255911374
 20
257.9195726717331922
 30
0.0
 40
252.23718482723541
 50
88.9366012070228606
 51
89.9673439102454182
  0
ARC
  5
1CF8B
  8
0
 10
4773.3417298034410123
 20
770.6131006414722151
 30
0.0
 40
260.5256544232112788
 50
269.1925700035856721
 51
270.3989243014931958
  0
ARC
  5
1CF8C
  8
0
 10
4778.3455973185082257
 20
-770.8662249119518037
 30
0.0
 40
1280.9639578129099391
 50
89.9360029394341467
 51
90.1426827840202805
  0
ARC
  5
1CF8D
  8
0
 10
4780.4847170452003411
 20
508.6058909237301009
 30
0.0
 40
1.504814551873213
 50
63.6138398634681508
 51
77.8912903649290911
  0
ARC
  5
1CF8E
  8
0
 10
4780.1518474075201084
 20
502.9932345706806132
 30
0.0
 40
7.1136149531832977
 50
84.7692249586756361
 51
93.0255498962001468
  0
ARC
  5
1CF8F
  8
0
 10
4781.0403342462514047
 20
509.8124714531505788
 30
0.0
 40
0.1811472673613009
 50
7.038260438720493
 51
51.3446939760056296
  0
ARC
  5
1CF90
  8
0
 10
4766.8841101391999473
 20
525.0458163464054451
 30
0.0
 40
15.8656897152365701
 50
260.3890062863551975
 51
262.6186071829444018
  0
ARC
  5
1CF91
  8
0
 10
4764.8444583712025633
 20
523.9297640680457562
 30
0.0
 40
14.6181575321193407
 50
270.0052147965466816
 51
271.1745721064751251
  0
ARC
  5
1CF92
  8
0
 10
4767.3015135840250878
 20
470.9912026804311154
 30
0.0
 40
38.3781787516762378
 50
91.292728098316374
 51
92.8045465778798615
  0
ARC
  5
1CF93
  8
0
 10
4764.7808034352419781
 20
525.4200419745712907
 30
0.0
 40
16.1094614430622016
 50
271.292260080067706
 51
272.2871915274237153
  0
LINE
  5
1CF94
  8
0
 10
4774.0275117487080934
 20
509.5294440290787747
 30
0.0
 11
4774.030215250962101
 21
509.4821215413236928
 31
0.0
  0
LINE
  5
1CF95
  8
0
 10
4775.2288543032873349
 20
509.5294440290787747
 30
0.0
 11
4775.2263621311622046
 21
509.4825820655236726
 31
0.0
  0
ARC
  5
1CF96
  8
0
 10
4775.1376221233640536
 20
509.4954422747009062
 30
0.0
 40
0.0896670171477922
 50
280.2796722664430717
 51
351.7540975145909101
  0
ARC
  5
1CF97
  8
0
 10
4774.1192439316482705
 20
509.4961010470598239
 30
0.0
 40
0.0901195459669319
 50
188.9238600301694078
 51
260.5111039870442937
  0
ARC
  5
1CF98
  8
0
 10
4775.305831881881204
 20
508.4361168584616166
 30
0.0
 40
0.1579042678545956
 50
186.9720533927552992
 51
268.8659608885037073
  0
ARC
  5
1CF99
  8
0
 10
4776.135409169975901
 20
508.3418751200161978
 30
0.0
 40
0.1794384881287797
 50
155.2680882901327095
 51
165.3771006388330136
  0
ARC
  5
1CF9A
  8
0
 10
4775.8121316714386921
 20
508.4354634407628168
 30
0.0
 40
0.1572489947281472
 50
269.9762679986629905
 51
342.1166704467700015
  0
ARC
  5
1CF9B
  8
0
 10
4779.8015758535202622
 20
506.3026897671663278
 30
0.0
 40
2.1744243280109772
 50
103.5098431899053963
 51
125.3112036295242007
  0
LINE
  5
1CF9C
  8
0
 10
4780.6014104309988397
 20
508.5274433595237724
 30
0.0
 11
4780.5381150702505693
 21
508.0770734663237818
 31
0.0
  0
ARC
  5
1CF9D
  8
0
 10
4766.5345275659510662
 20
508.286865690030595
 30
0.0
 40
0.1389704217902118
 50
5.7189902354006028
 51
69.3965585742145095
  0
LINE
  5
1CF9E
  8
0
 10
4766.672806275885705
 20
508.3007140296950865
 30
0.0
 11
4766.6739304227621687
 21
508.2878439490236815
 31
0.0
  0
ARC
  5
1CF9F
  8
0
 10
4766.8309284780707458
 20
508.3016000983361096
 30
0.0
 40
0.1575995590566693
 50
185.0074604297068959
 51
268.7521505639049906
  0
ARC
  5
1CFA0
  8
0
 10
4768.0267188039870234
 20
508.2709445065463001
 30
0.0
 40
0.177944621737426
 50
124.8655326015977067
 51
174.0390704914034075
  0
ARC
  5
1CFA1
  8
0
 10
4767.6920138010636947
 20
508.3019067082606739
 30
0.0
 40
0.1582157210883781
 50
273.7949986848573758
 51
355.474882884299916
  0
ARC
  5
1CFA2
  8
0
 10
4779.6638702255222597
 20
711.2953429934666474
 30
0.0
 40
201.9697848481966105
 50
268.9478131052695176
 51
269.5671920258026262
  0
ARC
  5
1CFA3
  8
0
 10
4778.8059742835494035
 20
543.494440468899711
 30
0.0
 40
34.1696453269181575
 50
268.8802365187258943
 51
271.4430538919041282
  0
ARC
  5
1CFA4
  8
0
 10
4780.8623417808403246
 20
484.2670293906789993
 30
0.0
 40
25.0971098688522609
 50
91.0881296692548545
 51
92.7311394258653934
  0
ARC
  5
1CFA5
  8
0
 10
4780.9773899570136564
 20
509.5525953472683796
 30
0.0
 40
0.1929819041875552
 50
270.0091166871118844
 51
322.2420672930899173
  0
ARC
  5
1CFA6
  8
0
 10
4780.7044545220041982
 20
509.5225244843373957
 30
0.0
 40
0.434531975076498
 50
348.302753036254785
 51
4.9711460279950899
  0
ARC
  5
1CFA7
  8
0
 10
4780.7259108251164434
 20
504.1306110870705766
 30
0.0
 40
0.0961794286957753
 50
88.4157304050037425
 51
166.8015601018367136
  0
ENDSEC
  0
EOF
