  0
SECTION
  2
HEADER
  9
$ACADVER
  1
AC1009
  9
$INSBASE
 10
5774.3866144247704142
 20
407.9220980238507082
 30
0.0
  9
$EXTMIN
 10
5743.5906869176396867
 20
407.9158927966631722
 30
-0.0000000000112498
  9
$EXTMAX
 10
5805.234889600877068
 20
447.2278240205412203
 30
0.0000000000002956
  9
$LIMMIN
 10
0.0
 20
0.0
  9
$LIMMAX
 10
11.6929133858000007
 20
8.2677165353999982
  9
$ORTHOMODE
 70
     0
  9
$REGENMODE
 70
     1
  9
$FILLMODE
 70
     1
  9
$QTEXTMODE
 70
     0
  9
$MIRRTEXT
 70
     0
  9
$DRAGMODE
 70
     2
  9
$LTSCALE
 40
0.6431102362
  9
$OSMODE
 70
  4095
  9
$ATTMODE
 70
     1
  9
$TEXTSIZE
 40
0.2
  9
$TRACEWID
 40
0.05
  9
$TEXTSTYLE
  7
STANDARD
  9
$CLAYER
  8
0
  9
$CELTYPE
  6
BYLAYER
  9
$CECOLOR
 62
   256
  9
$DIMSCALE
 40
1.0
  9
$DIMASZ
 40
0.1875
  9
$DIMEXO
 40
0.0625
  9
$DIMDLI
 40
0.4443307087
  9
$DIMRND
 40
0.0
  9
$DIMDLE
 40
0.0
  9
$DIMEXE
 40
0.125
  9
$DIMTP
 40
0.01
  9
$DIMTM
 40
0.01
  9
$DIMTXT
 40
2.0
  9
$DIMCEN
 40
0.1052362205
  9
$DIMTSZ
 40
0.0
  9
$DIMTOL
 70
     1
  9
$DIMLIM
 70
     0
  9
$DIMTIH
 70
     1
  9
$DIMTOH
 70
     1
  9
$DIMSE1
 70
     0
  9
$DIMSE2
 70
     0
  9
$DIMTAD
 70
     0
  9
$DIMZIN
 70
     0
  9
$DIMBLK
  1

  9
$DIMASO
 70
     1
  9
$DIMSHO
 70
     1
  9
$DIMPOST
  1
\X
  9
$DIMAPOST
  1

  9
$DIMALT
 70
     1
  9
$DIMALTD
 70
     2
  9
$DIMALTF
 40
25.3999999999999986
  9
$DIMLFAC
 40
1.0
  9
$DIMTOFL
 70
     0
  9
$DIMTVP
 40
0.0
  9
$DIMTIX
 70
     0
  9
$DIMSOXD
 70
     0
  9
$DIMSAH
 70
     0
  9
$DIMBLK1
  1

  9
$DIMBLK2
  1

  9
$DIMSTYLE
  2
STANDARD
  9
$DIMCLRD
 70
     0
  9
$DIMCLRE
 70
     0
  9
$DIMCLRT
 70
     0
  9
$DIMTFAC
 40
1.0
  9
$DIMGAP
 40
0.09
  9
$LUNITS
 70
     2
  9
$LUPREC
 70
     4
  9
$SKETCHINC
 40
0.1
  9
$FILLETRAD
 40
0.0
  9
$AUNITS
 70
     0
  9
$AUPREC
 70
     0
  9
$MENU
  1
.
  9
$ELEVATION
 40
0.0
  9
$PELEVATION
 40
0.0
  9
$THICKNESS
 40
0.0
  9
$LIMCHECK
 70
     0
  9
$BLIPMODE
 70
     0
  9
$CHAMFERA
 40
0.0
  9
$CHAMFERB
 40
0.0
  9
$SKPOLY
 70
     0
  9
$TDCREATE
 40
2458060.468368056230247
  9
$TDUPDATE
 40
2460609.9752546302042902
  9
$TDINDWG
 40
0.6578311343
  9
$TDUSRTIMER
 40
0.6578311343
  9
$USRTIMER
 70
     1
  9
$ANGBASE
 50
0.0
  9
$ANGDIR
 70
     0
  9
$PDMODE
 70
     0
  9
$PDSIZE
 40
0.3125
  9
$PLINEWID
 40
0.0
  9
$COORDS
 70
     2
  9
$SPLFRAME
 70
     0
  9
$SPLINETYPE
 70
     6
  9
$SPLINESEGS
 70
     8
  9
$ATTDIA
 70
     1
  9
$ATTREQ
 70
     1
  9
$HANDLING
 70
     1
  9
$HANDSEED
  5
2D9EF
  9
$SURFTAB1
 70
     6
  9
$SURFTAB2
 70
     6
  9
$SURFTYPE
 70
     6
  9
$SURFU
 70
     6
  9
$SURFV
 70
     6
  9
$UCSNAME
  2

  9
$UCSORG
 10
0.0
 20
0.0
 30
0.0
  9
$UCSXDIR
 10
1.0
 20
0.0
 30
0.0
  9
$UCSYDIR
 10
0.0
 20
1.0
 30
0.0
  9
$PUCSNAME
  2

  9
$PUCSORG
 10
0.0
 20
0.0
 30
0.0
  9
$PUCSXDIR
 10
1.0
 20
0.0
 30
0.0
  9
$PUCSYDIR
 10
0.0
 20
1.0
 30
0.0
  9
$USERI1
 70
     0
  9
$USERI2
 70
     0
  9
$USERI3
 70
     0
  9
$USERI4
 70
     0
  9
$USERI5
 70
     0
  9
$USERR1
 40
0.0
  9
$USERR2
 40
0.0
  9
$USERR3
 40
0.0
  9
$USERR4
 40
0.0
  9
$USERR5
 40
0.0
  9
$WORLDVIEW
 70
     1
  9
$SHADEDGE
 70
     3
  9
$SHADEDIF
 70
    70
  9
$TILEMODE
 70
     1
  9
$MAXACTVP
 70
    64
  9
$PLIMCHECK
 70
     0
  9
$PEXTMIN
 10
1.0000000000000000E+20
 20
1.0000000000000000E+20
 30
1.0000000000000000E+20
  9
$PEXTMAX
 10
-1.0000000000000000E+20
 20
-1.0000000000000000E+20
 30
-1.0000000000000000E+20
  9
$PLIMMIN
 10
0.0
 20
0.0
  9
$PLIMMAX
 10
12.0
 20
9.0
  9
$UNITMODE
 70
     0
  9
$VISRETAIN
 70
     1
  9
$PLINEGEN
 70
     0
  9
$PSLTSCALE
 70
     1
  0
ENDSEC
  0
SECTION
  2
TABLES
  0
TABLE
  2
VPORT
 70
     1
  0
VPORT
  2
*ACTIVE
 70
     0
 10
0.0
 20
0.0
 11
1.0
 21
1.0
 12
1863.0474318139461047
 22
294.992253306063219
 13
0.0
 23
0.0
 14
1.0
 24
1.0
 15
0.0
 25
0.0
 16
0.0
 26
0.0
 36
60.4960186965801583
 17
3911.3653564453120453
 27
132.5796051025390057
 37
0.0
 40
39.5907392467423804
 41
2.21775147928994
 42
50.0
 43
0.0
 44
0.0
 50
0.0
 51
0.0
 71
     0
 72
   100
 73
     1
 74
     1
 75
     0
 76
     0
 77
     0
 78
     1
  0
ENDTAB
  0
TABLE
  2
LTYPE
 70
     2
  0
LTYPE
  2
CONTINUOUS
 70
     0
  3
Solid line
 72
    65
 73
     0
 40
0.0
  0
LTYPE
  2
PHANTOM2
 70
     0
  3
___ _ _ ___ _ _ ___ _ _ ___ _ _
 72
    65
 73
     6
 40
1.25
 49
0.625
 49
-0.125
 49
0.125
 49
-0.125
 49
0.125
 49
-0.125
  0
ENDTAB
  0
TABLE
  2
LAYER
 70
     2
  0
LAYER
  2
0
 70
     0
 62
   255
  6
CONTINUOUS
  0
LAYER
  2
DEFPOINTS
 70
     0
 62
     7
  6
CONTINUOUS
  0
ENDTAB
  0
TABLE
  2
STYLE
 70
     1
  0
STYLE
  2
STANDARD
 70
     0
 40
0.0
 41
0.8
 50
0.0
 71
     0
 42
0.2
  3
txt
  4

  0
ENDTAB
  0
TABLE
  2
VIEW
 70
     0
  0
ENDTAB
  0
TABLE
  2
UCS
 70
     0
  0
ENDTAB
  0
TABLE
  2
APPID
 70
    11
  0
APPID
  2
ACAD
 70
     0
  0
APPID
  2
ACAD_MLEADERVER
 70
     0
  0
APPID
  2
ACAD_EXEMPT_FROM_CAD_STANDARDS
 70
     0
  0
APPID
  2
ACAD_NAV_VCDISPLAY
 70
     0
  0
APPID
  2
ACAECLAYERSTANDARD
 70
     0
  0
APPID
  2
ACCMTRANSPARENCY
 70
     0
  0
APPID
  2
ACAD_DSTYLE_DIMJAG
 70
     0
  0
APPID
  2
ACAD_DSTYLE_DIMTALN
 70
     0
  0
APPID
  2
ACDBATTR
 70
     0
  0
APPID
  2
ACADANNOTATIVE
 70
     0
  0
APPID
  2
DCO15
 70
     0
  0
ENDTAB
  0
TABLE
  2
DIMSTYLE
 70
     1
  0
DIMSTYLE
  2
STANDARD
 70
     0
  3

  4

  5

  6

  7

 40
1.0
 41
0.1875
 42
0.0625
 43
0.38
 44
0.125
 45
0.0
 46
0.0
 47
0.01
 48
0.01
140
0.15625
141
0.09
142
0.0
143
25.3999999999999986
144
1.0
145
0.0
146
1.0
147
0.09
 71
     1
 72
     0
 73
     1
 74
     1
 75
     0
 76
     0
 77
     0
 78
     4
170
     0
171
     2
172
     0
173
     0
174
     0
175
     0
176
     0
177
     0
178
     0
  0
ENDTAB
  0
ENDSEC
  0
SECTION
  2
BLOCKS
  0
BLOCK
  8
0
  2
$MODEL_SPACE
 70
     0
 10
0.0
 20
0.0
 30
0.0
  3
$MODEL_SPACE
  1

  0
ENDBLK
  5
21
  8
0
  0
BLOCK
 67
     1
  8
0
  2
$PAPER_SPACE
 70
     0
 10
0.0
 20
0.0
 30
0.0
  3
$PAPER_SPACE
  1

  0
ENDBLK
  5
1D
 67
     1
  8
0
  0
BLOCK
  8
0
  2
_FILLED
 70
     0
 10
0.0
 20
0.0
 30
0.0
  3
_FILLED
  1

  0
SOLID
  5
2A961
  8
0
  6
BYBLOCK
 62
     0
 10
0.0
 20
0.0
 30
0.0
 11
-1.0
 21
0.1666666667
 31
0.0
 12
-1.0
 22
-0.1666666667
 32
0.0
 13
-1.0
 23
-0.1666666667
 33
0.0
  0
ENDBLK
  5
2A962
  8
0
  6
BYBLOCK
 62
     0
  0
ENDSEC
  0
SECTION
  2
ENTITIES
  0
ATTDEF
  5
26A5B
  8
DEFPOINTS
 10
5774.3865135892856415
 20
407.9197621127621005
 30
0.0
 40
0.001
  1
K-33293
  3

  2
MODELNUMBER
 70
     0
1001
ACDBATTR
1070
     0
1070
     1
  0
ATTDEF
  5
26A5C
  8
DEFPOINTS
 10
5774.3863877796284214
 20
407.9180952723830273
 30
0.0
 40
0.001
  1
ALOUETTE
  3

  2
TRADENAME
 70
     0
1001
ACDBATTR
1070
     0
1070
     1
  0
ATTDEF
  5
26A5D
  8
DEFPOINTS
 10
5774.3865135892856415
 20
407.9164287794288271
 30
0.0
 40
0.001
  1
VANITY CABINET
  3

  2
PRODUCT
 70
     0
1001
ACDBATTR
1070
     0
1070
     1
  0
LINE
  5
2D44E
  8
0
 10
5804.7993703302199719
 20
447.2136964490507012
 30
0.0
 11
5743.9738585193199469
 21
447.2136964490507012
 31
0.0
  0
LINE
  5
2D44F
  8
0
 10
5804.8393703302208451
 20
447.1736964490506807
 30
0.0
 11
5743.9338585193190738
 21
447.1736964490506807
 31
0.0
  0
LINE
  5
2D450
  8
0
 10
5804.8393703302208451
 20
443.1979484175507196
 30
0.0
 11
5743.9338585193190738
 21
443.1979484175507196
 31
0.0
  0
LINE
  5
2D451
  8
0
 10
5804.8000002515200322
 20
443.1585783388507025
 30
0.0
 11
5743.9732285980198867
 21
443.1585783388507025
 31
0.0
  0
LINE
  5
2D452
  8
0
 10
5804.8393703302208451
 20
442.4892870002507834
 30
0.0
 11
5743.9338585193190738
 21
442.4892870002507834
 31
0.0
  0
LINE
  5
2D453
  8
0
 10
5804.8000002515200322
 20
442.5286570789506868
 30
0.0
 11
5743.9732285980198867
 21
442.5286570789506868
 31
0.0
  0
LINE
  5
2D454
  8
0
 10
5804.6425199365194203
 20
413.0798381813507945
 30
0.0
 11
5744.1307089130195891
 21
413.0798381813507945
 31
0.0
  0
LINE
  5
2D455
  8
0
 10
5804.6425199365194203
 20
412.7648775514506951
 30
0.0
 11
5744.1307089130195891
 21
412.7648775514506951
 31
0.0
  0
LINE
  5
2D456
  8
0
 10
5804.6425199365194203
 20
411.2688145592506999
 30
0.0
 11
5744.1307089130195891
 21
411.2688145592506999
 31
0.0
  0
LINE
  5
2D457
  8
0
 10
5804.6425199365194203
 20
410.9538539293508279
 30
0.0
 11
5744.1307089130195891
 21
410.9538539293508279
 31
0.0
  0
LINE
  5
2D458
  8
0
 10
5746.41417347994593
 20
408.0010980238507159
 30
0.0
 11
5744.4456695429198589
 21
408.0010980238507159
 31
0.0
  0
LINE
  5
2D459
  8
0
 10
5746.4929136373193614
 20
408.0798381813506808
 30
0.0
 11
5744.3669293854200077
 21
408.0798381813506808
 31
0.0
  0
LINE
  5
2D45A
  8
0
 10
5743.8944884405200355
 20
443.1585783388507025
 30
0.0
 11
5743.8944884405200355
 21
442.5286570789506868
 31
0.0
  0
LINE
  5
2D45B
  8
0
 10
5774.3866144247704142
 20
408.0404681026507205
 30
0.0
 11
5774.3866144247704142
 21
407.9417830632506821
 31
0.0
  0
LINE
  5
2D45C
  8
0
 10
5743.9338585193190738
 20
447.1736964490506807
 30
0.0
 11
5743.9338585193190738
 21
443.1979484175507196
 31
0.0
  0
LINE
  5
2D45D
  8
0
 10
5743.9738585193199469
 20
447.2136964490507012
 30
0.0
 11
5743.9338585193190738
 21
447.1736964490506807
 31
0.0
  0
LINE
  5
2D45E
  8
0
 10
5743.8944884405200355
 20
443.1585783388507025
 30
0.0
 11
5743.9338585193190738
 21
443.1979484175507196
 31
0.0
  0
LINE
  5
2D45F
  8
0
 10
5743.9732285980198867
 20
443.1585783388507025
 30
0.0
 11
5743.9732285980198867
 21
442.5286570789506868
 31
0.0
  0
LINE
  5
2D460
  8
0
 10
5743.8944884405200355
 20
442.5286570789506868
 30
0.0
 11
5743.9338585193190738
 21
442.4892870002507834
 31
0.0
  0
LINE
  5
2D461
  8
0
 10
5743.9338585193190738
 20
442.4892870002507834
 30
0.0
 11
5743.9732285980198867
 21
442.5286570789506868
 31
0.0
  0
LINE
  5
2D462
  8
0
 10
5743.9338585193190738
 20
443.1979484175507196
 30
0.0
 11
5743.9732285980198867
 21
443.1585783388507025
 31
0.0
  0
LINE
  5
2D463
  8
0
 10
5744.3669293854200077
 20
442.4892870002507834
 30
0.0
 11
5744.3669293854200077
 21
413.0798381813507945
 31
0.0
  0
LINE
  5
2D464
  8
0
 10
5744.3669293854200077
 20
412.7648775514506951
 30
0.0
 11
5744.3669293854200077
 21
411.2688145592506999
 31
0.0
  0
LINE
  5
2D465
  8
0
 10
5744.3669293854200077
 20
410.9538539293508279
 30
0.0
 11
5744.3669293854200077
 21
408.0798381813506808
 31
0.0
  0
LINE
  5
2D466
  8
0
 10
5744.1307089130195891
 20
413.0798381813507945
 30
0.0
 11
5744.1307089130195891
 21
412.7648775514506951
 31
0.0
  0
LINE
  5
2D467
  8
0
 10
5744.1307089130195891
 20
411.2688145592506999
 30
0.0
 11
5744.1307089130195891
 21
410.9538539293508279
 31
0.0
  0
LINE
  5
2D468
  8
0
 10
5746.7291341098198245
 20
412.7648775514506951
 30
0.0
 11
5746.7291341098198245
 21
413.0798381813507945
 31
0.0
  0
LINE
  5
2D469
  8
0
 10
5746.7291341098198245
 20
411.2688145592506999
 30
0.0
 11
5746.7291341098198245
 21
410.9538539293508279
 31
0.0
  0
LINE
  5
2D46A
  8
0
 10
5744.3669293854200077
 20
408.0798381813506808
 30
0.0
 11
5744.4456695429198589
 21
408.0010980238507159
 31
0.0
  0
LINE
  5
2D46B
  8
0
 10
5746.4929136373193614
 20
408.0798381813506808
 30
0.0
 11
5746.4929136373193614
 21
410.9538539293508279
 31
0.0
  0
LINE
  5
2D46C
  8
0
 10
5746.4929136373193614
 20
411.2688145592506999
 30
0.0
 11
5746.4929136373193614
 21
412.7648775514506951
 31
0.0
  0
LINE
  5
2D46D
  8
0
 10
5746.4929136373193614
 20
413.0798381813507945
 30
0.0
 11
5746.4929136373193614
 21
442.4892870001486926
 31
0.0
  0
LINE
  5
2D46E
  8
0
 10
5746.5913388342187318
 20
413.1782633781506888
 30
0.0
 11
5746.5913388342187318
 21
432.1940114096507273
 31
0.0
  0
LINE
  5
2D46F
  8
0
 10
5780.3314963145203365
 20
432.1940114096507273
 30
0.0
 11
5768.4417325350195824
 21
432.1940114096507273
 31
0.0
  0
LINE
  5
2D470
  8
0
 10
5768.3236222988198278
 20
432.1940114096507273
 30
0.0
 11
5757.5165356846191571
 21
432.1940114096507273
 31
0.0
  0
LINE
  5
2D471
  8
0
 10
5757.3984254484194025
 20
432.1940114096507273
 30
0.0
 11
5746.5913388342187318
 21
432.1940114096507273
 31
0.0
  0
LINE
  5
2D472
  8
0
 10
5746.4929136373193614
 20
431.7609405435507028
 30
0.0
 11
5746.5913388342187318
 21
431.7609405435507028
 31
0.0
  0
LINE
  5
2D473
  8
0
 10
5746.4929136373193614
 20
429.9412948742506728
 30
0.0
 11
5746.5387813641191315
 21
429.9412948742506728
 31
0.0
  0
ARC
  5
2D474
  8
0
 10
5746.5387813641191315
 20
429.9362950667003247
 30
0.0
 40
0.0049998075504316
 50
19.5229793286392912
 51
90.0
  0
ARC
  5
2D475
  8
0
 10
5746.5529389356379397
 20
429.9413149167647248
 30
0.0
 40
0.0100213683676464
 50
199.522979328636211
 51
266.8615554679058732
  0
ARC
  5
2D476
  8
0
 10
5746.6506736411638485
 20
431.7237852998197809
 30
0.0
 40
1.795169188334701
 50
266.8615554679058732
 51
267.1384456072399871
  0
ARC
  5
2D477
  8
0
 10
5746.5580921242226395
 20
429.8716034939614019
 30
0.0
 40
0.0593250228270465
 50
55.9154072082180633
 51
87.138445607240115
  0
LINE
  5
2D478
  8
0
 10
5746.4929136373193614
 20
429.3950697879507175
 30
0.0
 11
5746.5387814391197026
 21
429.3950697877506855
 31
0.0
  0
ARC
  5
2D479
  8
0
 10
5746.5510584959138214
 20
429.412895949197889
 30
0.0
 40
0.0216448182124637
 50
235.444424343007114
 51
272.8338114215599148
  0
ARC
  5
2D47A
  8
0
 10
5745.9304595307949057
 20
398.0617587173222773
 30
0.0
 40
31.3356861394033892
 50
88.8467291619759862
 51
88.8632337398897647
  0
ARC
  5
2D47B
  8
0
 10
5746.5594055960546029
 20
429.2725494983188241
 30
0.0
 40
0.1185606065855737
 50
74.3749407921715857
 51
89.1553573352815363
  0
LINE
  5
2D47C
  8
0
 10
5746.5434937229556454
 20
429.3997428003596042
 30
0.0
 11
5746.5434937229556454
 21
429.9379663030376832
 31
0.0
  0
ARC
  5
2D47D
  8
0
 10
5746.5380499769053131
 20
429.4005198459058192
 30
0.0
 40
0.0054989245190149
 50
277.644091965206826
 51
351.876421314186473
  0
LINE
  5
2D47E
  8
0
 10
5746.4929136373193614
 20
429.3810948742507776
 30
0.0
 11
5746.5229373987203871
 21
429.3810906649794106
 31
0.0
  0
ARC
  5
2D47F
  8
0
 10
5746.5511394979057513
 20
429.4854916081390002
 30
0.0
 40
0.1081430318196126
 50
254.8833434179898916
 51
268.2906377333055161
  0
ARC
  5
2D480
  8
0
 10
5746.5500911546823772
 20
429.2542037250869953
 30
0.0
 40
0.1232122179910182
 50
81.6830654050332754
 51
91.0126353713363585
  0
ARC
  5
2D481
  8
0
 10
5746.5636522897812029
 20
429.3587244267833967
 30
0.0
 40
0.0179100410810406
 50
37.2239945895616486
 51
76.2355628142768751
  0
LINE
  5
2D482
  8
0
 10
5746.5779136373193978
 20
429.3695587951506809
 30
0.0
 11
5746.5779136373193978
 21
429.2412948742506842
 31
0.0
  0
LINE
  5
2D483
  8
0
 10
5746.4929136373193614
 20
429.2412948742506842
 30
0.0
 11
5746.5913388341195969
 21
429.2412948742506842
 31
0.0
  0
LINE
  5
2D484
  8
0
 10
5746.5913388341195969
 20
429.2012948742507774
 30
0.0
 11
5746.4929136373193614
 21
429.2012948742507774
 31
0.0
  0
LINE
  5
2D485
  8
0
 10
5746.4929136373193614
 20
429.2612948742507228
 30
0.0
 11
5746.5229225970188054
 21
429.2612948742507228
 31
0.0
  0
ARC
  5
2D486
  8
0
 10
5746.5530395041259908
 20
429.3016147420448192
 30
0.0
 40
0.0503261346876431
 50
233.2421240967001097
 51
266.8759572364219821
  0
ARC
  5
2D487
  8
0
 10
5746.48218827817891
 20
427.9103337371219027
 30
0.0
 40
1.3427581041564629
 50
86.7223632382097946
 51
87.0925452847833839
  0
ARC
  5
2D488
  8
0
 10
5746.5578906496193667
 20
429.2309511372507131
 30
0.0
 40
0.0199728580000033
 50
31.2377990240964394
 51
86.9320258830922654
  0
LINE
  5
2D489
  8
0
 10
5746.5913388341195969
 20
429.3049701330506878
 30
0.0
 11
5746.5779136373193978
 21
429.3049701330506878
 31
0.0
  0
LINE
  5
2D48A
  8
0
 10
5746.5913388341195969
 20
429.2909483792507785
 30
0.0
 11
5746.5779136373193978
 21
429.2909483792507785
 31
0.0
  0
LINE
  5
2D48B
  8
0
 10
5746.5229265559883061
 20
429.2613001646429893
 30
0.0
 11
5746.5229225970188054
 21
429.3810948742507776
 31
0.0
  0
LINE
  5
2D48C
  8
0
 10
5746.5479136373196525
 20
429.3773967000507241
 30
0.0
 11
5746.5479136373196525
 21
429.3587161340507237
 31
0.0
  0
ARC
  5
2D48D
  8
0
 10
5746.5779136372193534
 20
429.3587161340507237
 30
0.0
 40
0.0299999998993181
 50
180.0
 51
250.528779501494995
  0
ARC
  5
2D48E
  8
0
 10
5746.5629136373700021
 20
429.3162897272862892
 30
0.0
 40
0.0149999999496595
 50
359.9999998640346917
 51
70.528779501494995
  0
LINE
  5
2D48F
  8
0
 10
5746.5556424267197144
 20
429.2412948742506842
 30
0.0
 11
5746.5556424267197144
 21
429.2510832471851927
 31
0.0
  0
LINE
  5
2D490
  8
0
 10
5746.5913388341195969
 20
429.0958653026506795
 30
0.0
 11
5746.5191904274197441
 21
429.002967736650703
 31
0.0
  0
ARC
  5
2D491
  8
0
 10
5746.6331963634593194
 20
428.9262948742007211
 30
0.0
 40
0.1373902517962206
 50
146.0778288187146075
 51
213.9221711812853925
  0
LINE
  5
2D492
  8
0
 10
5746.5191904274197441
 20
428.8496220117506823
 30
0.0
 11
5746.5913388341195969
 21
428.7567244457507059
 31
0.0
  0
LINE
  5
2D493
  8
0
 10
5746.5913388341195969
 20
428.8137850519507879
 30
0.0
 11
5746.5468329262193947
 21
428.8710904132507267
 31
0.0
  0
ARC
  5
2D494
  8
0
 10
5746.6179136373211804
 20
428.9262948742289723
 30
0.0
 40
0.090000000014216
 50
142.1654873456436121
 51
217.8345126463898964
  0
LINE
  5
2D495
  8
0
 10
5746.5468329262266707
 20
428.9814993352172223
 30
0.0
 11
5746.5913388341195969
 21
429.0388046964911268
 31
0.0
  0
LINE
  5
2D496
  8
0
 10
5746.4929136373193614
 20
427.9112948742507001
 30
0.0
 11
5746.5387813641191315
 21
427.9112948742507001
 31
0.0
  0
ARC
  5
2D497
  8
0
 10
5746.5387813641191315
 20
427.9162946818011051
 30
0.0
 40
0.0049998075504316
 50
270.0
 51
340.4770206713607195
  0
ARC
  5
2D498
  8
0
 10
5746.5529389356379397
 20
427.911274831736705
 30
0.0
 40
0.0100213683676464
 50
93.1384445320940841
 51
160.477020671363789
  0
ARC
  5
2D499
  8
0
 10
5746.6506736411638485
 20
426.128804448681592
 30
0.0
 40
1.795169188334701
 50
92.8615543927599134
 51
93.1384445320940841
  0
ARC
  5
2D49A
  8
0
 10
5746.5580921242226395
 20
427.9809862545400847
 30
0.0
 40
0.0593250228270465
 50
272.8615543927598992
 51
304.0845927917819722
  0
LINE
  5
2D49B
  8
0
 10
5746.4929136373193614
 20
428.4575199605507123
 30
0.0
 11
5746.5387814391197026
 21
428.4575199607506875
 31
0.0
  0
ARC
  5
2D49C
  8
0
 10
5746.5510584959138214
 20
428.439693799303484
 30
0.0
 40
0.0216448182124637
 50
87.1661885784400567
 51
124.5555756569929002
  0
ARC
  5
2D49D
  8
0
 10
5745.9304595307949057
 20
459.7908310311792093
 30
0.0
 40
31.3356861394033892
 50
271.1367662601102211
 51
271.1532708380240138
  0
ARC
  5
2D49E
  8
0
 10
5746.5594055960546029
 20
428.5800402501826056
 30
0.0
 40
0.1185606065855737
 50
270.8446426647184921
 51
285.6250592078283717
  0
ARC
  5
2D49F
  8
0
 10
5746.5380499769053131
 20
428.4520699025957242
 30
0.0
 40
0.0054989245190149
 50
8.1235786858135075
 51
82.3559080347932451
  0
LINE
  5
2D4A0
  8
0
 10
5746.4929136373193614
 20
428.471494874250709
 30
0.0
 11
5746.5229373987203871
 21
428.471499083522076
 31
0.0
  0
ARC
  5
2D4A1
  8
0
 10
5746.5511394979057513
 20
428.3670981403623728
 30
0.0
 40
0.1081430318196126
 50
91.7093622666944555
 51
105.1166565820100942
  0
ARC
  5
2D4A2
  8
0
 10
5746.5500911546823772
 20
428.5983860234143776
 30
0.0
 40
0.1232122179910182
 50
268.9873646286636131
 51
278.3169345949667104
  0
ARC
  5
2D4A3
  8
0
 10
5746.5636522897812029
 20
428.4938653217179763
 30
0.0
 40
0.0179100410810406
 50
283.7644371857231249
 51
322.7760054104384153
  0
LINE
  5
2D4A4
  8
0
 10
5746.5779136373193978
 20
428.483030953350692
 30
0.0
 11
5746.5779136373193978
 21
428.6112948742506887
 31
0.0
  0
LINE
  5
2D4A5
  8
0
 10
5746.4929136373193614
 20
428.6112948742506887
 30
0.0
 11
5746.5913388341195969
 21
428.6112948742506887
 31
0.0
  0
LINE
  5
2D4A6
  8
0
 10
5746.5913388341195969
 20
428.6512948742507092
 30
0.0
 11
5746.4929136373193614
 21
428.6512948742507092
 31
0.0
  0
LINE
  5
2D4A7
  8
0
 10
5746.4929136373193614
 20
428.5912948742507069
 30
0.0
 11
5746.5229225970188054
 21
428.5912948742507069
 31
0.0
  0
ARC
  5
2D4A8
  8
0
 10
5746.5530395041259908
 20
428.5509750064567811
 30
0.0
 40
0.0503261346876431
 50
93.1240427635780037
 51
126.7578759032999045
  0
ARC
  5
2D4A9
  8
0
 10
5746.48218827817891
 20
429.9422560113795839
 30
0.0
 40
1.3427581041564629
 50
272.9074547152166019
 51
273.2776367617901769
  0
ARC
  5
2D4AA
  8
0
 10
5746.5578906496193667
 20
428.6216386112507166
 30
0.0
 40
0.0199728580000033
 50
273.067974116907692
 51
328.7622009759036246
  0
LINE
  5
2D4AB
  8
0
 10
5746.5913388341195969
 20
428.5476196154506852
 30
0.0
 11
5746.5779136373193978
 21
428.5476196154506852
 31
0.0
  0
LINE
  5
2D4AC
  8
0
 10
5746.5913388341195969
 20
428.5616413692507081
 30
0.0
 11
5746.5779136373193978
 21
428.5616413692507081
 31
0.0
  0
LINE
  5
2D4AD
  8
0
 10
5746.5229265559883061
 20
428.5912895838583836
 30
0.0
 11
5746.5229225970188054
 21
428.471494874250709
 31
0.0
  0
LINE
  5
2D4AE
  8
0
 10
5746.5479136373196525
 20
428.4751930484508193
 30
0.0
 11
5746.5479136373196525
 21
428.4938736144507061
 31
0.0
  0
ARC
  5
2D4AF
  8
0
 10
5746.5779136372193534
 20
428.4938736144507061
 30
0.0
 40
0.0299999998993181
 50
109.471220498505005
 51
180.0
  0
ARC
  5
2D4B0
  8
0
 10
5746.5629136373700021
 20
428.5363000212150837
 30
0.0
 40
0.0149999999496595
 50
289.4712204985049766
 51
0.0000001359653031
  0
LINE
  5
2D4B1
  8
0
 10
5746.5556424267197144
 20
428.6112948742506887
 30
0.0
 11
5746.5556424267197144
 21
428.6015065013161802
 31
0.0
  0
LINE
  5
2D4B2
  8
0
 10
5746.5434938408197922
 20
428.4528460251506772
 30
0.0
 11
5746.5434938408197922
 21
427.9146237779297053
 31
0.0
  0
LINE
  5
2D4B3
  8
0
 10
5746.4929136373193614
 20
423.1585783387507149
 30
0.0
 11
5746.5913388342187318
 21
423.1585783387507149
 31
0.0
  0
LINE
  5
2D4B4
  8
0
 10
5746.4929136373193614
 20
422.9617279450507112
 30
0.0
 11
5746.5913388342187318
 21
422.9617279450507112
 31
0.0
  0
LINE
  5
2D4B5
  8
0
 10
5746.4929136373193614
 20
422.9223578663506942
 30
0.0
 11
5746.5913388342187318
 21
422.9223578663506942
 31
0.0
  0
LINE
  5
2D4B6
  8
0
 10
5746.4929136373193614
 20
415.4309469628838087
 30
0.0
 11
5746.5387813641191315
 21
415.4309469628838087
 31
0.0
  0
ARC
  5
2D4B7
  8
0
 10
5746.5387813641191315
 20
415.4359467704343274
 30
0.0
 40
0.0049998075504316
 50
270.0
 51
340.4770206713607195
  0
ARC
  5
2D4B8
  8
0
 10
5746.5529389356379397
 20
415.4309269203698136
 30
0.0
 40
0.0100213683676464
 50
93.1384445320940841
 51
160.477020671363789
  0
ARC
  5
2D4B9
  8
0
 10
5746.6506736411638485
 20
413.6484565373147007
 30
0.0
 40
1.795169188334701
 50
92.8615543927599134
 51
93.1384445320940841
  0
ARC
  5
2D4BA
  8
0
 10
5746.5580921242226395
 20
415.5006383431731933
 30
0.0
 40
0.0593250228270465
 50
272.8615543927598992
 51
304.0845927917819722
  0
LINE
  5
2D4BB
  8
0
 10
5746.4929136373193614
 20
415.9771720491838209
 30
0.0
 11
5746.5387814391197026
 21
415.9771720493837961
 31
0.0
  0
ARC
  5
2D4BC
  8
0
 10
5746.5510584959138214
 20
415.9593458879365926
 30
0.0
 40
0.0216448182124637
 50
87.1661885784400567
 51
124.5555756569929002
  0
ARC
  5
2D4BD
  8
0
 10
5745.9304595307949057
 20
447.3104831198123179
 30
0.0
 40
31.3356861394033892
 50
271.1367662601102211
 51
271.1532708380240138
  0
ARC
  5
2D4BE
  8
0
 10
5746.5594055960546029
 20
416.0996923388156006
 30
0.0
 40
0.1185606065855737
 50
270.8446426647184921
 51
285.6250592078283717
  0
LINE
  5
2D4BF
  8
0
 10
5746.5434937229556454
 20
415.9724990367749911
 30
0.0
 11
5746.5434937229556454
 21
415.434275534096912
 31
0.0
  0
ARC
  5
2D4C0
  8
0
 10
5746.5380499769053131
 20
415.971721991228776
 30
0.0
 40
0.0054989245190149
 50
8.1235786858135075
 51
82.3559080347932451
  0
LINE
  5
2D4C1
  8
0
 10
5746.4929136373193614
 20
415.9911469628838745
 30
0.0
 11
5746.5229373987203871
 21
415.9911511721551847
 31
0.0
  0
ARC
  5
2D4C2
  8
0
 10
5746.5511394979057513
 20
415.8867502289955951
 30
0.0
 40
0.1081430318196126
 50
91.7093622666944555
 51
105.1166565820100942
  0
ARC
  5
2D4C3
  8
0
 10
5746.5500911546823772
 20
416.1180381120474863
 30
0.0
 40
0.1232122179910182
 50
268.9873646286636131
 51
278.3169345949667104
  0
ARC
  5
2D4C4
  8
0
 10
5746.5636522897812029
 20
416.013517410351028
 30
0.0
 40
0.0179100410810406
 50
283.7644371857231249
 51
322.7760054104384153
  0
LINE
  5
2D4C5
  8
0
 10
5746.5779136373193978
 20
416.0026830419838006
 30
0.0
 11
5746.5779136373193978
 21
416.1309469628837974
 31
0.0
  0
LINE
  5
2D4C6
  8
0
 10
5746.4929136373193614
 20
416.1309469628837974
 30
0.0
 11
5746.5913388341195969
 21
416.1309469628837974
 31
0.0
  0
LINE
  5
2D4C7
  8
0
 10
5746.5913388341195969
 20
416.1709469628838747
 30
0.0
 11
5746.4929136373193614
 21
416.1709469628838747
 31
0.0
  0
LINE
  5
2D4C8
  8
0
 10
5746.4929136373193614
 20
416.1109469628838156
 30
0.0
 11
5746.5229225970188054
 21
416.1109469628838156
 31
0.0
  0
ARC
  5
2D4C9
  8
0
 10
5746.5530395041259908
 20
416.0706270950898897
 30
0.0
 40
0.0503261346876431
 50
93.1240427635780037
 51
126.7578759032999045
  0
ARC
  5
2D4CA
  8
0
 10
5746.48218827817891
 20
417.4619081000125789
 30
0.0
 40
1.3427581041564629
 50
272.9074547152166019
 51
273.2776367617901769
  0
ARC
  5
2D4CB
  8
0
 10
5746.5578906496193667
 20
416.1412906998838821
 30
0.0
 40
0.0199728580000033
 50
273.067974116907692
 51
328.7622009759036246
  0
LINE
  5
2D4CC
  8
0
 10
5746.5913388341195969
 20
416.0672717040837938
 30
0.0
 11
5746.5779136373193978
 21
416.0672717040837938
 31
0.0
  0
LINE
  5
2D4CD
  8
0
 10
5746.5913388341195969
 20
416.0812934578838735
 30
0.0
 11
5746.5779136373193978
 21
416.0812934578838735
 31
0.0
  0
LINE
  5
2D4CE
  8
0
 10
5746.5229265559883061
 20
416.1109416724916059
 30
0.0
 11
5746.5229225970188054
 21
415.9911469628838745
 31
0.0
  0
LINE
  5
2D4CF
  8
0
 10
5746.5479136373196525
 20
415.9948451370838143
 30
0.0
 11
5746.5479136373196525
 21
416.0135257030838147
 31
0.0
  0
ARC
  5
2D4D0
  8
0
 10
5746.5779136372193534
 20
416.0135257030838147
 30
0.0
 40
0.0299999998993181
 50
109.471220498505005
 51
180.0
  0
ARC
  5
2D4D1
  8
0
 10
5746.5629136373700021
 20
416.0559521098481923
 30
0.0
 40
0.0149999999496595
 50
289.4712204985049766
 51
0.0000001359653031
  0
LINE
  5
2D4D2
  8
0
 10
5746.5556424267197144
 20
416.1309469628837974
 30
0.0
 11
5746.5556424267197144
 21
416.1211585899494025
 31
0.0
  0
LINE
  5
2D4D3
  8
0
 10
5746.5913388341195969
 20
416.2763765344839157
 30
0.0
 11
5746.5191904274197441
 21
416.3692741004837785
 31
0.0
  0
ARC
  5
2D4D4
  8
0
 10
5746.6331963634593194
 20
416.4459469629338173
 30
0.0
 40
0.1373902517962206
 50
146.0778288187146075
 51
213.9221711812853925
  0
LINE
  5
2D4D5
  8
0
 10
5746.5191904274197441
 20
416.5226198253837993
 30
0.0
 11
5746.5913388341195969
 21
416.6155173913837757
 31
0.0
  0
LINE
  5
2D4D6
  8
0
 10
5746.5913388341195969
 20
416.5584567851838074
 30
0.0
 11
5746.5468329262193947
 21
416.5011514238838117
 31
0.0
  0
ARC
  5
2D4D7
  8
0
 10
5746.6179136373211804
 20
416.4459469629055093
 30
0.0
 40
0.090000000014216
 50
142.1654873536099899
 51
217.8345126543563879
  0
LINE
  5
2D4D8
  8
0
 10
5746.5468329262266707
 20
416.3907425019173161
 30
0.0
 11
5746.5913388341195969
 21
416.3334371406435253
 31
0.0
  0
LINE
  5
2D4D9
  8
0
 10
5746.4929136373193614
 20
417.4609469628837815
 30
0.0
 11
5746.5387813641191315
 21
417.4609469628837815
 31
0.0
  0
ARC
  5
2D4DA
  8
0
 10
5746.5387813641191315
 20
417.4559471553333765
 30
0.0
 40
0.0049998075504316
 50
19.5229793286392912
 51
90.0
  0
ARC
  5
2D4DB
  8
0
 10
5746.5529389356379397
 20
417.4609670053977766
 30
0.0
 40
0.0100213683676464
 50
199.522979328636211
 51
266.8615554679058732
  0
ARC
  5
2D4DC
  8
0
 10
5746.6506736411638485
 20
419.2434373884528895
 30
0.0
 40
1.795169188334701
 50
266.8615554679058732
 51
267.1384456072399871
  0
ARC
  5
2D4DD
  8
0
 10
5746.5580921242226395
 20
417.3912555825943969
 30
0.0
 40
0.0593250228270465
 50
55.9154072082180633
 51
87.138445607240115
  0
LINE
  5
2D4DE
  8
0
 10
5746.4929136373193614
 20
416.9147218765838261
 30
0.0
 11
5746.5387814391197026
 21
416.9147218763837941
 31
0.0
  0
ARC
  5
2D4DF
  8
0
 10
5746.5510584959138214
 20
416.9325480378311113
 30
0.0
 40
0.0216448182124637
 50
235.444424343007114
 51
272.8338114215599148
  0
ARC
  5
2D4E0
  8
0
 10
5745.9304595307949057
 20
385.581410805955386
 30
0.0
 40
31.3356861394033892
 50
88.8467291619759862
 51
88.8632337398897647
  0
ARC
  5
2D4E1
  8
0
 10
5746.5594055960546029
 20
416.7922015869518759
 30
0.0
 40
0.1185606065855737
 50
74.3749407921715857
 51
89.1553573352815363
  0
ARC
  5
2D4E2
  8
0
 10
5746.5380499769053131
 20
416.9201719345389279
 30
0.0
 40
0.0054989245190149
 50
277.644091965206826
 51
351.876421314186473
  0
LINE
  5
2D4E3
  8
0
 10
5746.4929136373193614
 20
416.9007469628837725
 30
0.0
 11
5746.5229373987203871
 21
416.9007427536125192
 31
0.0
  0
ARC
  5
2D4E4
  8
0
 10
5746.5511394979057513
 20
417.0051436967721088
 30
0.0
 40
0.1081430318196126
 50
254.8833434179898916
 51
268.2906377333055161
  0
ARC
  5
2D4E5
  8
0
 10
5746.5500911546823772
 20
416.7738558137201039
 30
0.0
 40
0.1232122179910182
 50
81.6830654050332754
 51
91.0126353713363585
  0
ARC
  5
2D4E6
  8
0
 10
5746.5636522897812029
 20
416.878376515416619
 30
0.0
 40
0.0179100410810406
 50
37.2239945895616486
 51
76.2355628142768751
  0
LINE
  5
2D4E7
  8
0
 10
5746.5779136373193978
 20
416.8892108837837895
 30
0.0
 11
5746.5779136373193978
 21
416.7609469628837928
 31
0.0
  0
LINE
  5
2D4E8
  8
0
 10
5746.4929136373193614
 20
416.7609469628837928
 30
0.0
 11
5746.5913388341195969
 21
416.7609469628837928
 31
0.0
  0
LINE
  5
2D4E9
  8
0
 10
5746.5913388341195969
 20
416.7209469628837724
 30
0.0
 11
5746.4929136373193614
 21
416.7209469628837724
 31
0.0
  0
LINE
  5
2D4EA
  8
0
 10
5746.4929136373193614
 20
416.7809469628838883
 30
0.0
 11
5746.5229225970188054
 21
416.7809469628838883
 31
0.0
  0
ARC
  5
2D4EB
  8
0
 10
5746.5530395041259908
 20
416.8212668306778141
 30
0.0
 40
0.0503261346876431
 50
233.2421240967001097
 51
266.8759572364219821
  0
ARC
  5
2D4EC
  8
0
 10
5746.48218827817891
 20
415.4299858257550113
 30
0.0
 40
1.3427581041564629
 50
86.7223632382097946
 51
87.0925452847833839
  0
ARC
  5
2D4ED
  8
0
 10
5746.5578906496193667
 20
416.7506032258838218
 30
0.0
 40
0.0199728580000033
 50
31.2377990240964394
 51
86.9320258830922654
  0
LINE
  5
2D4EE
  8
0
 10
5746.5913388341195969
 20
416.8246222216837964
 30
0.0
 11
5746.5779136373193978
 21
416.8246222216837964
 31
0.0
  0
LINE
  5
2D4EF
  8
0
 10
5746.5913388341195969
 20
416.8106004678837735
 30
0.0
 11
5746.5779136373193978
 21
416.8106004678837735
 31
0.0
  0
LINE
  5
2D4F0
  8
0
 10
5746.5229265559883061
 20
416.7809522532762116
 30
0.0
 11
5746.5229225970188054
 21
416.9007469628837725
 31
0.0
  0
LINE
  5
2D4F1
  8
0
 10
5746.5479136373196525
 20
416.8970487886838896
 30
0.0
 11
5746.5479136373196525
 21
416.8783682226837755
 31
0.0
  0
ARC
  5
2D4F2
  8
0
 10
5746.5779136372193534
 20
416.8783682226837755
 30
0.0
 40
0.0299999998993181
 50
180.0
 51
250.528779501494995
  0
ARC
  5
2D4F3
  8
0
 10
5746.5629136373700021
 20
416.8359418159193979
 30
0.0
 40
0.0149999999496595
 50
359.9999998640346917
 51
70.528779501494995
  0
LINE
  5
2D4F4
  8
0
 10
5746.5556424267197144
 20
416.7609469628837928
 30
0.0
 11
5746.5556424267197144
 21
416.7707353358183013
 31
0.0
  0
LINE
  5
2D4F5
  8
0
 10
5746.5434938408197922
 20
416.9193958119838044
 30
0.0
 11
5746.5434938408197922
 21
417.4576180592047763
 31
0.0
  0
LINE
  5
2D4F6
  8
0
 10
5746.5913388342187318
 20
413.1782633781506888
 30
0.0
 11
5757.3984254484194025
 21
413.1782633781506888
 31
0.0
  0
LINE
  5
2D4F7
  8
0
 10
5757.5165356846191571
 20
413.1782633781506888
 30
0.0
 11
5768.3236222988198278
 21
413.1782633781506888
 31
0.0
  0
LINE
  5
2D4F8
  8
0
 10
5768.4417325350195824
 20
413.1782633781506888
 30
0.0
 11
5802.1818900153193681
 21
413.1782633781506888
 31
0.0
  0
LINE
  5
2D4F9
  8
0
 10
5746.4929136373193614
 20
421.3475547167507216
 30
0.0
 11
5746.5913388342187318
 21
421.3475547167507216
 31
0.0
  0
LINE
  5
2D4FA
  8
0
 10
5757.3984254484194025
 20
432.1940114096507273
 30
0.0
 11
5757.3984254484194025
 21
413.1782633781506888
 31
0.0
  0
LINE
  5
2D4FB
  8
0
 10
5757.5165356846191571
 20
432.1940114096507273
 30
0.0
 11
5757.5165356846191571
 21
413.1782633781506888
 31
0.0
  0
LINE
  5
2D4FC
  8
0
 10
5757.5165356846191571
 20
431.7609405435507028
 30
0.0
 11
5757.3984254484194025
 21
431.7609405435507028
 31
0.0
  0
LINE
  5
2D4FD
  8
0
 10
5757.5165356846191571
 20
422.9223578663506942
 30
0.0
 11
5757.3984254484194025
 21
422.9223578663506942
 31
0.0
  0
LINE
  5
2D4FE
  8
0
 10
5757.5165356846191571
 20
422.3318066852507968
 30
0.0
 11
5757.3984254484194025
 21
422.3318066852507968
 31
0.0
  0
LINE
  5
2D4FF
  8
0
 10
5757.5165356846191571
 20
421.3475547167507216
 30
0.0
 11
5757.3984254484194025
 21
421.3475547167507216
 31
0.0
  0
LINE
  5
2D500
  8
0
 10
5757.5165356846191571
 20
415.6388932994507854
 30
0.0
 11
5757.3984254484194025
 21
415.6388932994507854
 31
0.0
  0
LINE
  5
2D501
  8
0
 10
5768.3236222988198278
 20
440.8160586537507015
 30
0.0
 11
5768.3236222988198278
 21
432.5089720396507005
 31
0.0
  0
LINE
  5
2D502
  8
0
 10
5768.3236222988198278
 20
432.1940114096507273
 30
0.0
 11
5768.3236222988198278
 21
413.1782633781506888
 31
0.0
  0
LINE
  5
2D503
  8
0
 10
5768.4417325350195824
 20
440.8160586537507015
 30
0.0
 11
5768.4417325350195824
 21
432.5089720396507005
 31
0.0
  0
LINE
  5
2D504
  8
0
 10
5768.4417325350195824
 20
432.1940114096507273
 30
0.0
 11
5768.4417325350195824
 21
413.1782633781508025
 31
0.0
  0
LINE
  5
2D505
  8
0
 10
5746.4929136373193614
 20
432.5089720396507005
 30
0.0
 11
5802.2803152122196479
 21
432.5089720396507005
 31
0.0
  0
LINE
  5
2D506
  8
0
 10
5768.3236222988198278
 20
431.7609405435507028
 30
0.0
 11
5768.4417325350195824
 21
431.7609405435507028
 31
0.0
  0
LINE
  5
2D507
  8
0
 10
5767.2606301728192193
 20
413.1782633781506888
 30
0.0
 11
5767.2606301728192193
 21
413.1192082600506978
 31
0.0
  0
LINE
  5
2D508
  8
0
 10
5767.2606301728192193
 20
413.1192082600506978
 30
0.0
 11
5768.0086616689186485
 21
413.1192082600506978
 31
0.0
  0
LINE
  5
2D509
  8
0
 10
5768.0086616689186485
 20
413.0798381813507945
 30
0.0
 11
5768.0086616689186485
 21
413.1782633781508025
 31
0.0
  0
LINE
  5
2D50A
  8
0
 10
5768.1070868657197934
 20
413.0798381813507945
 30
0.0
 11
5768.0283467082199422
 21
413.1192082600506978
 31
0.0
  0
LINE
  5
2D50B
  8
0
 10
5768.0283467082199422
 20
413.1192082600506978
 30
0.0
 11
5768.7370081256185586
 21
413.1192082600506978
 31
0.0
  0
LINE
  5
2D50C
  8
0
 10
5768.7370081256185586
 20
413.0798381813507945
 30
0.0
 11
5768.7370081256185586
 21
413.1782633781506888
 31
0.0
  0
LINE
  5
2D50D
  8
0
 10
5768.0283467082199422
 20
413.1192082600506978
 30
0.0
 11
5768.0283467082199422
 21
413.1782633781506888
 31
0.0
  0
LINE
  5
2D50E
  8
0
 10
5769.7212600941193159
 20
413.1782633781506888
 30
0.0
 11
5769.7212600941193159
 21
413.0798381813507945
 31
0.0
  0
LINE
  5
2D50F
  8
0
 10
5772.8118112752199522
 20
413.1782633781506888
 30
0.0
 11
5772.8118112752199522
 21
413.0798381813507945
 31
0.0
  0
LINE
  5
2D510
  8
0
 10
5746.4929136373193614
 20
440.9144838506506971
 30
0.0
 11
5802.2803152122196479
 21
440.9144838506506971
 31
0.0
  0
LINE
  5
2D511
  8
0
 10
5746.5913388342187318
 20
440.8160586537507015
 30
0.0
 11
5802.1818900153193681
 21
440.8160586537507015
 31
0.0
  0
LINE
  5
2D512
  8
0
 10
5746.5913388342187318
 20
440.8160586537507015
 30
0.0
 11
5746.5913388342187318
 21
432.5089720396507005
 31
0.0
  0
LINE
  5
2D513
  8
0
 10
5748.2131123086437583
 20
440.9144838506506971
 30
0.0
 11
5748.2464155589195798
 21
440.8160586537507015
 31
0.0
  0
LINE
  5
2D514
  8
0
 10
5748.796853602378178
 20
440.9144838506506971
 30
0.0
 11
5748.8629625261683032
 21
440.8160586537507015
 31
0.0
  0
LINE
  5
2D515
  8
0
 10
5749.7949066100445634
 20
440.9144838506506971
 30
0.0
 11
5749.8674660406941257
 21
440.8160586537507015
 31
0.0
  0
LINE
  5
2D516
  8
0
 10
5755.8143407287761875
 20
440.9144838506506971
 30
0.0
 11
5755.8196110263806986
 21
440.8160586537507015
 31
0.0
  0
LINE
  5
2D517
  8
0
 10
5756.1218834448191046
 20
440.9144838506506971
 30
0.0
 11
5756.1270416907200342
 21
440.8160586537507015
 31
0.0
  0
LINE
  5
2D518
  8
0
 10
5756.7000740331359339
 20
440.9144838506506971
 30
0.0
 11
5756.7049404544923163
 21
440.8160586537507015
 31
0.0
  0
LINE
  5
2D519
  8
0
 10
5758.2148858877935709
 20
440.9144838506506971
 30
0.0
 11
5758.210020646330122
 21
440.8160586537507015
 31
0.0
  0
LINE
  5
2D51A
  8
0
 10
5758.7930776883204089
 20
440.9144838506506971
 30
0.0
 11
5758.7879194423194349
 21
440.8160586537507015
 31
0.0
  0
LINE
  5
2D51B
  8
0
 10
5759.1006204042269019
 20
440.9144838506506971
 30
0.0
 11
5759.0953501067124307
 21
440.8160586537507015
 31
0.0
  0
LINE
  5
2D51C
  8
0
 10
5760.0165356846191571
 20
440.9144838506506971
 30
0.0
 11
5760.0165356846191571
 21
440.8160586537507015
 31
0.0
  0
LINE
  5
2D51D
  8
0
 10
5762.7724411964200044
 20
440.8160586537507015
 30
0.0
 11
5762.7724411964200044
 21
440.9144838506506971
 31
0.0
  0
LINE
  5
2D51E
  8
0
 10
5765.1198342772322576
 20
440.9144838506506971
 30
0.0
 11
5765.0476931840712496
 21
440.8160586537507015
 31
0.0
  0
LINE
  5
2D51F
  8
0
 10
5766.1179013406308513
 20
440.9144838506506971
 30
0.0
 11
5766.0522655561762804
 21
440.8160586537507015
 31
0.0
  0
LINE
  5
2D520
  8
0
 10
5766.7011473243046566
 20
440.9144838506506971
 30
0.0
 11
5766.6689909956512565
 21
440.8160586537507015
 31
0.0
  0
LINE
  5
2D521
  8
0
 10
5767.2606301728192193
 20
440.9144838506506971
 30
0.0
 11
5767.2606301728192193
 21
440.8160586537507015
 31
0.0
  0
LINE
  5
2D522
  8
0
 10
5768.0086616689186485
 20
440.9144838506506971
 30
0.0
 11
5768.0086616689186485
 21
440.8160586537507015
 31
0.0
  0
LINE
  5
2D523
  8
0
 10
5768.0283467082199422
 20
440.9144838506506971
 30
0.0
 11
5768.0283467082199422
 21
440.8160586537507015
 31
0.0
  0
LINE
  5
2D524
  8
0
 10
5768.7370081256185586
 20
440.9144838506506971
 30
0.0
 11
5768.7370081256185586
 21
440.8160586537507015
 31
0.0
  0
LINE
  5
2D525
  8
0
 10
5746.5329136373702568
 20
439.3296807010506768
 30
0.0
 11
5746.5329136373702568
 21
438.1685783388506934
 31
0.0
  0
LINE
  5
2D526
  8
0
 10
5746.5229136373700385
 20
439.3396807010507814
 30
0.0
 11
5746.4929136373193614
 21
439.3396807010507814
 31
0.0
  0
LINE
  5
2D527
  8
0
 10
5746.5229136373700385
 20
438.1585783388508162
 30
0.0
 11
5746.4929136373193614
 21
438.1585783388508162
 31
0.0
  0
ARC
  5
2D528
  8
0
 10
5746.4934542623695961
 20
438.3554287325507062
 30
0.0
 40
0.1594593749999347
 50
284.3270949316842007
 51
307.8686044578552128
  0
ARC
  5
2D529
  8
0
 10
5746.4934542623695961
 20
438.3554287325508199
 30
0.0
 40
0.1594593749999221
 50
52.1313955421448014
 51
75.6729050683157425
  0
ARC
  5
2D52A
  8
0
 10
5746.5022049759691072
 20
438.7267374435508032
 30
0.0
 40
0.2078740157001794
 50
282.8577248793278045
 51
295.3906604549063104
  0
ARC
  5
2D52B
  8
0
 10
5746.5529141376373445
 20
438.5045764925110916
 30
0.0
 40
0.0200007464913619
 50
102.8577248793278045
 51
164.9998078066342089
  0
ARC
  5
2D52C
  8
0
 10
5746.5062920875279815
 20
438.7826313689158155
 30
0.0
 40
0.1960517062609009
 50
64.2911962527100229
 51
77.5784398773619301
  0
ARC
  5
2D52D
  8
0
 10
5746.5535894610120522
 20
438.9950781281696095
 30
0.0
 40
0.0216013825114247
 50
196.8330145706665064
 51
256.2725188351849965
  0
ARC
  5
2D52E
  8
0
 10
5746.4934542623695961
 20
439.1428303073507777
 30
0.0
 40
0.15945937500008
 50
284.3802797894239802
 51
307.8686044578552128
  0
ARC
  5
2D52F
  8
0
 10
5746.4934542623695961
 20
439.1428303073507209
 30
0.0
 40
0.1594593750000291
 50
52.1313955421448014
 51
75.6729050683157425
  0
ARC
  5
2D530
  8
0
 10
5746.5229136373700385
 20
439.3296807010506768
 30
0.0
 40
0.01
 50
359.9999999999805027
 51
90.0
  0
ARC
  5
2D531
  8
0
 10
5746.522913637369129
 20
438.1685783388506934
 30
0.0
 40
0.01
 50
270.0
 51
359.9999999999902229
  0
LINE
  5
2D532
  8
0
 10
5746.5913388342187318
 20
437.3318066852506831
 30
0.0
 11
5746.4929136373193614
 21
437.3318066852506831
 31
0.0
  0
LINE
  5
2D533
  8
0
 10
5756.1488195040192295
 20
429.1575940868507928
 30
0.0
 11
5755.6559053867204057
 21
429.1575940868507928
 31
0.0
  0
ARC
  5
2D534
  8
0
 10
5755.6559053867204057
 20
429.1275940868508201
 30
0.0
 40
0.0299999999999994
 50
90.0
 51
134.9971257199082117
  0
LINE
  5
2D535
  8
0
 10
5755.6346932474843925
 20
429.1488083544336973
 30
0.0
 11
5755.2861317684119058
 21
428.8002818452346787
 31
0.0
  0
ARC
  5
2D536
  8
0
 10
5755.3069414047067767
 20
428.7794701209768959
 30
0.0
 40
0.0294307463263295
 50
134.9971257199082117
 51
180.8473513417297056
  0
LINE
  5
2D537
  8
0
 10
5755.2775138768192846
 20
428.7790348834507199
 30
0.0
 11
5755.2773626198595593
 21
428.2860379595438189
 31
0.0
  0
ARC
  5
2D538
  8
0
 10
5755.3069480338072026
 20
428.2860706820741825
 30
0.0
 40
0.029585432043012
 50
180.0633711642311141
 51
225.4911798560007128
  0
LINE
  5
2D539
  8
0
 10
5755.2862080822187636
 20
428.2649720518506911
 30
0.0
 11
5755.63543191014287
 21
427.9156660965912238
 31
0.0
  0
ARC
  5
2D53A
  8
0
 10
5755.6554954639414063
 20
427.9371057145349937
 30
0.0
 40
0.0293633003707343
 50
226.8989824879172943
 51
270.8316528035059036
  0
LINE
  5
2D53B
  8
0
 10
5755.6559216596197075
 20
427.9077455073506826
 30
0.0
 11
5756.1488205199202639
 21
427.9075940868507928
 31
0.0
  0
ARC
  5
2D53C
  8
0
 10
5756.1488195258089036
 20
427.9375940871643138
 30
0.0
 40
0.0300000003300266
 50
270.001898611975605
 51
314.9985567443494006
  0
LINE
  5
2D53D
  8
0
 10
5756.1700321951193473
 20
427.9163803491506997
 30
0.0
 11
5756.5185844393163279
 21
428.2649150340326969
 31
0.0
  0
ARC
  5
2D53E
  8
0
 10
5756.4973942173528485
 20
428.2861063235678216
 30
0.0
 40
0.0299682541869731
 50
314.9985567443494006
 51
0.057753446997193
  0
LINE
  5
2D53F
  8
0
 10
5756.5273624563160411
 20
428.2861365311974282
 30
0.0
 11
5756.527362456319679
 21
428.7790521504506955
 31
0.0
  0
ARC
  5
2D540
  8
0
 10
5756.4973828755255454
 20
428.7790552181260182
 30
0.0
 40
0.0299795809500056
 50
359.9941371814297781
 51
45.0178431774994223
  0
LINE
  5
2D541
  8
0
 10
5756.5185750377204386
 20
428.8002605838506724
 30
0.0
 11
5756.1706352788178265
 21
429.1482047408524068
 31
0.0
  0
ARC
  5
2D542
  8
0
 10
5756.1487436932729906
 20
429.1273792247758934
 30
0.0
 40
0.0302149571813346
 50
43.5703944663965075
 51
89.8562420494857435
  0
LINE
  5
2D543
  8
0
 10
5756.4873624563188059
 20
428.7749090208508278
 30
0.0
 11
5756.1446773903198846
 21
429.1175940868507155
 31
0.0
  0
LINE
  5
2D544
  8
0
 10
5756.1446773903198846
 20
429.1175940868507155
 30
0.0
 11
5755.660047522320383
 21
429.1175940868507155
 31
0.0
  0
LINE
  5
2D545
  8
0
 10
5755.660047522320383
 20
429.1175940868507155
 30
0.0
 11
5755.3173624563196427
 21
428.7749090208508278
 31
0.0
  0
LINE
  5
2D546
  8
0
 10
5755.3173624563196427
 20
428.7749090208508278
 30
0.0
 11
5755.3173624563196427
 21
428.2902791528507009
 31
0.0
  0
LINE
  5
2D547
  8
0
 10
5755.3173624563196427
 20
428.2902791528507009
 30
0.0
 11
5755.660047522320383
 21
427.9475940868506996
 31
0.0
  0
LINE
  5
2D548
  8
0
 10
5755.660047522320383
 20
427.9475940868506996
 30
0.0
 11
5756.1446773903198846
 21
427.9475940868506996
 31
0.0
  0
LINE
  5
2D549
  8
0
 10
5756.1446773903198846
 20
427.9475940868506996
 30
0.0
 11
5756.4873624563188059
 21
428.2902791528507009
 31
0.0
  0
LINE
  5
2D54A
  8
0
 10
5756.4873624563188059
 20
428.2902791528507009
 30
0.0
 11
5756.4873624563188059
 21
428.7749090208508278
 31
0.0
  0
LINE
  5
2D54B
  8
0
 10
5756.4873624563188059
 20
428.7749090208508278
 30
0.0
 11
5756.5250791971584476
 21
428.7905308027322917
 31
0.0
  0
LINE
  5
2D54C
  8
0
 10
5756.1446773903198846
 20
429.1175940868507155
 30
0.0
 11
5756.1606886327681423
 21
429.1551328201820183
 31
0.0
  0
LINE
  5
2D54D
  8
0
 10
5755.660047522320383
 20
429.1175940868507155
 30
0.0
 11
5755.6444248838051863
 21
429.155310472849294
 31
0.0
  0
LINE
  5
2D54E
  8
0
 10
5755.3173624563196427
 20
428.7749090208508278
 30
0.0
 11
5755.279668680008399
 21
428.7905320971456717
 31
0.0
  0
LINE
  5
2D54F
  8
0
 10
5755.3173624563196427
 20
428.2902791528507009
 30
0.0
 11
5755.2796697691856025
 21
428.2746166841524769
 31
0.0
  0
LINE
  5
2D550
  8
0
 10
5755.660047522320383
 20
427.9475940868506996
 30
0.0
 11
5755.6438050543147256
 21
427.9101699069279903
 31
0.0
  0
LINE
  5
2D551
  8
0
 10
5756.1446773903198846
 20
427.9475940868506996
 30
0.0
 11
5756.160300028895108
 21
427.9098777008794059
 31
0.0
  0
LINE
  5
2D552
  8
0
 10
5756.4873624563188059
 20
428.2902791528507009
 30
0.0
 11
5756.5250869062183483
 21
428.2746515759728823
 31
0.0
  0
LINE
  5
2D553
  8
0
 10
5759.2590557244702723
 20
429.1575940868507928
 30
0.0
 11
5758.7661416071696294
 21
429.1575940868507928
 31
0.0
  0
ARC
  5
2D554
  8
0
 10
5758.7661416071696294
 20
429.1275940868508201
 30
0.0
 40
0.0299999999999994
 50
90.0
 51
134.9971257199082117
  0
LINE
  5
2D555
  8
0
 10
5758.7449294679336163
 20
429.1488083544336973
 30
0.0
 11
5758.3963679888629486
 21
428.8002818452346787
 31
0.0
  0
ARC
  5
2D556
  8
0
 10
5758.4171776251578194
 20
428.7794701209768959
 30
0.0
 40
0.0294307463263295
 50
134.9971257199082117
 51
180.8473513417297056
  0
LINE
  5
2D557
  8
0
 10
5758.3877500972703274
 20
428.7790348834507199
 30
0.0
 11
5758.3875988403106021
 21
428.2860379595438189
 31
0.0
  0
ARC
  5
2D558
  8
0
 10
5758.4171842542573359
 20
428.2860706820741825
 30
0.0
 40
0.029585432043012
 50
180.0633711642311141
 51
225.4911798560007128
  0
LINE
  5
2D559
  8
0
 10
5758.3964443026698063
 20
428.2649720518506911
 30
0.0
 11
5758.7456681305920938
 21
427.9156660965912238
 31
0.0
  0
ARC
  5
2D55A
  8
0
 10
5758.7657316843906301
 20
427.9371057145349937
 30
0.0
 40
0.0293633003707343
 50
226.8989824879172943
 51
270.8316528035059036
  0
LINE
  5
2D55B
  8
0
 10
5758.7661578800698408
 20
427.9077455073506826
 30
0.0
 11
5759.2590567403685782
 21
427.9075940868507928
 31
0.0
  0
ARC
  5
2D55C
  8
0
 10
5759.2590557462590368
 20
427.9375940871643138
 30
0.0
 40
0.0300000003300266
 50
270.001898611975605
 51
314.9985567443494006
  0
LINE
  5
2D55D
  8
0
 10
5759.2802684155685711
 20
427.9163803491506997
 30
0.0
 11
5759.6288206597673707
 21
428.2649150340326969
 31
0.0
  0
ARC
  5
2D55E
  8
0
 10
5759.6076304378029818
 20
428.2861063235678216
 30
0.0
 40
0.0299682541869731
 50
314.9985567443494006
 51
0.057753446997193
  0
LINE
  5
2D55F
  8
0
 10
5759.6375986767652648
 20
428.2861365311974282
 30
0.0
 11
5759.6375986767698123
 21
428.7790521504506955
 31
0.0
  0
ARC
  5
2D560
  8
0
 10
5759.6076190959765881
 20
428.7790552181260182
 30
0.0
 40
0.0299795809500056
 50
359.9941371814297781
 51
45.0178431774994223
  0
LINE
  5
2D561
  8
0
 10
5759.6288112581696623
 20
428.8002605838506724
 30
0.0
 11
5759.2808714992670502
 21
429.1482047408524068
 31
0.0
  0
ARC
  5
2D562
  8
0
 10
5759.2589799137240334
 20
429.1273792247758934
 30
0.0
 40
0.0302149571813346
 50
43.5703944663965075
 51
89.8562420494857435
  0
LINE
  5
2D563
  8
0
 10
5759.5975986767689392
 20
428.7749090208508278
 30
0.0
 11
5759.2549136107700178
 21
429.1175940868507155
 31
0.0
  0
LINE
  5
2D564
  8
0
 10
5759.2549136107700178
 20
429.1175940868507155
 30
0.0
 11
5758.7702837427686973
 21
429.1175940868507155
 31
0.0
  0
LINE
  5
2D565
  8
0
 10
5758.7702837427686973
 20
429.1175940868507155
 30
0.0
 11
5758.4275986767697759
 21
428.7749090208508278
 31
0.0
  0
LINE
  5
2D566
  8
0
 10
5758.4275986767697759
 20
428.7749090208508278
 30
0.0
 11
5758.4275986767697759
 21
428.2902791528507009
 31
0.0
  0
LINE
  5
2D567
  8
0
 10
5758.4275986767697759
 20
428.2902791528507009
 30
0.0
 11
5758.7702837427686973
 21
427.9475940868506996
 31
0.0
  0
LINE
  5
2D568
  8
0
 10
5758.7702837427686973
 20
427.9475940868506996
 30
0.0
 11
5759.2549136107700178
 21
427.9475940868506996
 31
0.0
  0
LINE
  5
2D569
  8
0
 10
5759.2549136107700178
 20
427.9475940868506996
 30
0.0
 11
5759.5975986767689392
 21
428.2902791528507009
 31
0.0
  0
LINE
  5
2D56A
  8
0
 10
5759.5975986767689392
 20
428.2902791528507009
 30
0.0
 11
5759.5975986767689392
 21
428.7749090208508278
 31
0.0
  0
LINE
  5
2D56B
  8
0
 10
5759.5975986767689392
 20
428.7749090208508278
 30
0.0
 11
5759.6353154176067619
 21
428.7905308027322917
 31
0.0
  0
LINE
  5
2D56C
  8
0
 10
5759.2549136107700178
 20
429.1175940868507155
 30
0.0
 11
5759.270924853217366
 21
429.1551328201820183
 31
0.0
  0
LINE
  5
2D56D
  8
0
 10
5758.7702837427686973
 20
429.1175940868507155
 30
0.0
 11
5758.7546611042553195
 21
429.155310472849294
 31
0.0
  0
LINE
  5
2D56E
  8
0
 10
5758.4275986767697759
 20
428.7749090208508278
 30
0.0
 11
5758.3899049004567132
 21
428.7905320971456717
 31
0.0
  0
LINE
  5
2D56F
  8
0
 10
5758.4275986767697759
 20
428.2902791528507009
 30
0.0
 11
5758.3899059896357358
 21
428.2746166841524769
 31
0.0
  0
LINE
  5
2D570
  8
0
 10
5758.7702837427686973
 20
427.9475940868506996
 30
0.0
 11
5758.7540412747657683
 21
427.9101699069279903
 31
0.0
  0
LINE
  5
2D571
  8
0
 10
5759.2549136107700178
 20
427.9475940868506996
 30
0.0
 11
5759.2705362493452412
 21
427.9098777008794059
 31
0.0
  0
LINE
  5
2D572
  8
0
 10
5759.5975986767689392
 20
428.2902791528507009
 30
0.0
 11
5759.6353231266666626
 21
428.2746515759728823
 31
0.0
  0
LINE
  5
2D573
  8
0
 10
5746.4929136373193614
 20
408.0798381813506808
 30
0.0
 11
5746.41417347994593
 21
408.0010980238507159
 31
0.0
  0
LINE
  5
2D574
  8
0
 10
5746.1582679681196169
 20
407.9417830632506821
 30
0.0
 11
5745.05590576331997
 21
407.9417830632506821
 31
0.0
  0
LINE
  5
2D575
  8
0
 10
5746.1385829287191882
 20
407.9220980238507082
 30
0.0
 11
5745.0755908027203986
 21
407.9220980238507082
 31
0.0
  0
LINE
  5
2D576
  8
0
 10
5745.05590576331997
 20
407.9417830632506821
 30
0.0
 11
5745.05590576331997
 21
408.0010980238507159
 31
0.0
  0
LINE
  5
2D577
  8
0
 10
5745.0566002104187646
 20
407.9417830632506821
 30
0.0
 11
5745.0566002104187646
 21
408.0010980238507159
 31
0.0
  0
LINE
  5
2D578
  8
0
 10
5745.0573290062193337
 20
407.9417830632506821
 30
0.0
 11
5745.0573290062193337
 21
408.0010980238507159
 31
0.0
  0
LINE
  5
2D579
  8
0
 10
5745.0600063288193269
 20
407.9417830632506821
 30
0.0
 11
5745.0600063288193269
 21
408.0010980238507159
 31
0.0
  0
LINE
  5
2D57A
  8
0
 10
5745.0615879029192001
 20
407.9417830632506821
 30
0.0
 11
5745.0615879029192001
 21
408.0010980238507159
 31
0.0
  0
LINE
  5
2D57B
  8
0
 10
5745.0662277250194165
 20
407.9417830632506821
 30
0.0
 11
5745.0662277250194165
 21
408.0010980238507159
 31
0.0
  0
LINE
  5
2D57C
  8
0
 10
5745.0686500409192377
 20
407.9417830632506821
 30
0.0
 11
5745.0686500409192377
 21
408.0010980238507159
 31
0.0
  0
LINE
  5
2D57D
  8
0
 10
5745.0752170506193579
 20
407.9417830632506821
 30
0.0
 11
5745.0752170506193579
 21
408.0010980238507159
 31
0.0
  0
LINE
  5
2D57E
  8
0
 10
5745.0784616729197296
 20
407.9417830632506821
 30
0.0
 11
5745.0784616729197296
 21
408.0010980238507159
 31
0.0
  0
LINE
  5
2D57F
  8
0
 10
5745.0869058913185654
 20
407.9417830632506821
 30
0.0
 11
5745.0869058913185654
 21
408.0010980238507159
 31
0.0
  0
LINE
  5
2D580
  8
0
 10
5745.0909481264197893
 20
407.9417830632506821
 30
0.0
 11
5745.0909481264197893
 21
408.0010980238507159
 31
0.0
  0
LINE
  5
2D581
  8
0
 10
5745.1012052879195835
 20
407.9417830632506821
 30
0.0
 11
5745.1012052879195835
 21
408.0010980238507159
 31
0.0
  0
LINE
  5
2D582
  8
0
 10
5745.1060143721197164
 20
407.9417830632506821
 30
0.0
 11
5745.1060143721197164
 21
408.0010980238507159
 31
0.0
  0
LINE
  5
2D583
  8
0
 10
5745.1180064136187866
 20
407.9417830632506821
 30
0.0
 11
5745.1180064136187866
 21
408.0010980238507159
 31
0.0
  0
LINE
  5
2D584
  8
0
 10
5745.123545746819218
 20
407.9417830632506821
 30
0.0
 11
5745.123545746819218
 21
408.0010980238507159
 31
0.0
  0
LINE
  5
2D585
  8
0
 10
5745.1371814014191841
 20
407.9417830632506821
 30
0.0
 11
5745.1371814014191841
 21
408.0010980238507159
 31
0.0
  0
LINE
  5
2D586
  8
0
 10
5745.143114022219379
 20
407.9417830632506821
 30
0.0
 11
5745.143114022219379
 21
408.0010980238507159
 31
0.0
  0
LINE
  5
2D587
  8
0
 10
5745.1434088259193231
 20
407.9417830632506821
 30
0.0
 11
5745.1434088259193231
 21
408.0010980238507159
 31
0.0
  0
LINE
  5
2D588
  8
0
 10
5745.1585843183192992
 20
407.9417830632506821
 30
0.0
 11
5745.1585843183192992
 21
408.0010980238507159
 31
0.0
  0
LINE
  5
2D589
  8
0
 10
5745.1640604972199071
 20
407.9417830632506821
 30
0.0
 11
5745.1640604972199071
 21
408.0010980238507159
 31
0.0
  0
LINE
  5
2D58A
  8
0
 10
5745.1654524397199566
 20
407.9417830632506821
 30
0.0
 11
5745.1654524397199566
 21
408.0010980238507159
 31
0.0
  0
LINE
  5
2D58B
  8
0
 10
5745.1820522750185773
 20
407.9417830632506821
 30
0.0
 11
5745.1820522750185773
 21
408.0010980238507159
 31
0.0
  0
LINE
  5
2D58C
  8
0
 10
5745.1870303349187452
 20
407.9417830632506821
 30
0.0
 11
5745.1870303349187452
 21
408.0010980238507159
 31
0.0
  0
LINE
  5
2D58D
  8
0
 10
5745.18950882271929
 20
407.9417830632506821
 30
0.0
 11
5745.18950882271929
 21
408.0010980238507159
 31
0.0
  0
LINE
  5
2D58E
  8
0
 10
5745.2074066663199119
 20
407.9417830632506821
 30
0.0
 11
5745.2074066663199119
 21
408.0010980238507159
 31
0.0
  0
LINE
  5
2D58F
  8
0
 10
5745.2118487212192122
 20
407.9417830632506821
 30
0.0
 11
5745.2118487212192122
 21
408.0010980238507159
 31
0.0
  0
LINE
  5
2D590
  8
0
 10
5745.2153948915201909
 20
407.9417830632506821
 30
0.0
 11
5745.2153948915201909
 21
408.0010980238507159
 31
0.0
  0
LINE
  5
2D591
  8
0
 10
5745.234454529919276
 20
407.9417830632506821
 30
0.0
 11
5745.234454529919276
 21
408.0010980238507159
 31
0.0
  0
LINE
  5
2D592
  8
0
 10
5745.2383267731192973
 20
407.9417830632506821
 30
0.0
 11
5745.2383267731192973
 21
408.0010980238507159
 31
0.0
  0
LINE
  5
2D593
  8
0
 10
5745.2429136373193614
 20
407.9417830632506821
 30
0.0
 11
5745.2429136373193614
 21
408.0010980238507159
 31
0.0
  0
LINE
  5
2D594
  8
0
 10
5745.2629900153187918
 20
407.9417830632506821
 30
0.0
 11
5745.2629900153187918
 21
408.0010980238507159
 31
0.0
  0
LINE
  5
2D595
  8
0
 10
5745.2662629767191902
 20
407.9417830632506821
 30
0.0
 11
5745.2662629767191902
 21
408.0010980238507159
 31
0.0
  0
LINE
  5
2D596
  8
0
 10
5745.2718556261188496
 20
407.9417830632506821
 30
0.0
 11
5745.2718556261188496
 21
408.0010980238507159
 31
0.0
  0
LINE
  5
2D597
  8
0
 10
5745.2927959501203077
 20
407.9417830632506821
 30
0.0
 11
5745.2927959501203077
 21
408.0010980238507159
 31
0.0
  0
LINE
  5
2D598
  8
0
 10
5745.2954447205192992
 20
407.9417830632506821
 30
0.0
 11
5745.2954447205192992
 21
408.0010980238507159
 31
0.0
  0
LINE
  5
2D599
  8
0
 10
5745.3020005916187074
 20
407.9417830632506821
 30
0.0
 11
5745.3020005916187074
 21
408.0010980238507159
 31
0.0
  0
LINE
  5
2D59A
  8
0
 10
5745.3236454933203277
 20
407.9417830632506821
 30
0.0
 11
5745.3236454933203277
 21
408.0010980238507159
 31
0.0
  0
LINE
  5
2D59B
  8
0
 10
5745.3256499139197331
 20
407.9417830632506821
 30
0.0
 11
5745.3256499139197331
 21
408.0010980238507159
 31
0.0
  0
LINE
  5
2D59C
  8
0
 10
5745.3331191126198974
 20
407.9417830632506821
 30
0.0
 11
5745.3331191126198974
 21
408.0010980238507159
 31
0.0
  0
LINE
  5
2D59D
  8
0
 10
5745.3553038611198645
 20
407.9417830632506821
 30
0.0
 11
5745.3553038611198645
 21
408.0010980238507159
 31
0.0
  0
LINE
  5
2D59E
  8
0
 10
5745.3566486771196651
 20
407.9417830632506821
 30
0.0
 11
5745.3566486771196651
 21
408.0010980238507159
 31
0.0
  0
LINE
  5
2D59F
  8
0
 10
5745.3649743583191594
 20
407.9417830632506821
 30
0.0
 11
5745.3649743583191594
 21
408.0010980238507159
 31
0.0
  0
LINE
  5
2D5A0
  8
0
 10
5745.3875301143198158
 20
407.9417830632506821
 30
0.0
 11
5745.3875301143198158
 21
408.0010980238507159
 31
0.0
  0
LINE
  5
2D5A1
  8
0
 10
5745.3882050908196106
 20
407.9417830632506821
 30
0.0
 11
5745.3882050908196106
 21
408.0010980238507159
 31
0.0
  0
LINE
  5
2D5A2
  8
0
 10
5745.3973238910193686
 20
407.9417830632506821
 30
0.0
 11
5745.3973238910193686
 21
408.0010980238507159
 31
0.0
  0
LINE
  5
2D5A3
  8
0
 10
5745.420078991720402
 20
407.9417830632506821
 30
0.0
 11
5745.420078991720402
 21
408.0010980238507159
 31
0.0
  0
LINE
  5
2D5A4
  8
0
 10
5745.4527027765198
 20
408.0010980238507159
 30
0.0
 11
5745.4527027765198
 21
407.9417830632506821
 31
0.0
  0
LINE
  5
2D5A5
  8
0
 10
5745.461832866019904
 20
408.0010980238507159
 30
0.0
 11
5745.461832866019904
 21
407.9417830632506821
 31
0.0
  0
LINE
  5
2D5A6
  8
0
 10
5745.4625191317200006
 20
408.0010980238507159
 30
0.0
 11
5745.4625191317200006
 21
407.9417830632506821
 31
0.0
  0
LINE
  5
2D5A7
  8
0
 10
5745.4851531822196193
 20
408.0010980238507159
 30
0.0
 11
5745.4851531822196193
 21
407.9417830632506821
 31
0.0
  0
LINE
  5
2D5A8
  8
0
 10
5745.4935013559197614
 20
408.0010980238507159
 30
0.0
 11
5745.4935013559197614
 21
407.9417830632506821
 31
0.0
  0
LINE
  5
2D5A9
  8
0
 10
5745.4948686644193003
 20
408.0010980238507159
 30
0.0
 11
5745.4948686644193003
 21
407.9417830632506821
 31
0.0
  0
LINE
  5
2D5AA
  8
0
 10
5745.5171832415207973
 20
408.0010980238507159
 30
0.0
 11
5745.5171832415207973
 21
407.9417830632506821
 31
0.0
  0
LINE
  5
2D5AB
  8
0
 10
5745.5246859649196267
 20
408.0010980238507159
 30
0.0
 11
5745.5246859649196267
 21
407.9417830632506821
 31
0.0
  0
LINE
  5
2D5AC
  8
0
 10
5745.5267239101203813
 20
408.0010980238507159
 30
0.0
 11
5745.5267239101203813
 21
407.9417830632506821
 31
0.0
  0
LINE
  5
2D5AD
  8
0
 10
5745.5485491864201322
 20
408.0010980238507159
 30
0.0
 11
5745.5485491864201322
 21
407.9417830632506821
 31
0.0
  0
LINE
  5
2D5AE
  8
0
 10
5745.5551493591201506
 20
408.0010980238507159
 30
0.0
 11
5745.5551493591201506
 21
407.9417830632506821
 31
0.0
  0
LINE
  5
2D5AF
  8
0
 10
5745.5578424311197523
 20
408.0010980238507159
 30
0.0
 11
5745.5578424311197523
 21
407.9417830632506821
 31
0.0
  0
LINE
  5
2D5B0
  8
0
 10
5745.5790123030192262
 20
408.0010980238507159
 30
0.0
 11
5745.5790123030192262
 21
407.9417830632506821
 31
0.0
  0
LINE
  5
2D5B1
  8
0
 10
5745.5846596938199582
 20
408.0010980238507159
 30
0.0
 11
5745.5846596938199582
 21
407.9417830632506821
 31
0.0
  0
LINE
  5
2D5B2
  8
0
 10
5745.5879873967196545
 20
408.0010980238507159
 30
0.0
 11
5745.5879873967196545
 21
407.9417830632506821
 31
0.0
  0
LINE
  5
2D5B3
  8
0
 10
5745.6083407487203658
 20
408.0010980238507159
 30
0.0
 11
5745.6083407487203658
 21
407.9417830632506821
 31
0.0
  0
LINE
  5
2D5B4
  8
0
 10
5745.6129923775197312
 20
408.0010980238507159
 30
0.0
 11
5745.6129923775197312
 21
407.9417830632506821
 31
0.0
  0
LINE
  5
2D5B5
  8
0
 10
5745.6169293854200077
 20
408.0010980238507159
 30
0.0
 11
5745.6169293854200077
 21
407.9417830632506821
 31
0.0
  0
LINE
  5
2D5B6
  8
0
 10
5745.6363113162196896
 20
408.0010980238507159
 30
0.0
 11
5745.6363113162196896
 21
407.9417830632506821
 31
0.0
  0
LINE
  5
2D5B7
  8
0
 10
5745.6399317814193637
 20
408.0010980238507159
 30
0.0
 11
5745.6399317814193637
 21
407.9417830632506821
 31
0.0
  0
LINE
  5
2D5B8
  8
0
 10
5745.6444481312191783
 20
408.0010980238507159
 30
0.0
 11
5745.6444481312191783
 21
407.9417830632506821
 31
0.0
  0
LINE
  5
2D5B9
  8
0
 10
5745.6627111327197781
 20
408.0010980238507159
 30
0.0
 11
5745.6627111327197781
 21
407.9417830632506821
 31
0.0
  0
LINE
  5
2D5BA
  8
0
 10
5745.6652728803192076
 20
408.0010980238507159
 30
0.0
 11
5745.6652728803192076
 21
407.9417830632506821
 31
0.0
  0
LINE
  5
2D5BB
  8
0
 10
5745.6703342000200792
 20
408.0010980238507159
 30
0.0
 11
5745.6703342000200792
 21
407.9417830632506821
 31
0.0
  0
LINE
  5
2D5BC
  8
0
 10
5745.6873392796187545
 20
408.0010980238507159
 30
0.0
 11
5745.6873392796187545
 21
407.9417830632506821
 31
0.0
  0
LINE
  5
2D5BD
  8
0
 10
5745.6888228131192591
 20
408.0010980238507159
 30
0.0
 11
5745.6888228131192591
 21
407.9417830632506821
 31
0.0
  0
LINE
  5
2D5BE
  8
0
 10
5745.6943905831185475
 20
408.0010980238507159
 30
0.0
 11
5745.6943905831185475
 21
407.9417830632506821
 31
0.0
  0
LINE
  5
2D5BF
  8
0
 10
5745.7100083219193039
 20
408.0010980238507159
 30
0.0
 11
5745.7100083219193039
 21
407.9417830632506821
 31
0.0
  0
LINE
  5
2D5C0
  8
0
 10
5745.7104023508200044
 20
408.0010980238507159
 30
0.0
 11
5745.7104023508200044
 21
407.9417830632506821
 31
0.0
  0
LINE
  5
2D5C1
  8
0
 10
5745.7164341968200461
 20
408.0010980238507159
 30
0.0
 11
5745.7164341968200461
 21
407.9417830632506821
 31
0.0
  0
LINE
  5
2D5C2
  8
0
 10
5745.7305457344191382
 20
408.0010980238507159
 30
0.0
 11
5745.7305457344209572
 21
407.9417830632506821
 31
0.0
  0
LINE
  5
2D5C3
  8
0
 10
5745.7362972760192861
 20
408.0010980238507159
 30
0.0
 11
5745.7362972760192861
 21
407.9417830632506821
 31
0.0
  0
LINE
  5
2D5C4
  8
0
 10
5745.7487952151195714
 20
408.0010980238507159
 30
0.0
 11
5745.7487952151195714
 21
407.9417830632506821
 31
0.0
  0
LINE
  5
2D5C5
  8
0
 10
5745.7538286506196528
 20
408.0010980238507159
 30
0.0
 11
5745.7538286506196528
 21
407.9417830632506821
 31
0.0
  0
LINE
  5
2D5C6
  8
0
 10
5745.7646178743198107
 20
408.0010980238507159
 30
0.0
 11
5745.7646178743198107
 21
407.9417830632506821
 31
0.0
  0
LINE
  5
2D5C7
  8
0
 10
5745.7688948963186704
 20
408.0010980238507159
 30
0.0
 11
5745.7688948963186704
 21
407.9417830632506821
 31
0.0
  0
LINE
  5
2D5C8
  8
0
 10
5745.7778932921191881
 20
408.0010980238507159
 30
0.0
 11
5745.7778932921191881
 21
407.9417830632506821
 31
0.0
  0
LINE
  5
2D5C9
  8
0
 10
5745.7813813498196396
 20
408.0010980238507159
 30
0.0
 11
5745.7813813498196396
 21
407.9417830632506821
 31
0.0
  0
LINE
  5
2D5CA
  8
0
 10
5745.7885204346193859
 20
408.0010980238507159
 30
0.0
 11
5745.7885204346193859
 21
407.9417830632506821
 31
0.0
  0
LINE
  5
2D5CB
  8
0
 10
5745.791192981819222
 20
408.0010980238507159
 30
0.0
 11
5745.791192981819222
 21
407.9417830632506821
 31
0.0
  0
LINE
  5
2D5CC
  8
0
 10
5745.7964184227193982
 20
408.0010980238507159
 30
0.0
 11
5745.7964184227193982
 21
407.9417830632506821
 31
0.0
  0
LINE
  5
2D5CD
  8
0
 10
5745.7982551198192596
 20
408.0010980238507159
 30
0.0
 11
5745.7982551198192596
 21
407.9417830632506821
 31
0.0
  0
LINE
  5
2D5CE
  8
0
 10
5745.8015271481199306
 20
408.0010980238507159
 30
0.0
 11
5745.8015271481199306
 21
407.9417830632506821
 31
0.0
  0
LINE
  5
2D5CF
  8
0
 10
5745.802514016520945
 20
408.0010980238507159
 30
0.0
 11
5745.802514016520945
 21
407.9417830632506821
 31
0.0
  0
LINE
  5
2D5D0
  8
0
 10
5745.8038077301189333
 20
408.0010980238507159
 30
0.0
 11
5745.8038077301189333
 21
407.9417830632506821
 31
0.0
  0
LINE
  5
2D5D1
  8
0
 10
5745.8039372594193992
 20
408.0010980238507159
 30
0.0
 11
5745.8039372594193992
 21
407.9417830632506821
 31
0.0
  0
LINE
  5
2D5D2
  8
0
 10
5745.0755908027203986
 20
407.9417830632506821
 30
0.0
 11
5745.0755908027203986
 21
407.9220980238507082
 31
0.0
  0
LINE
  5
2D5D3
  8
0
 10
5745.8070334852200176
 20
408.0010980238507159
 30
0.0
 11
5745.8070334852200176
 21
407.9417830632506821
 31
0.0
  0
LINE
  5
2D5D4
  8
0
 10
5745.8161635747192122
 20
408.0010980238507159
 30
0.0
 11
5745.8161635747192122
 21
407.9417830632506821
 31
0.0
  0
LINE
  5
2D5D5
  8
0
 10
5745.8168498404193087
 20
408.0010980238507159
 30
0.0
 11
5745.8168498404193087
 21
407.9417830632506821
 31
0.0
  0
LINE
  5
2D5D6
  8
0
 10
5745.839483890919837
 20
408.0010980238507159
 30
0.0
 11
5745.839483890919837
 21
407.9417830632506821
 31
0.0
  0
LINE
  5
2D5D7
  8
0
 10
5745.8478320646199791
 20
408.0010980238507159
 30
0.0
 11
5745.8478320646199791
 21
407.9417830632506821
 31
0.0
  0
LINE
  5
2D5D8
  8
0
 10
5745.8491993731186085
 20
408.0010980238507159
 30
0.0
 11
5745.8491993731186085
 21
407.9417830632506821
 31
0.0
  0
LINE
  5
2D5D9
  8
0
 10
5745.8715139502201055
 20
408.0010980238507159
 30
0.0
 11
5745.8715139502201055
 21
407.9417830632506821
 31
0.0
  0
LINE
  5
2D5DA
  8
0
 10
5745.8790166736198444
 20
408.0010980238507159
 30
0.0
 11
5745.8790166736198444
 21
407.9417830632506821
 31
0.0
  0
LINE
  5
2D5DB
  8
0
 10
5745.8810546188196895
 20
408.0010980238507159
 30
0.0
 11
5745.8810546188196895
 21
407.9417830632506821
 31
0.0
  0
LINE
  5
2D5DC
  8
0
 10
5745.9028798951194403
 20
408.0010980238507159
 30
0.0
 11
5745.9028798951194403
 21
407.9417830632506821
 31
0.0
  0
LINE
  5
2D5DD
  8
0
 10
5745.9094800678185493
 20
408.0010980238507159
 30
0.0
 11
5745.9094800678185493
 21
407.9417830632506821
 31
0.0
  0
LINE
  5
2D5DE
  8
0
 10
5745.9121731398199699
 20
408.0010980238507159
 30
0.0
 11
5745.9121731398199699
 21
407.9417830632506821
 31
0.0
  0
LINE
  5
2D5DF
  8
0
 10
5745.9333430117203534
 20
408.0010980238507159
 30
0.0
 11
5745.9333430117203534
 21
407.9417830632506821
 31
0.0
  0
LINE
  5
2D5E0
  8
0
 10
5745.9389904025192664
 20
408.0010980238507159
 30
0.0
 11
5745.9389904025192664
 21
407.9417830632506821
 31
0.0
  0
LINE
  5
2D5E1
  8
0
 10
5745.9423181054198722
 20
408.0010980238507159
 30
0.0
 11
5745.9423181054198722
 21
407.9417830632506821
 31
0.0
  0
LINE
  5
2D5E2
  8
0
 10
5745.9626714574187645
 20
408.0010980238507159
 30
0.0
 11
5745.9626714574187645
 21
407.9417830632506821
 31
0.0
  0
LINE
  5
2D5E3
  8
0
 10
5745.9673230862199489
 20
408.0010980238507159
 30
0.0
 11
5745.9673230862199489
 21
407.9417830632506821
 31
0.0
  0
LINE
  5
2D5E4
  8
0
 10
5745.9712600941193159
 20
408.0010980238507159
 30
0.0
 11
5745.9712600941193159
 21
407.9417830632506821
 31
0.0
  0
LINE
  5
2D5E5
  8
0
 10
5745.9906420249199073
 20
408.0010980238507159
 30
0.0
 11
5745.9906420249199073
 21
407.9417830632506821
 31
0.0
  0
LINE
  5
2D5E6
  8
0
 10
5745.9942624901186718
 20
408.0010980238507159
 30
0.0
 11
5745.9942624901186718
 21
407.9417830632506821
 31
0.0
  0
LINE
  5
2D5E7
  8
0
 10
5745.9987788400203499
 20
408.0010980238507159
 30
0.0
 11
5745.9987788400203499
 21
407.9417830632506821
 31
0.0
  0
LINE
  5
2D5E8
  8
0
 10
5746.0170418414199958
 20
408.0010980238507159
 30
0.0
 11
5746.0170418414199958
 21
407.9417830632506821
 31
0.0
  0
LINE
  5
2D5E9
  8
0
 10
5746.0196035890194253
 20
408.0010980238507159
 30
0.0
 11
5746.0196035890194253
 21
407.9417830632506821
 31
0.0
  0
LINE
  5
2D5EA
  8
0
 10
5746.0246649087202968
 20
408.0010980238507159
 30
0.0
 11
5746.0246649087202968
 21
407.9417830632506821
 31
0.0
  0
LINE
  5
2D5EB
  8
0
 10
5746.0416699883189722
 20
408.0010980238507159
 30
0.0
 11
5746.0416699883189722
 21
407.9417830632506821
 31
0.0
  0
LINE
  5
2D5EC
  8
0
 10
5746.0431535218203862
 20
408.0010980238507159
 30
0.0
 11
5746.0431535218203862
 21
407.9417830632506821
 31
0.0
  0
LINE
  5
2D5ED
  8
0
 10
5746.0487212918196747
 20
408.0010980238507159
 30
0.0
 11
5746.0487212918196747
 21
407.9417830632506821
 31
0.0
  0
LINE
  5
2D5EE
  8
0
 10
5746.064339030620431
 20
408.0010980238507159
 30
0.0
 11
5746.064339030620431
 21
407.9417830632506821
 31
0.0
  0
LINE
  5
2D5EF
  8
0
 10
5746.0647330595193125
 20
408.0010980238507159
 30
0.0
 11
5746.0647330595193125
 21
407.9417830632506821
 31
0.0
  0
LINE
  5
2D5F0
  8
0
 10
5746.0707649055193542
 20
408.0010980238507159
 30
0.0
 11
5746.0707649055193542
 21
407.9417830632506821
 31
0.0
  0
LINE
  5
2D5F1
  8
0
 10
5746.0848764431202653
 20
408.0010980238507159
 30
0.0
 11
5746.0848764431202653
 21
407.9417830632506821
 31
0.0
  0
LINE
  5
2D5F2
  8
0
 10
5746.0906279847185942
 20
408.0010980238507159
 30
0.0
 11
5746.0906279847185942
 21
407.9417830632506821
 31
0.0
  0
LINE
  5
2D5F3
  8
0
 10
5746.103125923819789
 20
408.0010980238507159
 30
0.0
 11
5746.103125923819789
 21
407.9417830632506821
 31
0.0
  0
LINE
  5
2D5F4
  8
0
 10
5746.1081593593189609
 20
408.0010980238507159
 30
0.0
 11
5746.1081593593189609
 21
407.9417830632506821
 31
0.0
  0
LINE
  5
2D5F5
  8
0
 10
5746.1189485830209378
 20
408.0010980238507159
 30
0.0
 11
5746.1189485830209378
 21
407.9417830632506821
 31
0.0
  0
LINE
  5
2D5F6
  8
0
 10
5746.1232256050197975
 20
408.0010980238507159
 30
0.0
 11
5746.1232256050197975
 21
407.9417830632506821
 31
0.0
  0
LINE
  5
2D5F7
  8
0
 10
5746.1322240008194058
 20
408.0010980238507159
 30
0.0
 11
5746.1322240008194058
 21
407.9417830632506821
 31
0.0
  0
LINE
  5
2D5F8
  8
0
 10
5746.1357120585198572
 20
408.0010980238507159
 30
0.0
 11
5746.1357120585198572
 21
407.9417830632506821
 31
0.0
  0
LINE
  5
2D5F9
  8
0
 10
5746.1428511433196036
 20
408.0010980238507159
 30
0.0
 11
5746.1428511433196036
 21
407.9417830632506821
 31
0.0
  0
LINE
  5
2D5FA
  8
0
 10
5746.1455236905194397
 20
408.0010980238507159
 30
0.0
 11
5746.1455236905194397
 21
407.9417830632506821
 31
0.0
  0
LINE
  5
2D5FB
  8
0
 10
5746.1507491314196159
 20
408.0010980238507159
 30
0.0
 11
5746.1507491314196159
 21
407.9417830632506821
 31
0.0
  0
LINE
  5
2D5FC
  8
0
 10
5746.1525858285203867
 20
408.0010980238507159
 30
0.0
 11
5746.1525858285203867
 21
407.9417830632506821
 31
0.0
  0
LINE
  5
2D5FD
  8
0
 10
5746.1558578568201483
 20
408.0010980238507159
 30
0.0
 11
5746.1558578568201483
 21
407.9417830632506821
 31
0.0
  0
LINE
  5
2D5FE
  8
0
 10
5746.1568447252202532
 20
408.0010980238507159
 30
0.0
 11
5746.1568447252202532
 21
407.9417830632506821
 31
0.0
  0
LINE
  5
2D5FF
  8
0
 10
5746.1581384388182414
 20
408.0010980238507159
 30
0.0
 11
5746.1581384388182414
 21
407.9417830632506821
 31
0.0
  0
LINE
  5
2D600
  8
0
 10
5746.1582679681196169
 20
408.0010980238507159
 30
0.0
 11
5746.1582679681196169
 21
407.9417830632506821
 31
0.0
  0
LINE
  5
2D601
  8
0
 10
5746.1385829287191882
 20
407.9417830632506821
 30
0.0
 11
5746.1385829287191882
 21
407.9220980238507082
 31
0.0
  0
LINE
  5
2D602
  8
0
 10
5774.7409451334187906
 20
407.9220980238507082
 30
0.0
 11
5774.0322837161193092
 21
407.9220980238507082
 31
0.0
  0
LINE
  5
2D603
  8
0
 10
5774.7606301728192193
 20
407.9417830632506821
 30
0.0
 11
5774.0125986767188806
 21
407.9417830632506821
 31
0.0
  0
LINE
  5
2D604
  8
0
 10
5774.0125986767188806
 20
408.0404681026507205
 30
0.0
 11
5774.0125986767188806
 21
407.9417830632506821
 31
0.0
  0
LINE
  5
2D605
  8
0
 10
5774.0132931238185847
 20
408.0404681026507205
 30
0.0
 11
5774.0132931238185847
 21
407.9417830632506821
 31
0.0
  0
LINE
  5
2D606
  8
0
 10
5774.0140219196200633
 20
408.0404681026507205
 30
0.0
 11
5774.0140219196191538
 21
407.9417830632506821
 31
0.0
  0
LINE
  5
2D607
  8
0
 10
5774.016699242220966
 20
408.0404681026507205
 30
0.0
 11
5774.016699242219147
 21
407.9417830632506821
 31
0.0
  0
LINE
  5
2D608
  8
0
 10
5774.0182808163199297
 20
408.0404681026507205
 30
0.0
 11
5774.0182808163199297
 21
407.9417830632506821
 31
0.0
  0
LINE
  5
2D609
  8
0
 10
5774.0229206384192366
 20
408.0404681026507205
 30
0.0
 11
5774.0229206384192366
 21
407.9417830632506821
 31
0.0
  0
LINE
  5
2D60A
  8
0
 10
5774.0253429543199672
 20
408.0404681026507205
 30
0.0
 11
5774.0253429543199672
 21
407.9417830632506821
 31
0.0
  0
LINE
  5
2D60B
  8
0
 10
5774.031909964019178
 20
408.0404681026507205
 30
0.0
 11
5774.031909964019178
 21
407.9417830632506821
 31
0.0
  0
LINE
  5
2D60C
  8
0
 10
5774.0351545863195497
 20
408.0404681026507205
 30
0.0
 11
5774.0351545863195497
 21
407.9417830632506821
 31
0.0
  0
LINE
  5
2D60D
  8
0
 10
5774.0435988047202045
 20
408.0404681026507205
 30
0.0
 11
5774.0435988047202045
 21
407.9417830632506821
 31
0.0
  0
LINE
  5
2D60E
  8
0
 10
5774.0476410398186999
 20
408.0404681026507205
 30
0.0
 11
5774.0476410398186999
 21
407.9417830632506821
 31
0.0
  0
LINE
  5
2D60F
  8
0
 10
5774.0578982013203131
 20
408.0404681026507205
 30
0.0
 11
5774.0578982013203131
 21
407.9417830632506821
 31
0.0
  0
LINE
  5
2D610
  8
0
 10
5774.062707285518627
 20
408.0404681026507205
 30
0.0
 11
5774.062707285518627
 21
407.9417830632506821
 31
0.0
  0
LINE
  5
2D611
  8
0
 10
5774.0746993269203813
 20
408.0404681026507205
 30
0.0
 11
5774.0746993269203813
 21
407.9417830632506821
 31
0.0
  0
LINE
  5
2D612
  8
0
 10
5774.0802386601199032
 20
408.0404681026507205
 30
0.0
 11
5774.0802386601199032
 21
407.9417830632506821
 31
0.0
  0
LINE
  5
2D613
  8
0
 10
5774.0938743148199137
 20
408.0404681026507205
 30
0.0
 11
5774.0938743148199137
 21
407.9417830632506821
 31
0.0
  0
LINE
  5
2D614
  8
0
 10
5774.0998069356201086
 20
408.0404681026507205
 30
0.0
 11
5774.0998069356201086
 21
407.9417830632506821
 31
0.0
  0
LINE
  5
2D615
  8
0
 10
5774.1001017393200527
 20
408.0404681026507205
 30
0.0
 11
5774.1001017393191432
 21
407.9417830632506821
 31
0.0
  0
LINE
  5
2D616
  8
0
 10
5774.1152772317200288
 20
408.0404681026507205
 30
0.0
 11
5774.1152772317191193
 21
407.9417830632506821
 31
0.0
  0
LINE
  5
2D617
  8
0
 10
5774.1207534106197272
 20
408.0404681026507205
 30
0.0
 11
5774.1207534106197272
 21
407.9417830632506821
 31
0.0
  0
LINE
  5
2D618
  8
0
 10
5774.1221453530197323
 20
408.0404681026507205
 30
0.0
 11
5774.1221453530197323
 21
407.9417830632506821
 31
0.0
  0
LINE
  5
2D619
  8
0
 10
5774.1387451884202164
 20
408.0404681026507205
 30
0.0
 11
5774.1387451884202164
 21
407.9417830632506821
 31
0.0
  0
LINE
  5
2D61A
  8
0
 10
5774.1437232483185653
 20
408.0404681026507205
 30
0.0
 11
5774.1437232483185653
 21
407.9417830632506821
 31
0.0
  0
LINE
  5
2D61B
  8
0
 10
5774.1462017361200196
 20
408.0404681026507205
 30
0.0
 11
5774.1462017361191101
 21
407.9417830632506821
 31
0.0
  0
LINE
  5
2D61C
  8
0
 10
5774.164099579719732
 20
408.0404681026507205
 30
0.0
 11
5774.164099579719732
 21
407.9417830632506821
 31
0.0
  0
LINE
  5
2D61D
  8
0
 10
5774.1685416346199418
 20
408.0404681026507205
 30
0.0
 11
5774.1685416346199418
 21
407.9417830632506821
 31
0.0
  0
LINE
  5
2D61E
  8
0
 10
5774.1720878048199665
 20
408.0404681026507205
 30
0.0
 11
5774.1720878048199665
 21
407.9417830632506821
 31
0.0
  0
LINE
  5
2D61F
  8
0
 10
5774.1911474433200056
 20
408.0404681026507205
 30
0.0
 11
5774.1911474433190961
 21
407.9417830632506821
 31
0.0
  0
LINE
  5
2D620
  8
0
 10
5774.1950196865200269
 20
408.0404681026507205
 30
0.0
 11
5774.1950196865191174
 21
407.9417830632506821
 31
0.0
  0
LINE
  5
2D621
  8
0
 10
5774.199606550720091
 20
408.0404681026507205
 30
0.0
 11
5774.199606550720091
 21
407.9417830632506821
 31
0.0
  0
LINE
  5
2D622
  8
0
 10
5774.2196829286185675
 20
408.0404681026507205
 30
0.0
 11
5774.2196829286185675
 21
407.9417830632506821
 31
0.0
  0
LINE
  5
2D623
  8
0
 10
5774.2229558901199198
 20
408.0404681026507205
 30
0.0
 11
5774.2229558901199198
 21
407.9417830632506821
 31
0.0
  0
LINE
  5
2D624
  8
0
 10
5774.2285485394204443
 20
408.0404681026507205
 30
0.0
 11
5774.2285485394204443
 21
407.9417830632506821
 31
0.0
  0
LINE
  5
2D625
  8
0
 10
5774.2494888635192183
 20
408.0404681026507205
 30
0.0
 11
5774.2494888635192183
 21
407.9417830632506821
 31
0.0
  0
LINE
  5
2D626
  8
0
 10
5774.2521376339191193
 20
408.0404681026507205
 30
0.0
 11
5774.2521376339191193
 21
407.9417830632506821
 31
0.0
  0
LINE
  5
2D627
  8
0
 10
5774.2586935050203465
 20
408.0404681026507205
 30
0.0
 11
5774.2586935050203465
 21
407.9417830632506821
 31
0.0
  0
LINE
  5
2D628
  8
0
 10
5774.2803384067192383
 20
408.0404681026507205
 30
0.0
 11
5774.2803384067192383
 21
407.9417830632506821
 31
0.0
  0
LINE
  5
2D629
  8
0
 10
5774.2823428273186437
 20
408.0404681026507205
 30
0.0
 11
5774.2823428273186437
 21
407.9417830632506821
 31
0.0
  0
LINE
  5
2D62A
  8
0
 10
5774.2898120260197175
 20
408.0404681026507205
 30
0.0
 11
5774.2898120260197175
 21
407.9417830632506821
 31
0.0
  0
LINE
  5
2D62B
  8
0
 10
5774.3119967745196845
 20
408.0404681026507205
 30
0.0
 11
5774.3119967745196845
 21
407.9417830632506821
 31
0.0
  0
LINE
  5
2D62C
  8
0
 10
5774.3133415905203947
 20
408.0404681026507205
 30
0.0
 11
5774.3133415905203947
 21
407.9417830632506821
 31
0.0
  0
LINE
  5
2D62D
  8
0
 10
5774.3216672717207985
 20
408.0404681026507205
 30
0.0
 11
5774.3216672717207985
 21
407.9417830632506821
 31
0.0
  0
LINE
  5
2D62E
  8
0
 10
5774.3442230277187264
 20
408.0404681026507205
 30
0.0
 11
5774.3442230277187264
 21
407.9417830632506821
 31
0.0
  0
LINE
  5
2D62F
  8
0
 10
5774.3448980042194307
 20
408.0404681026507205
 30
0.0
 11
5774.3448980042194307
 21
407.9417830632506821
 31
0.0
  0
LINE
  5
2D630
  8
0
 10
5774.3540168044191887
 20
408.0404681026507205
 30
0.0
 11
5774.3540168044191887
 21
407.9417830632506821
 31
0.0
  0
LINE
  5
2D631
  8
0
 10
5774.3767719051193126
 20
408.0404681026507205
 30
0.0
 11
5774.3767719051193126
 21
407.9417830632506821
 31
0.0
  0
LINE
  5
2D632
  8
0
 10
5774.4093956899196201
 20
408.0404681026507205
 30
0.0
 11
5774.4093956899196201
 21
407.9417830632506821
 31
0.0
  0
LINE
  5
2D633
  8
0
 10
5774.4185257794197241
 20
408.0404681026507205
 30
0.0
 11
5774.4185257794197241
 21
407.9417830632506821
 31
0.0
  0
LINE
  5
2D634
  8
0
 10
5774.4192120451198207
 20
408.0404681026507205
 30
0.0
 11
5774.4192120451198207
 21
407.9417830632506821
 31
0.0
  0
LINE
  5
2D635
  8
0
 10
5774.4418460956194394
 20
408.0404681026507205
 30
0.0
 11
5774.4418460956194394
 21
407.9417830632506821
 31
0.0
  0
LINE
  5
2D636
  8
0
 10
5774.4501942693195815
 20
408.0404681026507205
 30
0.0
 11
5774.4501942693195815
 21
407.9417830632506821
 31
0.0
  0
LINE
  5
2D637
  8
0
 10
5774.4515615778191204
 20
408.0404681026507205
 30
0.0
 11
5774.4515615778191204
 21
407.9417830632506821
 31
0.0
  0
LINE
  5
2D638
  8
0
 10
5774.4738761549197079
 20
408.0404681026507205
 30
0.0
 11
5774.4738761549197079
 21
407.9417830632506821
 31
0.0
  0
LINE
  5
2D639
  8
0
 10
5774.4813788783203563
 20
408.0404681026507205
 30
0.0
 11
5774.4813788783203563
 21
407.9417830632506821
 31
0.0
  0
LINE
  5
2D63A
  8
0
 10
5774.4834168235192919
 20
408.0404681026507205
 30
0.0
 11
5774.4834168235192919
 21
407.9417830632506821
 31
0.0
  0
LINE
  5
2D63B
  8
0
 10
5774.5052420998199523
 20
408.0404681026507205
 30
0.0
 11
5774.5052420998199523
 21
407.9417830632506821
 31
0.0
  0
LINE
  5
2D63C
  8
0
 10
5774.5118422725199707
 20
408.0404681026507205
 30
0.0
 11
5774.5118422725190612
 21
407.9417830632506821
 31
0.0
  0
LINE
  5
2D63D
  8
0
 10
5774.5145353445186629
 20
408.0404681026507205
 30
0.0
 11
5774.5145353445186629
 21
407.9417830632506821
 31
0.0
  0
LINE
  5
2D63E
  8
0
 10
5774.5357052164199558
 20
408.0404681026507205
 30
0.0
 11
5774.5357052164199558
 21
407.9417830632506821
 31
0.0
  0
LINE
  5
2D63F
  8
0
 10
5774.5413526072197783
 20
408.0404681026507205
 30
0.0
 11
5774.5413526072197783
 21
407.9417830632506821
 31
0.0
  0
LINE
  5
2D640
  8
0
 10
5774.5446803100194302
 20
408.0404681026507205
 30
0.0
 11
5774.5446803100194302
 21
407.9417830632506821
 31
0.0
  0
LINE
  5
2D641
  8
0
 10
5774.565033662019232
 20
408.0404681026507205
 30
0.0
 11
5774.565033662019232
 21
407.9417830632506821
 31
0.0
  0
LINE
  5
2D642
  8
0
 10
5774.5696852909195513
 20
408.0404681026507205
 30
0.0
 11
5774.5696852909195513
 21
407.9417830632506821
 31
0.0
  0
LINE
  5
2D643
  8
0
 10
5774.5736222988198278
 20
408.0404681026507205
 30
0.0
 11
5774.5736222988198278
 21
407.9417830632506821
 31
0.0
  0
LINE
  5
2D644
  8
0
 10
5774.5930042296186002
 20
408.0404681026507205
 30
0.0
 11
5774.5930042296186002
 21
407.9417830632506821
 31
0.0
  0
LINE
  5
2D645
  8
0
 10
5774.5966246947200489
 20
408.0404681026507205
 30
0.0
 11
5774.5966246947191394
 21
407.9417830632506821
 31
0.0
  0
LINE
  5
2D646
  8
0
 10
5774.6011410446199079
 20
408.0404681026507205
 30
0.0
 11
5774.6011410446199079
 21
407.9417830632506821
 31
0.0
  0
LINE
  5
2D647
  8
0
 10
5774.6194040461195982
 20
408.0404681026507205
 30
0.0
 11
5774.6194040461195982
 21
407.9417830632506821
 31
0.0
  0
LINE
  5
2D648
  8
0
 10
5774.6219657936198928
 20
408.0404681026507205
 30
0.0
 11
5774.6219657936198928
 21
407.9417830632506821
 31
0.0
  0
LINE
  5
2D649
  8
0
 10
5774.6270271134198993
 20
408.0404681026507205
 30
0.0
 11
5774.6270271134198993
 21
407.9417830632506821
 31
0.0
  0
LINE
  5
2D64A
  8
0
 10
5774.6440321930203936
 20
408.0404681026507205
 30
0.0
 11
5774.6440321930203936
 21
407.9417830632506821
 31
0.0
  0
LINE
  5
2D64B
  8
0
 10
5774.6455157265199887
 20
408.0404681026507205
 30
0.0
 11
5774.6455157265181697
 21
407.9417830632506821
 31
0.0
  0
LINE
  5
2D64C
  8
0
 10
5774.6510834964192327
 20
408.0404681026507205
 30
0.0
 11
5774.6510834964192327
 21
407.9417830632506821
 31
0.0
  0
LINE
  5
2D64D
  8
0
 10
5774.6667012353200334
 20
408.0404681026507205
 30
0.0
 11
5774.666701235319124
 21
407.9417830632506821
 31
0.0
  0
LINE
  5
2D64E
  8
0
 10
5774.6670952642198245
 20
408.0404681026507205
 30
0.0
 11
5774.6670952642198245
 21
407.9417830632506821
 31
0.0
  0
LINE
  5
2D64F
  8
0
 10
5774.6731271102198662
 20
408.0404681026507205
 30
0.0
 11
5774.6731271102198662
 21
407.9417830632506821
 31
0.0
  0
LINE
  5
2D650
  8
0
 10
5774.6872386478198678
 20
408.0404681026507205
 30
0.0
 11
5774.6872386478198678
 21
407.9417830632506821
 31
0.0
  0
LINE
  5
2D651
  8
0
 10
5774.6929901893199713
 20
408.0404681026507205
 30
0.0
 11
5774.6929901893181523
 21
407.9417830632506821
 31
0.0
  0
LINE
  5
2D652
  8
0
 10
5774.7054881285193915
 20
408.0404681026507205
 30
0.0
 11
5774.7054881285193915
 21
407.9417830632506821
 31
0.0
  0
LINE
  5
2D653
  8
0
 10
5774.7105215640203824
 20
408.0404681026507205
 30
0.0
 11
5774.7105215640203824
 21
407.9417830632506821
 31
0.0
  0
LINE
  5
2D654
  8
0
 10
5774.7213107877196308
 20
408.0404681026507205
 30
0.0
 11
5774.7213107877196308
 21
407.9417830632506821
 31
0.0
  0
LINE
  5
2D655
  8
0
 10
5774.7255878097194
 20
408.0404681026507205
 30
0.0
 11
5774.7255878097194
 21
407.9417830632506821
 31
0.0
  0
LINE
  5
2D656
  8
0
 10
5774.7345862055199177
 20
408.0404681026507205
 30
0.0
 11
5774.7345862055199177
 21
407.9417830632506821
 31
0.0
  0
LINE
  5
2D657
  8
0
 10
5774.7380742632185502
 20
408.0404681026507205
 30
0.0
 11
5774.7380742632185502
 21
407.9417830632506821
 31
0.0
  0
LINE
  5
2D658
  8
0
 10
5774.745213348019206
 20
408.0404681026507205
 30
0.0
 11
5774.745213348019206
 21
407.9417830632506821
 31
0.0
  0
LINE
  5
2D659
  8
0
 10
5774.7478858952190421
 20
408.0404681026507205
 30
0.0
 11
5774.7478858952190421
 21
407.9417830632506821
 31
0.0
  0
LINE
  5
2D65A
  8
0
 10
5774.7531113361192183
 20
408.0404681026507205
 30
0.0
 11
5774.7531113361192183
 21
407.9417830632506821
 31
0.0
  0
LINE
  5
2D65B
  8
0
 10
5774.7549480332199892
 20
408.0404681026507205
 30
0.0
 11
5774.7549480332190797
 21
407.9417830632506821
 31
0.0
  0
LINE
  5
2D65C
  8
0
 10
5774.7582200615197507
 20
408.0404681026507205
 30
0.0
 11
5774.7582200615197507
 21
407.9417830632506821
 31
0.0
  0
LINE
  5
2D65D
  8
0
 10
5774.7592069299198556
 20
408.0404681026507205
 30
0.0
 11
5774.7592069299198556
 21
407.9417830632506821
 31
0.0
  0
LINE
  5
2D65E
  8
0
 10
5774.7605006435196628
 20
408.0404681026507205
 30
0.0
 11
5774.7605006435196628
 21
407.9417830632506821
 31
0.0
  0
LINE
  5
2D65F
  8
0
 10
5774.7606301728192193
 20
408.0404681026507205
 30
0.0
 11
5774.7606301728192193
 21
407.9417830632506821
 31
0.0
  0
LINE
  5
2D660
  8
0
 10
5774.0322837161193092
 20
407.9417830632506821
 30
0.0
 11
5774.0322837161193092
 21
407.9220980238507082
 31
0.0
  0
LINE
  5
2D661
  8
0
 10
5774.7409451334187906
 20
407.9417830632506821
 30
0.0
 11
5774.7409451334187906
 21
407.9220980238507082
 31
0.0
  0
LINE
  5
2D662
  8
0
 10
5746.4535435586831227
 20
408.0404681026507205
 30
0.0
 11
5802.3196852908567962
 21
408.0404681026507205
 31
0.0
  0
LINE
  5
2D663
  8
0
 10
5802.3590553695930794
 20
408.0010980238507159
 30
0.0
 11
5804.3275593066191504
 21
408.0010980238507159
 31
0.0
  0
LINE
  5
2D664
  8
0
 10
5802.2803152122196479
 20
408.0798381813506808
 30
0.0
 11
5804.4062994641199111
 21
408.0798381813506808
 31
0.0
  0
LINE
  5
2D665
  8
0
 10
5804.8787404090189739
 20
443.1585783388507025
 30
0.0
 11
5804.8787404090189739
 21
442.5286570789506868
 31
0.0
  0
LINE
  5
2D666
  8
0
 10
5804.8393703302208451
 20
447.1736964490506807
 30
0.0
 11
5804.8393703302208451
 21
443.1979484175507196
 31
0.0
  0
LINE
  5
2D667
  8
0
 10
5804.7993703302199719
 20
447.2136964490507012
 30
0.0
 11
5804.8393703302208451
 21
447.1736964490506807
 31
0.0
  0
LINE
  5
2D668
  8
0
 10
5804.8787404090189739
 20
443.1585783388507025
 30
0.0
 11
5804.8393703302208451
 21
443.1979484175507196
 31
0.0
  0
LINE
  5
2D669
  8
0
 10
5804.8000002515200322
 20
443.1585783388507025
 30
0.0
 11
5804.8000002515200322
 21
442.5286570789506868
 31
0.0
  0
LINE
  5
2D66A
  8
0
 10
5804.8787404090189739
 20
442.5286570789506868
 30
0.0
 11
5804.8393703302208451
 21
442.4892870002507834
 31
0.0
  0
LINE
  5
2D66B
  8
0
 10
5804.8393703302208451
 20
442.4892870002507834
 30
0.0
 11
5804.8000002515200322
 21
442.5286570789506868
 31
0.0
  0
LINE
  5
2D66C
  8
0
 10
5804.8393703302208451
 20
443.1979484175507196
 30
0.0
 11
5804.8000002515200322
 21
443.1585783388507025
 31
0.0
  0
LINE
  5
2D66D
  8
0
 10
5804.4062994641199111
 20
442.4892870002507834
 30
0.0
 11
5804.4062994641199111
 21
413.0798381813507945
 31
0.0
  0
LINE
  5
2D66E
  8
0
 10
5804.4062994641199111
 20
412.7648775514506951
 30
0.0
 11
5804.4062994641199111
 21
411.2688145592506999
 31
0.0
  0
LINE
  5
2D66F
  8
0
 10
5804.4062994641199111
 20
410.9538539293508279
 30
0.0
 11
5804.4062994641199111
 21
408.0798381813506808
 31
0.0
  0
LINE
  5
2D670
  8
0
 10
5804.6425199365194203
 20
413.0798381813507945
 30
0.0
 11
5804.6425199365194203
 21
412.7648775514506951
 31
0.0
  0
LINE
  5
2D671
  8
0
 10
5804.6425199365194203
 20
411.2688145592506999
 30
0.0
 11
5804.6425199365194203
 21
410.9538539293508279
 31
0.0
  0
LINE
  5
2D672
  8
0
 10
5802.0440947397191849
 20
412.7648775514506951
 30
0.0
 11
5802.0440947397191849
 21
413.0798381813507945
 31
0.0
  0
LINE
  5
2D673
  8
0
 10
5802.0440947397191849
 20
411.2688145592506999
 30
0.0
 11
5802.0440947397191849
 21
410.9538539293508279
 31
0.0
  0
LINE
  5
2D674
  8
0
 10
5804.4062994641199111
 20
408.0798381813506808
 30
0.0
 11
5804.3275593066191504
 21
408.0010980238507159
 31
0.0
  0
LINE
  5
2D675
  8
0
 10
5802.2803152122196479
 20
408.0798381813506808
 30
0.0
 11
5802.2803152122196479
 21
410.9538539293508279
 31
0.0
  0
LINE
  5
2D676
  8
0
 10
5802.2803152122196479
 20
411.2688145592506999
 30
0.0
 11
5802.2803152122196479
 21
412.7648775514506951
 31
0.0
  0
LINE
  5
2D677
  8
0
 10
5802.2803152122196479
 20
413.0798381813507945
 30
0.0
 11
5802.2803152122196479
 21
442.4892870001486926
 31
0.0
  0
LINE
  5
2D678
  8
0
 10
5802.1818900153193681
 20
413.1782633781506888
 30
0.0
 11
5802.1818900153193681
 21
432.1940114096507273
 31
0.0
  0
LINE
  5
2D679
  8
0
 10
5780.4496065507191815
 20
432.1940114096507273
 30
0.0
 11
5791.2566931649198523
 21
432.1940114096507273
 31
0.0
  0
LINE
  5
2D67A
  8
0
 10
5791.3748034011196069
 20
432.1940114096507273
 30
0.0
 11
5802.1818900153193681
 21
432.1940114096507273
 31
0.0
  0
LINE
  5
2D67B
  8
0
 10
5802.2803152122196479
 20
431.7609405435507028
 30
0.0
 11
5802.1818900153193681
 21
431.7609405435507028
 31
0.0
  0
LINE
  5
2D67C
  8
0
 10
5802.2803152122196479
 20
429.9412948742506728
 30
0.0
 11
5802.2344474854198779
 21
429.9412948742506728
 31
0.0
  0
ARC
  5
2D67D
  8
0
 10
5802.2344474854198779
 20
429.9362950667003247
 30
0.0
 40
0.0049998075504316
 50
90.0
 51
160.477020671360691
  0
ARC
  5
2D67E
  8
0
 10
5802.2202899139010697
 20
429.9413149167647248
 30
0.0
 40
0.0100213683676464
 50
273.1384445320941268
 51
340.477020671363789
  0
ARC
  5
2D67F
  8
0
 10
5802.1225552083742514
 20
431.7237852998197809
 30
0.0
 40
1.795169188334701
 50
272.8615543927598992
 51
273.1384445320941268
  0
ARC
  5
2D680
  8
0
 10
5802.2151367253163698
 20
429.8716034939614019
 30
0.0
 40
0.0593250228270465
 50
92.8615543927599134
 51
124.0845927917819012
  0
LINE
  5
2D681
  8
0
 10
5802.2803152122196479
 20
429.3950697879507175
 30
0.0
 11
5802.2344474104202163
 21
429.3950697877506855
 31
0.0
  0
ARC
  5
2D682
  8
0
 10
5802.2221703536260975
 20
429.412895949197889
 30
0.0
 40
0.0216448182124637
 50
267.1661885784400283
 51
304.5555756569930281
  0
ARC
  5
2D683
  8
0
 10
5802.8427693187431942
 20
398.0617587173222773
 30
0.0
 40
31.3356861394033892
 50
91.1367662601102069
 51
91.153270838024028
  0
ARC
  5
2D684
  8
0
 10
5802.2138232534844065
 20
429.2725494983188241
 30
0.0
 40
0.1185606065855737
 50
90.8446426647184637
 51
105.6250592078284001
  0
LINE
  5
2D685
  8
0
 10
5802.229735126583364
 20
429.3997428003596042
 30
0.0
 11
5802.229735126583364
 21
429.9379663030376832
 31
0.0
  0
ARC
  5
2D686
  8
0
 10
5802.2351788726346058
 20
429.4005198459058192
 30
0.0
 40
0.0054989245190149
 50
188.1235786858134986
 51
262.355908034793174
  0
LINE
  5
2D687
  8
0
 10
5802.2803152122196479
 20
429.3810948742507776
 30
0.0
 11
5802.2502914508186223
 21
429.3810906649794106
 31
0.0
  0
ARC
  5
2D688
  8
0
 10
5802.2220893516341675
 20
429.4854916081390002
 30
0.0
 40
0.1081430318196126
 50
271.7093622667464956
 51
285.11665658201008
  0
ARC
  5
2D689
  8
0
 10
5802.2231376948566322
 20
429.2542037250869953
 30
0.0
 40
0.1232122179910182
 50
88.9873646286636557
 51
98.3169345949667388
  0
ARC
  5
2D68A
  8
0
 10
5802.209576559756897
 20
429.3587244267833967
 30
0.0
 40
0.0179100410810406
 50
103.7644371857230965
 51
142.7760054104383016
  0
LINE
  5
2D68B
  8
0
 10
5802.1953152122196116
 20
429.3695587951506809
 30
0.0
 11
5802.1953152122196116
 21
429.2412948742506842
 31
0.0
  0
LINE
  5
2D68C
  8
0
 10
5802.2803152122196479
 20
429.2412948742506842
 30
0.0
 11
5802.1818900154194125
 21
429.2412948742506842
 31
0.0
  0
LINE
  5
2D68D
  8
0
 10
5802.1818900154194125
 20
429.2012948742507774
 30
0.0
 11
5802.2803152122196479
 21
429.2012948742507774
 31
0.0
  0
LINE
  5
2D68E
  8
0
 10
5802.2803152122196479
 20
429.2612948742507228
 30
0.0
 11
5802.250306252520204
 21
429.2612948742507228
 31
0.0
  0
ARC
  5
2D68F
  8
0
 10
5802.2201893454130186
 20
429.3016147420448192
 30
0.0
 40
0.0503261346876431
 50
273.1240427635780179
 51
306.7578759032999187
  0
ARC
  5
2D690
  8
0
 10
5802.2910405713610089
 20
427.9103337371219027
 30
0.0
 40
1.3427581041564629
 50
92.9074547152166446
 51
93.2776367617902054
  0
ARC
  5
2D691
  8
0
 10
5802.2153381999187332
 20
429.2309511372507131
 30
0.0
 40
0.0199728580000033
 50
93.0679741169077346
 51
148.7622009759035961
  0
LINE
  5
2D692
  8
0
 10
5802.1818900154194125
 20
429.3049701330506878
 30
0.0
 11
5802.1953152122196116
 21
429.3049701330506878
 31
0.0
  0
LINE
  5
2D693
  8
0
 10
5802.1818900154194125
 20
429.2909483792507785
 30
0.0
 11
5802.1953152122196116
 21
429.2909483792507785
 31
0.0
  0
LINE
  5
2D694
  8
0
 10
5802.2503022935507033
 20
429.2613001646429893
 30
0.0
 11
5802.250306252520204
 21
429.3810948742507776
 31
0.0
  0
LINE
  5
2D695
  8
0
 10
5802.2253152122193569
 20
429.3773967000507241
 30
0.0
 11
5802.2253152122193569
 21
429.3587161340507237
 31
0.0
  0
ARC
  5
2D696
  8
0
 10
5802.1953152123205655
 20
429.3587161340507237
 30
0.0
 40
0.0299999998993181
 50
289.4712204985049766
 51
0.0
  0
ARC
  5
2D697
  8
0
 10
5802.2103152121690073
 20
429.3162897272862892
 30
0.0
 40
0.0149999999496595
 50
109.471220498505005
 51
180.0000001359653083
  0
LINE
  5
2D698
  8
0
 10
5802.2175864228202045
 20
429.2412948742506842
 30
0.0
 11
5802.2175864228202045
 21
429.2510832471851927
 31
0.0
  0
LINE
  5
2D699
  8
0
 10
5802.1818900154194125
 20
429.0958653026506795
 30
0.0
 11
5802.2540384221201748
 21
429.002967736650703
 31
0.0
  0
ARC
  5
2D69A
  8
0
 10
5802.14003248607969
 20
428.9262948742007211
 30
0.0
 40
0.1373902517962206
 50
326.077828818714579
 51
33.9221711812854068
  0
LINE
  5
2D69B
  8
0
 10
5802.2540384221201748
 20
428.8496220117506823
 30
0.0
 11
5802.1818900154194125
 21
428.7567244457507059
 31
0.0
  0
LINE
  5
2D69C
  8
0
 10
5802.1818900154194125
 20
428.8137850519507879
 30
0.0
 11
5802.2263959233196147
 21
428.8710904132507267
 31
0.0
  0
ARC
  5
2D69D
  8
0
 10
5802.155315212217829
 20
428.9262948742289723
 30
0.0
 40
0.090000000014216
 50
322.1654873536099899
 51
37.8345126543563666
  0
LINE
  5
2D69E
  8
0
 10
5802.2263959233123387
 20
428.9814993352172223
 30
0.0
 11
5802.1818900154194125
 21
429.0388046964911268
 31
0.0
  0
LINE
  5
2D69F
  8
0
 10
5802.2803152122196479
 20
427.9112948742507001
 30
0.0
 11
5802.2344474854198779
 21
427.9112948742507001
 31
0.0
  0
ARC
  5
2D6A0
  8
0
 10
5802.2344474854198779
 20
427.9162946818011051
 30
0.0
 40
0.0049998075504316
 50
199.522979328639309
 51
270.0
  0
ARC
  5
2D6A1
  8
0
 10
5802.2202899139010697
 20
427.911274831736705
 30
0.0
 40
0.0100213683676464
 50
19.5229793286362217
 51
86.8615554679059159
  0
ARC
  5
2D6A2
  8
0
 10
5802.1225552083742514
 20
426.128804448681592
 30
0.0
 40
1.795169188334701
 50
86.8615554679059159
 51
87.138445607240115
  0
ARC
  5
2D6A3
  8
0
 10
5802.2151367253163698
 20
427.9809862545400847
 30
0.0
 40
0.0593250228270465
 50
235.9154072082179994
 51
267.1384456072399871
  0
LINE
  5
2D6A4
  8
0
 10
5802.2803152122196479
 20
428.4575199605507123
 30
0.0
 11
5802.2344474104202163
 21
428.4575199607506875
 31
0.0
  0
ARC
  5
2D6A5
  8
0
 10
5802.2221703536260975
 20
428.439693799303484
 30
0.0
 40
0.0216448182124637
 50
55.4444243430070429
 51
92.8338114215599433
  0
ARC
  5
2D6A6
  8
0
 10
5802.8427693187431942
 20
459.7908310311792093
 30
0.0
 40
31.3356861394033892
 50
268.8467291619759862
 51
268.8632337398897789
  0
ARC
  5
2D6A7
  8
0
 10
5802.2138232534844065
 20
428.5800402501826056
 30
0.0
 40
0.1185606065855737
 50
254.3749407921715999
 51
269.1553573352816215
  0
ARC
  5
2D6A8
  8
0
 10
5802.2351788726346058
 20
428.4520699025957242
 30
0.0
 40
0.0054989245190149
 50
97.6440919652067407
 51
171.8764213141865014
  0
LINE
  5
2D6A9
  8
0
 10
5802.2803152122196479
 20
428.471494874250709
 30
0.0
 11
5802.2502914508186223
 21
428.471499083522076
 31
0.0
  0
ARC
  5
2D6AA
  8
0
 10
5802.2220893516341675
 20
428.3670981403623728
 30
0.0
 40
0.1081430318196126
 50
74.8833434179898489
 51
88.290637733305573
  0
ARC
  5
2D6AB
  8
0
 10
5802.2231376948566322
 20
428.5983860234143776
 30
0.0
 40
0.1232122179910182
 50
261.6830654050331759
 51
271.0126353713363869
  0
ARC
  5
2D6AC
  8
0
 10
5802.209576559756897
 20
428.4938653217179763
 30
0.0
 40
0.0179100410810406
 50
217.2239945895616131
 51
256.2355628142768751
  0
LINE
  5
2D6AD
  8
0
 10
5802.1953152122196116
 20
428.483030953350692
 30
0.0
 11
5802.1953152122196116
 21
428.6112948742506887
 31
0.0
  0
LINE
  5
2D6AE
  8
0
 10
5802.2803152122196479
 20
428.6112948742506887
 30
0.0
 11
5802.1818900154194125
 21
428.6112948742506887
 31
0.0
  0
LINE
  5
2D6AF
  8
0
 10
5802.1818900154194125
 20
428.6512948742507092
 30
0.0
 11
5802.2803152122196479
 21
428.6512948742507092
 31
0.0
  0
LINE
  5
2D6B0
  8
0
 10
5802.2803152122196479
 20
428.5912948742507069
 30
0.0
 11
5802.250306252520204
 21
428.5912948742507069
 31
0.0
  0
ARC
  5
2D6B1
  8
0
 10
5802.2201893454130186
 20
428.5509750064567811
 30
0.0
 40
0.0503261346876431
 50
53.2421240967001026
 51
86.8759572364219963
  0
ARC
  5
2D6B2
  8
0
 10
5802.2910405713610089
 20
429.9422560113795839
 30
0.0
 40
1.3427581041564629
 50
266.7223632382098231
 51
267.0925452847832844
  0
ARC
  5
2D6B3
  8
0
 10
5802.2153381999187332
 20
428.6216386112507166
 30
0.0
 40
0.0199728580000033
 50
211.2377990240964039
 51
266.9320258830921944
  0
LINE
  5
2D6B4
  8
0
 10
5802.1818900154194125
 20
428.5476196154506852
 30
0.0
 11
5802.1953152122196116
 21
428.5476196154506852
 31
0.0
  0
LINE
  5
2D6B5
  8
0
 10
5802.1818900154194125
 20
428.5616413692507081
 30
0.0
 11
5802.1953152122196116
 21
428.5616413692507081
 31
0.0
  0
LINE
  5
2D6B6
  8
0
 10
5802.2503022935507033
 20
428.5912895838583836
 30
0.0
 11
5802.250306252520204
 21
428.471494874250709
 31
0.0
  0
LINE
  5
2D6B7
  8
0
 10
5802.2253152122193569
 20
428.4751930484508193
 30
0.0
 11
5802.2253152122193569
 21
428.4938736144507061
 31
0.0
  0
ARC
  5
2D6B8
  8
0
 10
5802.1953152123205655
 20
428.4938736144507061
 30
0.0
 40
0.0299999998993181
 50
0.0
 51
70.528779501494995
  0
ARC
  5
2D6B9
  8
0
 10
5802.2103152121690073
 20
428.5363000212150837
 30
0.0
 40
0.0149999999496595
 50
179.9999998640346917
 51
250.528779501494995
  0
LINE
  5
2D6BA
  8
0
 10
5802.2175864228202045
 20
428.6112948742506887
 30
0.0
 11
5802.2175864228202045
 21
428.6015065013161802
 31
0.0
  0
LINE
  5
2D6BB
  8
0
 10
5802.2297350087192171
 20
428.4528460251506772
 30
0.0
 11
5802.2297350087192171
 21
427.9146237779297053
 31
0.0
  0
LINE
  5
2D6BC
  8
0
 10
5802.2803152122196479
 20
423.1585783387507149
 30
0.0
 11
5802.1818900153193681
 21
423.1585783387507149
 31
0.0
  0
LINE
  5
2D6BD
  8
0
 10
5802.2803152122196479
 20
422.9617279450507112
 30
0.0
 11
5802.1818900153193681
 21
422.9617279450507112
 31
0.0
  0
LINE
  5
2D6BE
  8
0
 10
5802.2803152122196479
 20
422.9223578663506942
 30
0.0
 11
5802.1818900153193681
 21
422.9223578663506942
 31
0.0
  0
LINE
  5
2D6BF
  8
0
 10
5802.2803152122196479
 20
415.4309469628838087
 30
0.0
 11
5802.2344474854198779
 21
415.4309469628838087
 31
0.0
  0
ARC
  5
2D6C0
  8
0
 10
5802.2344474854198779
 20
415.4359467704343274
 30
0.0
 40
0.0049998075504316
 50
199.522979328639309
 51
270.0
  0
ARC
  5
2D6C1
  8
0
 10
5802.2202899139010697
 20
415.4309269203698136
 30
0.0
 40
0.0100213683676464
 50
19.5229793286362217
 51
86.8615554679059159
  0
ARC
  5
2D6C2
  8
0
 10
5802.1225552083742514
 20
413.6484565373147007
 30
0.0
 40
1.795169188334701
 50
86.8615554679059159
 51
87.138445607240115
  0
ARC
  5
2D6C3
  8
0
 10
5802.2151367253163698
 20
415.5006383431731933
 30
0.0
 40
0.0593250228270465
 50
235.9154072082179994
 51
267.1384456072399871
  0
LINE
  5
2D6C4
  8
0
 10
5802.2803152122196479
 20
415.9771720491838209
 30
0.0
 11
5802.2344474104202163
 21
415.9771720493837961
 31
0.0
  0
ARC
  5
2D6C5
  8
0
 10
5802.2221703536260975
 20
415.9593458879365926
 30
0.0
 40
0.0216448182124637
 50
55.4444243430070429
 51
92.8338114215599433
  0
ARC
  5
2D6C6
  8
0
 10
5802.8427693187431942
 20
447.3104831198123179
 30
0.0
 40
31.3356861394033892
 50
268.8467291619759862
 51
268.8632337398897789
  0
ARC
  5
2D6C7
  8
0
 10
5802.2138232534844065
 20
416.0996923388156006
 30
0.0
 40
0.1185606065855737
 50
254.3749407921715999
 51
269.1553573352816215
  0
LINE
  5
2D6C8
  8
0
 10
5802.229735126583364
 20
415.9724990367749911
 30
0.0
 11
5802.229735126583364
 21
415.434275534096912
 31
0.0
  0
ARC
  5
2D6C9
  8
0
 10
5802.2351788726346058
 20
415.971721991228776
 30
0.0
 40
0.0054989245190149
 50
97.6440919652067407
 51
171.8764213141865014
  0
LINE
  5
2D6CA
  8
0
 10
5802.2803152122196479
 20
415.9911469628838745
 30
0.0
 11
5802.2502914508186223
 21
415.9911511721551847
 31
0.0
  0
ARC
  5
2D6CB
  8
0
 10
5802.2220893516341675
 20
415.8867502289955951
 30
0.0
 40
0.1081430318196126
 50
74.8833434179898489
 51
88.290637733253476
  0
ARC
  5
2D6CC
  8
0
 10
5802.2231376948566322
 20
416.1180381120474863
 30
0.0
 40
0.1232122179910182
 50
261.6830654050331759
 51
271.0126353713363869
  0
ARC
  5
2D6CD
  8
0
 10
5802.209576559756897
 20
416.013517410351028
 30
0.0
 40
0.0179100410810406
 50
217.2239945895616131
 51
256.2355628142768751
  0
LINE
  5
2D6CE
  8
0
 10
5802.1953152122196116
 20
416.0026830419838006
 30
0.0
 11
5802.1953152122196116
 21
416.1309469628837974
 31
0.0
  0
LINE
  5
2D6CF
  8
0
 10
5802.2803152122196479
 20
416.1309469628837974
 30
0.0
 11
5802.1818900154194125
 21
416.1309469628837974
 31
0.0
  0
LINE
  5
2D6D0
  8
0
 10
5802.1818900154194125
 20
416.1709469628838747
 30
0.0
 11
5802.2803152122196479
 21
416.1709469628838747
 31
0.0
  0
LINE
  5
2D6D1
  8
0
 10
5802.2803152122196479
 20
416.1109469628838156
 30
0.0
 11
5802.250306252520204
 21
416.1109469628838156
 31
0.0
  0
ARC
  5
2D6D2
  8
0
 10
5802.2201893454130186
 20
416.0706270950898897
 30
0.0
 40
0.0503261346876431
 50
53.2421240967001026
 51
86.8759572364219963
  0
ARC
  5
2D6D3
  8
0
 10
5802.2910405713610089
 20
417.4619081000125789
 30
0.0
 40
1.3427581041564629
 50
266.7223632382098231
 51
267.0925452847832844
  0
ARC
  5
2D6D4
  8
0
 10
5802.2153381999187332
 20
416.1412906998838821
 30
0.0
 40
0.0199728580000033
 50
211.2377990240964039
 51
266.9320258830921944
  0
LINE
  5
2D6D5
  8
0
 10
5802.1818900154194125
 20
416.0672717040837938
 30
0.0
 11
5802.1953152122196116
 21
416.0672717040837938
 31
0.0
  0
LINE
  5
2D6D6
  8
0
 10
5802.1818900154194125
 20
416.0812934578838735
 30
0.0
 11
5802.1953152122196116
 21
416.0812934578838735
 31
0.0
  0
LINE
  5
2D6D7
  8
0
 10
5802.2503022935507033
 20
416.1109416724916059
 30
0.0
 11
5802.250306252520204
 21
415.9911469628838745
 31
0.0
  0
LINE
  5
2D6D8
  8
0
 10
5802.2253152122193569
 20
415.9948451370838143
 30
0.0
 11
5802.2253152122193569
 21
416.0135257030838147
 31
0.0
  0
ARC
  5
2D6D9
  8
0
 10
5802.1953152123205655
 20
416.0135257030838147
 30
0.0
 40
0.0299999998993181
 50
0.0
 51
70.528779501494995
  0
ARC
  5
2D6DA
  8
0
 10
5802.2103152121690073
 20
416.0559521098481923
 30
0.0
 40
0.0149999999496595
 50
179.9999998640346917
 51
250.528779501494995
  0
LINE
  5
2D6DB
  8
0
 10
5802.2175864228202045
 20
416.1309469628837974
 30
0.0
 11
5802.2175864228202045
 21
416.1211585899494025
 31
0.0
  0
LINE
  5
2D6DC
  8
0
 10
5802.1818900154194125
 20
416.2763765344839157
 30
0.0
 11
5802.2540384221201748
 21
416.3692741004837785
 31
0.0
  0
ARC
  5
2D6DD
  8
0
 10
5802.14003248607969
 20
416.4459469629338173
 30
0.0
 40
0.1373902517962206
 50
326.077828818714579
 51
33.9221711812854068
  0
LINE
  5
2D6DE
  8
0
 10
5802.2540384221201748
 20
416.5226198253837993
 30
0.0
 11
5802.1818900154194125
 21
416.6155173913837757
 31
0.0
  0
LINE
  5
2D6DF
  8
0
 10
5802.1818900154194125
 20
416.5584567851838074
 30
0.0
 11
5802.2263959233196147
 21
416.5011514238838117
 31
0.0
  0
ARC
  5
2D6E0
  8
0
 10
5802.155315212217829
 20
416.4459469629055093
 30
0.0
 40
0.090000000014216
 50
322.1654873456436121
 51
37.8345126463899533
  0
LINE
  5
2D6E1
  8
0
 10
5802.2263959233123387
 20
416.3907425019173161
 30
0.0
 11
5802.1818900154194125
 21
416.3334371406435253
 31
0.0
  0
LINE
  5
2D6E2
  8
0
 10
5802.2803152122196479
 20
417.4609469628837815
 30
0.0
 11
5802.2344474854198779
 21
417.4609469628837815
 31
0.0
  0
ARC
  5
2D6E3
  8
0
 10
5802.2344474854198779
 20
417.4559471553333765
 30
0.0
 40
0.0049998075504316
 50
90.0
 51
160.477020671360691
  0
ARC
  5
2D6E4
  8
0
 10
5802.2202899139010697
 20
417.4609670053977766
 30
0.0
 40
0.0100213683676464
 50
273.1384445320941268
 51
340.477020671363789
  0
ARC
  5
2D6E5
  8
0
 10
5802.1225552083742514
 20
419.2434373884528895
 30
0.0
 40
1.795169188334701
 50
272.8615543927598992
 51
273.1384445320941268
  0
ARC
  5
2D6E6
  8
0
 10
5802.2151367253163698
 20
417.3912555825943969
 30
0.0
 40
0.0593250228270465
 50
92.8615543927599134
 51
124.0845927917819012
  0
LINE
  5
2D6E7
  8
0
 10
5802.2803152122196479
 20
416.9147218765838261
 30
0.0
 11
5802.2344474104202163
 21
416.9147218763837941
 31
0.0
  0
ARC
  5
2D6E8
  8
0
 10
5802.2221703536260975
 20
416.9325480378311113
 30
0.0
 40
0.0216448182124637
 50
267.1661885784400283
 51
304.5555756569930281
  0
ARC
  5
2D6E9
  8
0
 10
5802.8427693187431942
 20
385.581410805955386
 30
0.0
 40
31.3356861394033892
 50
91.1367662601102069
 51
91.153270838024028
  0
ARC
  5
2D6EA
  8
0
 10
5802.2138232534844065
 20
416.7922015869518759
 30
0.0
 40
0.1185606065855737
 50
90.8446426647184637
 51
105.6250592078284001
  0
ARC
  5
2D6EB
  8
0
 10
5802.2351788726346058
 20
416.9201719345389279
 30
0.0
 40
0.0054989245190149
 50
188.1235786858134986
 51
262.355908034793174
  0
LINE
  5
2D6EC
  8
0
 10
5802.2803152122196479
 20
416.9007469628837725
 30
0.0
 11
5802.2502914508186223
 21
416.9007427536125192
 31
0.0
  0
ARC
  5
2D6ED
  8
0
 10
5802.2220893516341675
 20
417.0051436967721088
 30
0.0
 40
0.1081430318196126
 50
271.709362266694427
 51
285.11665658201008
  0
ARC
  5
2D6EE
  8
0
 10
5802.2231376948566322
 20
416.7738558137201039
 30
0.0
 40
0.1232122179910182
 50
88.9873646286636557
 51
98.3169345949667388
  0
ARC
  5
2D6EF
  8
0
 10
5802.209576559756897
 20
416.878376515416619
 30
0.0
 40
0.0179100410810406
 50
103.7644371857230965
 51
142.7760054104383016
  0
LINE
  5
2D6F0
  8
0
 10
5802.1953152122196116
 20
416.8892108837837895
 30
0.0
 11
5802.1953152122196116
 21
416.7609469628837928
 31
0.0
  0
LINE
  5
2D6F1
  8
0
 10
5802.2803152122196479
 20
416.7609469628837928
 30
0.0
 11
5802.1818900154194125
 21
416.7609469628837928
 31
0.0
  0
LINE
  5
2D6F2
  8
0
 10
5802.1818900154194125
 20
416.7209469628837724
 30
0.0
 11
5802.2803152122196479
 21
416.7209469628837724
 31
0.0
  0
LINE
  5
2D6F3
  8
0
 10
5802.2803152122196479
 20
416.7809469628838883
 30
0.0
 11
5802.250306252520204
 21
416.7809469628838883
 31
0.0
  0
ARC
  5
2D6F4
  8
0
 10
5802.2201893454130186
 20
416.8212668306778141
 30
0.0
 40
0.0503261346876431
 50
273.1240427635780179
 51
306.7578759032999187
  0
ARC
  5
2D6F5
  8
0
 10
5802.2910405713610089
 20
415.4299858257550113
 30
0.0
 40
1.3427581041564629
 50
92.9074547152166446
 51
93.2776367617902054
  0
ARC
  5
2D6F6
  8
0
 10
5802.2153381999187332
 20
416.7506032258838218
 30
0.0
 40
0.0199728580000033
 50
93.0679741169077346
 51
148.7622009759035961
  0
LINE
  5
2D6F7
  8
0
 10
5802.1818900154194125
 20
416.8246222216837964
 30
0.0
 11
5802.1953152122196116
 21
416.8246222216837964
 31
0.0
  0
LINE
  5
2D6F8
  8
0
 10
5802.1818900154194125
 20
416.8106004678837735
 30
0.0
 11
5802.1953152122196116
 21
416.8106004678837735
 31
0.0
  0
LINE
  5
2D6F9
  8
0
 10
5802.2503022935507033
 20
416.7809522532762116
 30
0.0
 11
5802.250306252520204
 21
416.9007469628837725
 31
0.0
  0
LINE
  5
2D6FA
  8
0
 10
5802.2253152122193569
 20
416.8970487886838896
 30
0.0
 11
5802.2253152122193569
 21
416.8783682226837755
 31
0.0
  0
ARC
  5
2D6FB
  8
0
 10
5802.1953152123205655
 20
416.8783682226837755
 30
0.0
 40
0.0299999998993181
 50
289.4712204985049766
 51
0.0
  0
ARC
  5
2D6FC
  8
0
 10
5802.2103152121690073
 20
416.8359418159193979
 30
0.0
 40
0.0149999999496595
 50
109.471220498505005
 51
180.0000001359653083
  0
LINE
  5
2D6FD
  8
0
 10
5802.2175864228202045
 20
416.7609469628837928
 30
0.0
 11
5802.2175864228202045
 21
416.7707353358183013
 31
0.0
  0
LINE
  5
2D6FE
  8
0
 10
5802.2297350087192171
 20
416.9193958119838044
 30
0.0
 11
5802.2297350087192171
 21
417.4576180592047763
 31
0.0
  0
LINE
  5
2D6FF
  8
0
 10
5802.2803152122196479
 20
421.3475547167507216
 30
0.0
 11
5802.1818900153193681
 21
421.3475547167507216
 31
0.0
  0
LINE
  5
2D700
  8
0
 10
5791.3748034011196069
 20
432.1940114096507273
 30
0.0
 11
5791.3748034011196069
 21
413.1782633781506888
 31
0.0
  0
LINE
  5
2D701
  8
0
 10
5791.2566931649198523
 20
432.1940114096507273
 30
0.0
 11
5791.2566931649198523
 21
413.1782633781506888
 31
0.0
  0
LINE
  5
2D702
  8
0
 10
5791.2566931649198523
 20
431.7609405435507028
 30
0.0
 11
5791.3748034011196069
 21
431.7609405435507028
 31
0.0
  0
LINE
  5
2D703
  8
0
 10
5791.2566931649198523
 20
422.9223578663506942
 30
0.0
 11
5791.3748034011196069
 21
422.9223578663506942
 31
0.0
  0
LINE
  5
2D704
  8
0
 10
5791.2566931649198523
 20
422.3318066852507968
 30
0.0
 11
5791.3748034011196069
 21
422.3318066852507968
 31
0.0
  0
LINE
  5
2D705
  8
0
 10
5791.2566931649198523
 20
421.3475547167507216
 30
0.0
 11
5791.3748034011196069
 21
421.3475547167507216
 31
0.0
  0
LINE
  5
2D706
  8
0
 10
5791.2566931649198523
 20
415.6388932994507854
 30
0.0
 11
5791.3748034011196069
 21
415.6388932994507854
 31
0.0
  0
LINE
  5
2D707
  8
0
 10
5780.4496065507191815
 20
440.8160586537507015
 30
0.0
 11
5780.4496065507191815
 21
432.5089720396507005
 31
0.0
  0
LINE
  5
2D708
  8
0
 10
5780.4496065507191815
 20
432.1940114096507273
 30
0.0
 11
5780.4496065507191815
 21
413.1782633781506888
 31
0.0
  0
LINE
  5
2D709
  8
0
 10
5780.3314963145203365
 20
440.8160586537507015
 30
0.0
 11
5780.3314963145203365
 21
432.5089720396507005
 31
0.0
  0
LINE
  5
2D70A
  8
0
 10
5780.3314963145203365
 20
432.1940114096507273
 30
0.0
 11
5780.3314963145203365
 21
413.1782633781508025
 31
0.0
  0
LINE
  5
2D70B
  8
0
 10
5780.4496065507191815
 20
431.7609405435507028
 30
0.0
 11
5780.3314963145203365
 21
431.7609405435507028
 31
0.0
  0
LINE
  5
2D70C
  8
0
 10
5781.5125986767188806
 20
413.1782633781506888
 30
0.0
 11
5781.5125986767188806
 21
413.1192082600506978
 31
0.0
  0
LINE
  5
2D70D
  8
0
 10
5781.5125986767188806
 20
413.1192082600506978
 30
0.0
 11
5780.7645671806203609
 21
413.1192082600506978
 31
0.0
  0
LINE
  5
2D70E
  8
0
 10
5780.7645671806203609
 20
413.0798381813507945
 30
0.0
 11
5780.7645671806203609
 21
413.1782633781508025
 31
0.0
  0
LINE
  5
2D70F
  8
0
 10
5780.666141983819216
 20
413.0798381813507945
 30
0.0
 11
5780.7448821413199767
 21
413.1192082600506978
 31
0.0
  0
LINE
  5
2D710
  8
0
 10
5780.7448821413199767
 20
413.1192082600506978
 30
0.0
 11
5780.0362207239186318
 21
413.1192082600506978
 31
0.0
  0
LINE
  5
2D711
  8
0
 10
5780.0362207239186318
 20
413.0798381813507945
 30
0.0
 11
5780.0362207239186318
 21
413.1782633781506888
 31
0.0
  0
LINE
  5
2D712
  8
0
 10
5780.7448821413199767
 20
413.1192082600506978
 30
0.0
 11
5780.7448821413199767
 21
413.1782633781506888
 31
0.0
  0
LINE
  5
2D713
  8
0
 10
5779.051968755418784
 20
413.1782633781506888
 30
0.0
 11
5779.051968755418784
 21
413.0798381813507945
 31
0.0
  0
LINE
  5
2D714
  8
0
 10
5775.9614175743199667
 20
413.1782633781506888
 30
0.0
 11
5775.9614175743199667
 21
413.0798381813507945
 31
0.0
  0
LINE
  5
2D715
  8
0
 10
5802.1818900153193681
 20
440.8160586537507015
 30
0.0
 11
5802.1818900153193681
 21
432.5089720396507005
 31
0.0
  0
LINE
  5
2D716
  8
0
 10
5800.5601165408952511
 20
440.9144838506506971
 30
0.0
 11
5800.5268132906203391
 21
440.8160586537507015
 31
0.0
  0
LINE
  5
2D717
  8
0
 10
5799.9763752471608313
 20
440.9144838506506971
 30
0.0
 11
5799.9102663233707062
 21
440.8160586537507015
 31
0.0
  0
LINE
  5
2D718
  8
0
 10
5798.9783222394953555
 20
440.9144838506506971
 30
0.0
 11
5798.9057628088457932
 21
440.8160586537507015
 31
0.0
  0
LINE
  5
2D719
  8
0
 10
5792.9588881207628219
 20
440.9144838506506971
 30
0.0
 11
5792.9536178231583108
 21
440.8160586537507015
 31
0.0
  0
LINE
  5
2D71A
  8
0
 10
5792.6513454047208143
 20
440.9144838506506971
 30
0.0
 11
5792.6461871588198846
 21
440.8160586537507015
 31
0.0
  0
LINE
  5
2D71B
  8
0
 10
5792.0731548164030755
 20
440.9144838506506971
 30
0.0
 11
5792.0682883950457835
 21
440.8160586537507015
 31
0.0
  0
LINE
  5
2D71C
  8
0
 10
5790.5583429617454385
 20
440.9144838506506971
 30
0.0
 11
5790.5632082032088874
 21
440.8160586537507015
 31
0.0
  0
LINE
  5
2D71D
  8
0
 10
5789.9801511612204195
 20
440.9144838506506971
 30
0.0
 11
5789.9853094072195745
 21
440.8160586537507015
 31
0.0
  0
LINE
  5
2D71E
  8
0
 10
5789.6726084453121075
 20
440.9144838506506971
 30
0.0
 11
5789.6778787428265787
 21
440.8160586537507015
 31
0.0
  0
LINE
  5
2D71F
  8
0
 10
5788.7566931649198523
 20
440.9144838506506971
 30
0.0
 11
5788.7566931649198523
 21
440.8160586537507015
 31
0.0
  0
LINE
  5
2D720
  8
0
 10
5786.0007876531199145
 20
440.8160586537507015
 30
0.0
 11
5786.0007876531199145
 21
440.9144838506506971
 31
0.0
  0
LINE
  5
2D721
  8
0
 10
5783.6533945723076613
 20
440.9144838506506971
 30
0.0
 11
5783.7255356654677598
 21
440.8160586537507015
 31
0.0
  0
LINE
  5
2D722
  8
0
 10
5782.6553275089081581
 20
440.9144838506506971
 30
0.0
 11
5782.7209632933636385
 21
440.8160586537507015
 31
0.0
  0
LINE
  5
2D723
  8
0
 10
5782.0720815252343527
 20
440.9144838506506971
 30
0.0
 11
5782.1042378538886624
 21
440.8160586537507015
 31
0.0
  0
LINE
  5
2D724
  8
0
 10
5781.5125986767188806
 20
440.9144838506506971
 30
0.0
 11
5781.5125986767188806
 21
440.8160586537507015
 31
0.0
  0
LINE
  5
2D725
  8
0
 10
5780.7645671806203609
 20
440.9144838506506971
 30
0.0
 11
5780.7645671806203609
 21
440.8160586537507015
 31
0.0
  0
LINE
  5
2D726
  8
0
 10
5780.7448821413199767
 20
440.9144838506506971
 30
0.0
 11
5780.7448821413199767
 21
440.8160586537507015
 31
0.0
  0
LINE
  5
2D727
  8
0
 10
5780.0362207239186318
 20
440.9144838506506971
 30
0.0
 11
5780.0362207239186318
 21
440.8160586537507015
 31
0.0
  0
LINE
  5
2D728
  8
0
 10
5802.2403152121696621
 20
439.3296807010506768
 30
0.0
 11
5802.2403152121696621
 21
438.1685783388506934
 31
0.0
  0
LINE
  5
2D729
  8
0
 10
5802.2503152121698804
 20
439.3396807010507814
 30
0.0
 11
5802.2803152122196479
 21
439.3396807010507814
 31
0.0
  0
LINE
  5
2D72A
  8
0
 10
5802.2503152121698804
 20
438.1585783388508162
 30
0.0
 11
5802.2803152122196479
 21
438.1585783388508162
 31
0.0
  0
ARC
  5
2D72B
  8
0
 10
5802.2797745871694133
 20
438.3554287325507062
 30
0.0
 40
0.1594593749999347
 50
232.1313955421447872
 51
255.6729050683157141
  0
ARC
  5
2D72C
  8
0
 10
5802.2797745871694133
 20
438.3554287325508199
 30
0.0
 40
0.1594593749999221
 50
104.3270949316842007
 51
127.8686044578551986
  0
ARC
  5
2D72D
  8
0
 10
5802.2710238735689927
 20
438.7267374435508032
 30
0.0
 40
0.2078740157001794
 50
244.6093395450938033
 51
257.1422751206723092
  0
ARC
  5
2D72E
  8
0
 10
5802.2203147119025743
 20
438.5045764925110916
 30
0.0
 40
0.0200007464913619
 50
15.0001921933657592
 51
77.1422751206722097
  0
ARC
  5
2D72F
  8
0
 10
5802.2669367620119374
 20
438.7826313689158155
 30
0.0
 40
0.1960517062609009
 50
102.4215601226380983
 51
115.7088037472900055
  0
ARC
  5
2D730
  8
0
 10
5802.2196393885278667
 20
438.9950781281696095
 30
0.0
 40
0.0216013825114247
 50
283.7274811648150035
 51
343.166985429333522
  0
ARC
  5
2D731
  8
0
 10
5802.2797745871694133
 20
439.1428303073507777
 30
0.0
 40
0.15945937500008
 50
232.1313955421447872
 51
255.6197202105759914
  0
ARC
  5
2D732
  8
0
 10
5802.2797745871694133
 20
439.1428303073507209
 30
0.0
 40
0.1594593750000291
 50
104.3270949316842007
 51
127.8686044578551986
  0
ARC
  5
2D733
  8
0
 10
5802.2503152121698804
 20
439.3296807010506768
 30
0.0
 40
0.01
 50
90.0
 51
180.0000000000194973
  0
ARC
  5
2D734
  8
0
 10
5802.2503152121698804
 20
438.1685783388506934
 30
0.0
 40
0.01
 50
180.0000000000098055
 51
270.0
  0
LINE
  5
2D735
  8
0
 10
5802.1818900153193681
 20
437.3318066852506831
 30
0.0
 11
5802.2803152122196479
 21
437.3318066852506831
 31
0.0
  0
LINE
  5
2D736
  8
0
 10
5792.6244093455197799
 20
429.1575940868507928
 30
0.0
 11
5793.1173234628186037
 21
429.1575940868507928
 31
0.0
  0
ARC
  5
2D737
  8
0
 10
5793.1173234628186037
 20
429.1275940868508201
 30
0.0
 40
0.0299999999999994
 50
45.0028742800917172
 51
90.0
  0
LINE
  5
2D738
  8
0
 10
5793.1385356020546169
 20
429.1488083544336973
 30
0.0
 11
5793.4870970811261941
 21
428.8002818452346787
 31
0.0
  0
ARC
  5
2D739
  8
0
 10
5793.4662874448313232
 20
428.7794701209768959
 30
0.0
 40
0.0294307463263295
 50
359.1526486582703228
 51
45.0028742800917172
  0
LINE
  5
2D73A
  8
0
 10
5793.4957149727197248
 20
428.7790348834507199
 30
0.0
 11
5793.49586622967945
 21
428.2860379595438189
 31
0.0
  0
ARC
  5
2D73B
  8
0
 10
5793.4662808157318068
 20
428.2860706820741825
 30
0.0
 40
0.029585432043012
 50
314.5088201439992872
 51
359.9366288357688859
  0
LINE
  5
2D73C
  8
0
 10
5793.4870207673193363
 20
428.2649720518506911
 30
0.0
 11
5793.1377969393970488
 21
427.9156660965912238
 31
0.0
  0
ARC
  5
2D73D
  8
0
 10
5793.117733385597603
 20
427.9371057145349937
 30
0.0
 40
0.0293633003707343
 50
269.1683471964940964
 51
313.1010175120827057
  0
LINE
  5
2D73E
  8
0
 10
5793.1173071899202114
 20
427.9077455073506826
 30
0.0
 11
5792.6244083296187455
 21
427.9075940868507928
 31
0.0
  0
ARC
  5
2D73F
  8
0
 10
5792.6244093237301058
 20
427.9375940871643138
 30
0.0
 40
0.0300000003300266
 50
225.0014432556507131
 51
269.9981013880242813
  0
LINE
  5
2D740
  8
0
 10
5792.6031966544196621
 20
427.9163803491506997
 30
0.0
 11
5792.2546444102226815
 21
428.2649150340326969
 31
0.0
  0
ARC
  5
2D741
  8
0
 10
5792.2758346321861609
 20
428.2861063235678216
 30
0.0
 40
0.0299682541869731
 50
179.9422465530028035
 51
225.0014432556507131
  0
LINE
  5
2D742
  8
0
 10
5792.2458663932238778
 20
428.2861365311974282
 30
0.0
 11
5792.2458663932193303
 21
428.7790521504506955
 31
0.0
  0
ARC
  5
2D743
  8
0
 10
5792.275845974011645
 20
428.7790552181260182
 30
0.0
 40
0.0299795809500056
 50
134.9821568225005137
 51
180.0058628185701934
  0
LINE
  5
2D744
  8
0
 10
5792.2546538118203898
 20
428.8002605838506724
 30
0.0
 11
5792.6025935707211829
 21
429.1482047408524068
 31
0.0
  0
ARC
  5
2D745
  8
0
 10
5792.6244851562651093
 20
429.1273792247758934
 30
0.0
 40
0.0302149571813346
 50
90.1437579505142565
 51
136.4296055336035067
  0
LINE
  5
2D746
  8
0
 10
5792.285866393219294
 20
428.7749090208508278
 30
0.0
 11
5792.6285514592200343
 21
429.1175940868507155
 31
0.0
  0
LINE
  5
2D747
  8
0
 10
5792.6285514592200343
 20
429.1175940868507155
 30
0.0
 11
5793.1131813272186264
 21
429.1175940868507155
 31
0.0
  0
LINE
  5
2D748
  8
0
 10
5793.1131813272186264
 20
429.1175940868507155
 30
0.0
 11
5793.4558663932202762
 21
428.7749090208508278
 31
0.0
  0
LINE
  5
2D749
  8
0
 10
5793.4558663932202762
 20
428.7749090208508278
 30
0.0
 11
5793.4558663932202762
 21
428.2902791528507009
 31
0.0
  0
LINE
  5
2D74A
  8
0
 10
5793.4558663932202762
 20
428.2902791528507009
 30
0.0
 11
5793.1131813272186264
 21
427.9475940868506996
 31
0.0
  0
LINE
  5
2D74B
  8
0
 10
5793.1131813272186264
 20
427.9475940868506996
 30
0.0
 11
5792.6285514592200343
 21
427.9475940868506996
 31
0.0
  0
LINE
  5
2D74C
  8
0
 10
5792.6285514592200343
 20
427.9475940868506996
 30
0.0
 11
5792.285866393219294
 21
428.2902791528507009
 31
0.0
  0
LINE
  5
2D74D
  8
0
 10
5792.285866393219294
 20
428.2902791528507009
 30
0.0
 11
5792.285866393219294
 21
428.7749090208508278
 31
0.0
  0
LINE
  5
2D74E
  8
0
 10
5792.285866393219294
 20
428.7749090208508278
 30
0.0
 11
5792.2481496523805617
 21
428.7905308027322917
 31
0.0
  0
LINE
  5
2D74F
  8
0
 10
5792.6285514592200343
 20
429.1175940868507155
 30
0.0
 11
5792.6125402167717766
 21
429.1551328201820183
 31
0.0
  0
LINE
  5
2D750
  8
0
 10
5793.1131813272186264
 20
429.1175940868507155
 30
0.0
 11
5793.1288039657347326
 21
429.155310472849294
 31
0.0
  0
LINE
  5
2D751
  8
0
 10
5793.4558663932202762
 20
428.7749090208508278
 30
0.0
 11
5793.4935601695306104
 21
428.7905320971456717
 31
0.0
  0
LINE
  5
2D752
  8
0
 10
5793.4558663932202762
 20
428.2902791528507009
 30
0.0
 11
5793.4935590803534069
 21
428.2746166841524769
 31
0.0
  0
LINE
  5
2D753
  8
0
 10
5793.1131813272186264
 20
427.9475940868506996
 30
0.0
 11
5793.1294237952242838
 21
427.9101699069279903
 31
0.0
  0
LINE
  5
2D754
  8
0
 10
5792.6285514592200343
 20
427.9475940868506996
 30
0.0
 11
5792.6129288206448109
 21
427.9098777008794059
 31
0.0
  0
LINE
  5
2D755
  8
0
 10
5792.285866393219294
 20
428.2902791528507009
 30
0.0
 11
5792.2481419433206611
 21
428.2746515759728823
 31
0.0
  0
LINE
  5
2D756
  8
0
 10
5789.5141731250696466
 20
429.1575940868507928
 30
0.0
 11
5790.00708724236938
 21
429.1575940868507928
 31
0.0
  0
ARC
  5
2D757
  8
0
 10
5790.00708724236938
 20
429.1275940868508201
 30
0.0
 40
0.0299999999999994
 50
45.0028742800917172
 51
90.0
  0
LINE
  5
2D758
  8
0
 10
5790.0282993816053931
 20
429.1488083544336973
 30
0.0
 11
5790.3768608606760608
 21
428.8002818452346787
 31
0.0
  0
ARC
  5
2D759
  8
0
 10
5790.3560512243820995
 20
428.7794701209768959
 30
0.0
 40
0.0294307463263295
 50
359.1526486582703228
 51
45.0028742800917172
  0
LINE
  5
2D75A
  8
0
 10
5790.3854787522695915
 20
428.7790348834507199
 30
0.0
 11
5790.3856300092293168
 21
428.2860379595438189
 31
0.0
  0
ARC
  5
2D75B
  8
0
 10
5790.3560445952816735
 20
428.2860706820741825
 30
0.0
 40
0.029585432043012
 50
314.5088201439992872
 51
359.9366288357688859
  0
LINE
  5
2D75C
  8
0
 10
5790.376784546869203
 20
428.2649720518506911
 30
0.0
 11
5790.0275607189469156
 21
427.9156660965912238
 31
0.0
  0
ARC
  5
2D75D
  8
0
 10
5790.0074971651483793
 20
427.9371057145349937
 30
0.0
 40
0.0293633003707343
 50
269.1683471964940964
 51
313.1010175120827057
  0
LINE
  5
2D75E
  8
0
 10
5790.0070709694691686
 20
427.9077455073506826
 30
0.0
 11
5789.5141721091704312
 21
427.9075940868507928
 31
0.0
  0
ARC
  5
2D75F
  8
0
 10
5789.5141731032808821
 20
427.9375940871643138
 30
0.0
 40
0.0300000003300266
 50
225.0014432556507131
 51
269.9981013880242813
  0
LINE
  5
2D760
  8
0
 10
5789.4929604339686193
 20
427.9163803491506997
 30
0.0
 11
5789.1444081897716387
 21
428.2649150340326969
 31
0.0
  0
ARC
  5
2D761
  8
0
 10
5789.1655984117360276
 20
428.2861063235678216
 30
0.0
 40
0.0299682541869731
 50
179.9422465530028035
 51
225.0014432556507131
  0
LINE
  5
2D762
  8
0
 10
5789.1356301727737446
 20
428.2861365311974282
 30
0.0
 11
5789.1356301727682876
 21
428.7790521504506955
 31
0.0
  0
ARC
  5
2D763
  8
0
 10
5789.1656097535624212
 20
428.7790552181260182
 30
0.0
 40
0.0299795809500056
 50
134.9821568225005137
 51
180.0058628185701934
  0
LINE
  5
2D764
  8
0
 10
5789.1444175913693471
 20
428.8002605838506724
 30
0.0
 11
5789.4923573502710497
 21
429.1482047408524068
 31
0.0
  0
ARC
  5
2D765
  8
0
 10
5789.514248935814976
 20
429.1273792247758934
 30
0.0
 40
0.0302149571813346
 50
90.1437579505142565
 51
136.4296055336035067
  0
LINE
  5
2D766
  8
0
 10
5789.1756301727700702
 20
428.7749090208508278
 30
0.0
 11
5789.518315238769901
 21
429.1175940868507155
 31
0.0
  0
LINE
  5
2D767
  8
0
 10
5789.518315238769901
 20
429.1175940868507155
 30
0.0
 11
5790.0029451067703121
 21
429.1175940868507155
 31
0.0
  0
LINE
  5
2D768
  8
0
 10
5790.0029451067703121
 20
429.1175940868507155
 30
0.0
 11
5790.3456301727692335
 21
428.7749090208508278
 31
0.0
  0
LINE
  5
2D769
  8
0
 10
5790.3456301727692335
 20
428.7749090208508278
 30
0.0
 11
5790.3456301727692335
 21
428.2902791528507009
 31
0.0
  0
LINE
  5
2D76A
  8
0
 10
5790.3456301727692335
 20
428.2902791528507009
 30
0.0
 11
5790.0029451067703121
 21
427.9475940868506996
 31
0.0
  0
LINE
  5
2D76B
  8
0
 10
5790.0029451067703121
 20
427.9475940868506996
 30
0.0
 11
5789.518315238769901
 21
427.9475940868506996
 31
0.0
  0
LINE
  5
2D76C
  8
0
 10
5789.518315238769901
 20
427.9475940868506996
 30
0.0
 11
5789.1756301727700702
 21
428.2902791528507009
 31
0.0
  0
LINE
  5
2D76D
  8
0
 10
5789.1756301727700702
 20
428.2902791528507009
 30
0.0
 11
5789.1756301727700702
 21
428.7749090208508278
 31
0.0
  0
LINE
  5
2D76E
  8
0
 10
5789.1756301727700702
 20
428.7749090208508278
 30
0.0
 11
5789.1379134319322475
 21
428.7905308027322917
 31
0.0
  0
LINE
  5
2D76F
  8
0
 10
5789.518315238769901
 20
429.1175940868507155
 30
0.0
 11
5789.5023039963216434
 21
429.1551328201820183
 31
0.0
  0
LINE
  5
2D770
  8
0
 10
5790.0029451067703121
 20
429.1175940868507155
 30
0.0
 11
5790.0185677452845994
 21
429.155310472849294
 31
0.0
  0
LINE
  5
2D771
  8
0
 10
5790.3456301727692335
 20
428.7749090208508278
 30
0.0
 11
5790.3833239490822962
 21
428.7905320971456717
 31
0.0
  0
LINE
  5
2D772
  8
0
 10
5790.3456301727692335
 20
428.2902791528507009
 30
0.0
 11
5790.3833228599032736
 21
428.2746166841524769
 31
0.0
  0
LINE
  5
2D773
  8
0
 10
5790.0029451067703121
 20
427.9475940868506996
 30
0.0
 11
5790.0191875747741506
 21
427.9101699069279903
 31
0.0
  0
LINE
  5
2D774
  8
0
 10
5789.518315238769901
 20
427.9475940868506996
 30
0.0
 11
5789.5026926001937682
 21
427.9098777008794059
 31
0.0
  0
LINE
  5
2D775
  8
0
 10
5789.1756301727700702
 20
428.2902791528507009
 30
0.0
 11
5789.1379057228723468
 21
428.2746515759728823
 31
0.0
  0
LINE
  5
2D776
  8
0
 10
5802.2803152122196479
 20
408.0798381813506808
 30
0.0
 11
5802.3590553695930794
 21
408.0010980238507159
 31
0.0
  0
LINE
  5
2D777
  8
0
 10
5802.6149608814193925
 20
407.9417830632506821
 30
0.0
 11
5803.7173230862199489
 21
407.9417830632506821
 31
0.0
  0
LINE
  5
2D778
  8
0
 10
5802.6346459208198212
 20
407.9220980238507082
 30
0.0
 11
5803.6976380468204297
 21
407.9220980238507082
 31
0.0
  0
LINE
  5
2D779
  8
0
 10
5803.7173230862199489
 20
407.9417830632506821
 30
0.0
 11
5803.7173230862199489
 21
408.0010980238507159
 31
0.0
  0
LINE
  5
2D77A
  8
0
 10
5803.7166286391193353
 20
407.9417830632506821
 30
0.0
 11
5803.7166286391193353
 21
408.0010980238507159
 31
0.0
  0
LINE
  5
2D77B
  8
0
 10
5803.7158998433196757
 20
407.9417830632506821
 30
0.0
 11
5803.7158998433196757
 21
408.0010980238507159
 31
0.0
  0
LINE
  5
2D77C
  8
0
 10
5803.7132225207196825
 20
407.9417830632506821
 30
0.0
 11
5803.7132225207196825
 21
408.0010980238507159
 31
0.0
  0
LINE
  5
2D77D
  8
0
 10
5803.7116409466198093
 20
407.9417830632506821
 30
0.0
 11
5803.7116409466198093
 21
408.0010980238507159
 31
0.0
  0
LINE
  5
2D77E
  8
0
 10
5803.7070011245195928
 20
407.9417830632506821
 30
0.0
 11
5803.7070011245195928
 21
408.0010980238507159
 31
0.0
  0
LINE
  5
2D77F
  8
0
 10
5803.7045788086197717
 20
407.9417830632506821
 30
0.0
 11
5803.7045788086197717
 21
408.0010980238507159
 31
0.0
  0
LINE
  5
2D780
  8
0
 10
5803.698011798918742
 20
407.9417830632506821
 30
0.0
 11
5803.698011798918742
 21
408.0010980238507159
 31
0.0
  0
LINE
  5
2D781
  8
0
 10
5803.6947671766192798
 20
407.9417830632506821
 30
0.0
 11
5803.6947671766192798
 21
408.0010980238507159
 31
0.0
  0
LINE
  5
2D782
  8
0
 10
5803.686322958220444
 20
407.9417830632506821
 30
0.0
 11
5803.686322958220444
 21
408.0010980238507159
 31
0.0
  0
LINE
  5
2D783
  8
0
 10
5803.6822807231192201
 20
407.9417830632506821
 30
0.0
 11
5803.6822807231192201
 21
408.0010980238507159
 31
0.0
  0
LINE
  5
2D784
  8
0
 10
5803.6720235616194259
 20
407.9417830632506821
 30
0.0
 11
5803.6720235616194259
 21
408.0010980238507159
 31
0.0
  0
LINE
  5
2D785
  8
0
 10
5803.667214477419293
 20
407.9417830632506821
 30
0.0
 11
5803.667214477419293
 21
408.0010980238507159
 31
0.0
  0
LINE
  5
2D786
  8
0
 10
5803.6552224359193133
 20
407.9417830632506821
 30
0.0
 11
5803.6552224359193133
 21
408.0010980238507159
 31
0.0
  0
LINE
  5
2D787
  8
0
 10
5803.6496831027197913
 20
407.9417830632506821
 30
0.0
 11
5803.6496831027197913
 21
408.0010980238507159
 31
0.0
  0
LINE
  5
2D788
  8
0
 10
5803.6360474481198253
 20
407.9417830632506821
 30
0.0
 11
5803.6360474481198253
 21
408.0010980238507159
 31
0.0
  0
LINE
  5
2D789
  8
0
 10
5803.6301148273196304
 20
407.9417830632506821
 30
0.0
 11
5803.6301148273196304
 21
408.0010980238507159
 31
0.0
  0
LINE
  5
2D78A
  8
0
 10
5803.6298200236187768
 20
407.9417830632506821
 30
0.0
 11
5803.6298200236187768
 21
408.0010980238507159
 31
0.0
  0
LINE
  5
2D78B
  8
0
 10
5803.6146445312197102
 20
407.9417830632506821
 30
0.0
 11
5803.6146445312197102
 21
408.0010980238507159
 31
0.0
  0
LINE
  5
2D78C
  8
0
 10
5803.6091683523200118
 20
407.9417830632506821
 30
0.0
 11
5803.6091683523200118
 21
408.0010980238507159
 31
0.0
  0
LINE
  5
2D78D
  8
0
 10
5803.6077764098199623
 20
407.9417830632506821
 30
0.0
 11
5803.6077764098199623
 21
408.0010980238507159
 31
0.0
  0
LINE
  5
2D78E
  8
0
 10
5803.591176574520432
 20
407.9417830632506821
 30
0.0
 11
5803.591176574520432
 21
408.0010980238507159
 31
0.0
  0
LINE
  5
2D78F
  8
0
 10
5803.5861985146193547
 20
407.9417830632506821
 30
0.0
 11
5803.5861985146193547
 21
408.0010980238507159
 31
0.0
  0
LINE
  5
2D790
  8
0
 10
5803.5837200268197194
 20
407.9417830632506821
 30
0.0
 11
5803.5837200268197194
 21
408.0010980238507159
 31
0.0
  0
LINE
  5
2D791
  8
0
 10
5803.565822183220007
 20
407.9417830632506821
 30
0.0
 11
5803.565822183220007
 21
408.0010980238507159
 31
0.0
  0
LINE
  5
2D792
  8
0
 10
5803.5613801283197972
 20
407.9417830632506821
 30
0.0
 11
5803.5613801283197972
 21
408.0010980238507159
 31
0.0
  0
LINE
  5
2D793
  8
0
 10
5803.557833958019728
 20
407.9417830632506821
 30
0.0
 11
5803.557833958019728
 21
408.0010980238507159
 31
0.0
  0
LINE
  5
2D794
  8
0
 10
5803.5387743196188239
 20
407.9417830632506821
 30
0.0
 11
5803.5387743196188239
 21
408.0010980238507159
 31
0.0
  0
LINE
  5
2D795
  8
0
 10
5803.5349020764197121
 20
407.9417830632506821
 30
0.0
 11
5803.5349020764197121
 21
408.0010980238507159
 31
0.0
  0
LINE
  5
2D796
  8
0
 10
5803.5303152122196479
 20
407.9417830632506821
 30
0.0
 11
5803.5303152122196479
 21
408.0010980238507159
 31
0.0
  0
LINE
  5
2D797
  8
0
 10
5803.5102388342202175
 20
407.9417830632506821
 30
0.0
 11
5803.5102388342202175
 21
408.0010980238507159
 31
0.0
  0
LINE
  5
2D798
  8
0
 10
5803.5069658728198192
 20
407.9417830632506821
 30
0.0
 11
5803.5069658728198192
 21
408.0010980238507159
 31
0.0
  0
LINE
  5
2D799
  8
0
 10
5803.5013732234192503
 20
407.9417830632506821
 30
0.0
 11
5803.5013732234192503
 21
408.0010980238507159
 31
0.0
  0
LINE
  5
2D79A
  8
0
 10
5803.4804328994187017
 20
407.9417830632506821
 30
0.0
 11
5803.4804328994187017
 21
408.0010980238507159
 31
0.0
  0
LINE
  5
2D79B
  8
0
 10
5803.4777841290197102
 20
407.9417830632506821
 30
0.0
 11
5803.4777841290197102
 21
408.0010980238507159
 31
0.0
  0
LINE
  5
2D79C
  8
0
 10
5803.4712282579193925
 20
407.9417830632506821
 30
0.0
 11
5803.4712282579193925
 21
408.0010980238507159
 31
0.0
  0
LINE
  5
2D79D
  8
0
 10
5803.4495833562186817
 20
407.9417830632506821
 30
0.0
 11
5803.4495833562186817
 21
408.0010980238507159
 31
0.0
  0
LINE
  5
2D79E
  8
0
 10
5803.4475789356192763
 20
407.9417830632506821
 30
0.0
 11
5803.4475789356192763
 21
408.0010980238507159
 31
0.0
  0
LINE
  5
2D79F
  8
0
 10
5803.4401097369200215
 20
407.9417830632506821
 30
0.0
 11
5803.4401097369200215
 21
408.0010980238507159
 31
0.0
  0
LINE
  5
2D7A0
  8
0
 10
5803.4179249884191449
 20
407.9417830632506821
 30
0.0
 11
5803.4179249884191449
 21
408.0010980238507159
 31
0.0
  0
LINE
  5
2D7A1
  8
0
 10
5803.4165801724193443
 20
407.9417830632506821
 30
0.0
 11
5803.4165801724193443
 21
408.0010980238507159
 31
0.0
  0
LINE
  5
2D7A2
  8
0
 10
5803.40825449121985
 20
407.9417830632506821
 30
0.0
 11
5803.40825449121985
 21
408.0010980238507159
 31
0.0
  0
LINE
  5
2D7A3
  8
0
 10
5803.3856987352191936
 20
407.9417830632506821
 30
0.0
 11
5803.3856987352191936
 21
408.0010980238507159
 31
0.0
  0
LINE
  5
2D7A4
  8
0
 10
5803.3850237587193988
 20
407.9417830632506821
 30
0.0
 11
5803.3850237587193988
 21
408.0010980238507159
 31
0.0
  0
LINE
  5
2D7A5
  8
0
 10
5803.3759049585196408
 20
407.9417830632506821
 30
0.0
 11
5803.3759049585196408
 21
408.0010980238507159
 31
0.0
  0
LINE
  5
2D7A6
  8
0
 10
5803.3531498578186074
 20
407.9417830632506821
 30
0.0
 11
5803.3531498578186074
 21
408.0010980238507159
 31
0.0
  0
LINE
  5
2D7A7
  8
0
 10
5803.3205260730192094
 20
408.0010980238507159
 30
0.0
 11
5803.3205260730192094
 21
407.9417830632506821
 31
0.0
  0
LINE
  5
2D7A8
  8
0
 10
5803.3113959835200149
 20
408.0010980238507159
 30
0.0
 11
5803.3113959835200149
 21
407.9417830632506821
 31
0.0
  0
LINE
  5
2D7A9
  8
0
 10
5803.3107097178199183
 20
408.0010980238507159
 30
0.0
 11
5803.3107097178199183
 21
407.9417830632506821
 31
0.0
  0
LINE
  5
2D7AA
  8
0
 10
5803.28807566731939
 20
408.0010980238507159
 30
0.0
 11
5803.28807566731939
 21
407.9417830632506821
 31
0.0
  0
LINE
  5
2D7AB
  8
0
 10
5803.279727493619248
 20
408.0010980238507159
 30
0.0
 11
5803.279727493619248
 21
407.9417830632506821
 31
0.0
  0
LINE
  5
2D7AC
  8
0
 10
5803.2783601851197091
 20
408.0010980238507159
 30
0.0
 11
5803.2783601851197091
 21
407.9417830632506821
 31
0.0
  0
LINE
  5
2D7AD
  8
0
 10
5803.2560456080191216
 20
408.0010980238507159
 30
0.0
 11
5803.2560456080191216
 21
407.9417830632506821
 31
0.0
  0
LINE
  5
2D7AE
  8
0
 10
5803.2485428846193827
 20
408.0010980238507159
 30
0.0
 11
5803.2485428846193827
 21
407.9417830632506821
 31
0.0
  0
LINE
  5
2D7AF
  8
0
 10
5803.2465049394186281
 20
408.0010980238507159
 30
0.0
 11
5803.2465049394186281
 21
407.9417830632506821
 31
0.0
  0
LINE
  5
2D7B0
  8
0
 10
5803.2246796631197867
 20
408.0010980238507159
 30
0.0
 11
5803.2246796631197867
 21
407.9417830632506821
 31
0.0
  0
LINE
  5
2D7B1
  8
0
 10
5803.2180794904197683
 20
408.0010980238507159
 30
0.0
 11
5803.2180794904197683
 21
407.9417830632506821
 31
0.0
  0
LINE
  5
2D7B2
  8
0
 10
5803.2153864184192571
 20
408.0010980238507159
 30
0.0
 11
5803.2153864184192571
 21
407.9417830632506821
 31
0.0
  0
LINE
  5
2D7B3
  8
0
 10
5803.1942165465188737
 20
408.0010980238507159
 30
0.0
 11
5803.1942165465188737
 21
407.9417830632506821
 31
0.0
  0
LINE
  5
2D7B4
  8
0
 10
5803.1885691557199607
 20
408.0010980238507159
 30
0.0
 11
5803.1885691557199607
 21
407.9417830632506821
 31
0.0
  0
LINE
  5
2D7B5
  8
0
 10
5803.1852414528193549
 20
408.0010980238507159
 30
0.0
 11
5803.1852414528193549
 21
407.9417830632506821
 31
0.0
  0
LINE
  5
2D7B6
  8
0
 10
5803.1648881008195531
 20
408.0010980238507159
 30
0.0
 11
5803.1648881008195531
 21
407.9417830632506821
 31
0.0
  0
LINE
  5
2D7B7
  8
0
 10
5803.1602364720192782
 20
408.0010980238507159
 30
0.0
 11
5803.1602364720192782
 21
407.9417830632506821
 31
0.0
  0
LINE
  5
2D7B8
  8
0
 10
5803.1562994641199111
 20
408.0010980238507159
 30
0.0
 11
5803.1562994641199111
 21
407.9417830632506821
 31
0.0
  0
LINE
  5
2D7B9
  8
0
 10
5803.1369175333193198
 20
408.0010980238507159
 30
0.0
 11
5803.1369175333193198
 21
407.9417830632506821
 31
0.0
  0
LINE
  5
2D7BA
  8
0
 10
5803.1332970681196457
 20
408.0010980238507159
 30
0.0
 11
5803.1332970681196457
 21
407.9417830632506821
 31
0.0
  0
LINE
  5
2D7BB
  8
0
 10
5803.1287807183198311
 20
408.0010980238507159
 30
0.0
 11
5803.1287807183198311
 21
407.9417830632506821
 31
0.0
  0
LINE
  5
2D7BC
  8
0
 10
5803.1105177168192313
 20
408.0010980238507159
 30
0.0
 11
5803.1105177168192313
 21
407.9417830632506821
 31
0.0
  0
LINE
  5
2D7BD
  8
0
 10
5803.1079559692198018
 20
408.0010980238507159
 30
0.0
 11
5803.1079559692198018
 21
407.9417830632506821
 31
0.0
  0
LINE
  5
2D7BE
  8
0
 10
5803.1028946495189302
 20
408.0010980238507159
 30
0.0
 11
5803.1028946495189302
 21
407.9417830632506821
 31
0.0
  0
LINE
  5
2D7BF
  8
0
 10
5803.0858895699202549
 20
408.0010980238507159
 30
0.0
 11
5803.0858895699202549
 21
407.9417830632506821
 31
0.0
  0
LINE
  5
2D7C0
  8
0
 10
5803.0844060364188408
 20
408.0010980238507159
 30
0.0
 11
5803.0844060364188408
 21
407.9417830632506821
 31
0.0
  0
LINE
  5
2D7C1
  8
0
 10
5803.0788382664195524
 20
408.0010980238507159
 30
0.0
 11
5803.0788382664195524
 21
407.9417830632506821
 31
0.0
  0
LINE
  5
2D7C2
  8
0
 10
5803.0632205276197055
 20
408.0010980238507159
 30
0.0
 11
5803.0632205276197055
 21
407.9417830632506821
 31
0.0
  0
LINE
  5
2D7C3
  8
0
 10
5803.0628264987199145
 20
408.0010980238507159
 30
0.0
 11
5803.0628264987199145
 21
407.9417830632506821
 31
0.0
  0
LINE
  5
2D7C4
  8
0
 10
5803.0567946527198728
 20
408.0010980238507159
 30
0.0
 11
5803.0567946527198728
 21
407.9417830632506821
 31
0.0
  0
LINE
  5
2D7C5
  8
0
 10
5803.0426831151198712
 20
408.0010980238507159
 30
0.0
 11
5803.0426831151198712
 21
407.9417830632506821
 31
0.0
  0
LINE
  5
2D7C6
  8
0
 10
5803.0369315735197233
 20
408.0010980238507159
 30
0.0
 11
5803.0369315735197233
 21
407.9417830632506821
 31
0.0
  0
LINE
  5
2D7C7
  8
0
 10
5803.024433634419438
 20
408.0010980238507159
 30
0.0
 11
5803.024433634419438
 21
407.9417830632506821
 31
0.0
  0
LINE
  5
2D7C8
  8
0
 10
5803.0194001989202661
 20
408.0010980238507159
 30
0.0
 11
5803.0194001989202661
 21
407.9417830632506821
 31
0.0
  0
LINE
  5
2D7C9
  8
0
 10
5803.0086109752191987
 20
408.0010980238507159
 30
0.0
 11
5803.0086109752191987
 21
407.9417830632506821
 31
0.0
  0
LINE
  5
2D7CA
  8
0
 10
5803.004333953220339
 20
408.0010980238507159
 30
0.0
 11
5803.004333953220339
 21
407.9417830632506821
 31
0.0
  0
LINE
  5
2D7CB
  8
0
 10
5802.9953355574198213
 20
408.0010980238507159
 30
0.0
 11
5802.9953355574198213
 21
407.9417830632506821
 31
0.0
  0
LINE
  5
2D7CC
  8
0
 10
5802.9918474997193698
 20
408.0010980238507159
 30
0.0
 11
5802.9918474997193698
 21
407.9417830632506821
 31
0.0
  0
LINE
  5
2D7CD
  8
0
 10
5802.984708414918714
 20
408.0010980238507159
 30
0.0
 11
5802.984708414918714
 21
407.9417830632506821
 31
0.0
  0
LINE
  5
2D7CE
  8
0
 10
5802.9820358677197873
 20
408.0010980238507159
 30
0.0
 11
5802.9820358677197873
 21
407.9417830632506821
 31
0.0
  0
LINE
  5
2D7CF
  8
0
 10
5802.9768104268196112
 20
408.0010980238507159
 30
0.0
 11
5802.9768104268196112
 21
407.9417830632506821
 31
0.0
  0
LINE
  5
2D7D0
  8
0
 10
5802.9749737297197498
 20
408.0010980238507159
 30
0.0
 11
5802.9749737297197498
 21
407.9417830632506821
 31
0.0
  0
LINE
  5
2D7D1
  8
0
 10
5802.9717017014190787
 20
408.0010980238507159
 30
0.0
 11
5802.9717017014190787
 21
407.9417830632506821
 31
0.0
  0
LINE
  5
2D7D2
  8
0
 10
5802.9707148330198834
 20
408.0010980238507159
 30
0.0
 11
5802.9707148330198834
 21
407.9417830632506821
 31
0.0
  0
LINE
  5
2D7D3
  8
0
 10
5802.9694211194191666
 20
408.0010980238507159
 30
0.0
 11
5802.9694211194191666
 21
407.9417830632506821
 31
0.0
  0
LINE
  5
2D7D4
  8
0
 10
5802.9692915901196102
 20
408.0010980238507159
 30
0.0
 11
5802.9692915901196102
 21
407.9417830632506821
 31
0.0
  0
LINE
  5
2D7D5
  8
0
 10
5803.6976380468204297
 20
407.9417830632506821
 30
0.0
 11
5803.6976380468204297
 21
407.9220980238507082
 31
0.0
  0
LINE
  5
2D7D6
  8
0
 10
5802.9661953643189918
 20
408.0010980238507159
 30
0.0
 11
5802.9661953643189918
 21
407.9417830632506821
 31
0.0
  0
LINE
  5
2D7D7
  8
0
 10
5802.9570652748197972
 20
408.0010980238507159
 30
0.0
 11
5802.9570652748197972
 21
407.9417830632506821
 31
0.0
  0
LINE
  5
2D7D8
  8
0
 10
5802.9563790091197006
 20
408.0010980238507159
 30
0.0
 11
5802.9563790091197006
 21
407.9417830632506821
 31
0.0
  0
LINE
  5
2D7D9
  8
0
 10
5802.9337449586191724
 20
408.0010980238507159
 30
0.0
 11
5802.9337449586191724
 21
407.9417830632506821
 31
0.0
  0
LINE
  5
2D7DA
  8
0
 10
5802.9253967849199398
 20
408.0010980238507159
 30
0.0
 11
5802.9253967849199398
 21
407.9417830632506821
 31
0.0
  0
LINE
  5
2D7DB
  8
0
 10
5802.9240294764185819
 20
408.0010980238507159
 30
0.0
 11
5802.9240294764185819
 21
407.9417830632506821
 31
0.0
  0
LINE
  5
2D7DC
  8
0
 10
5802.9017148993198134
 20
408.0010980238507159
 30
0.0
 11
5802.9017148993198134
 21
407.9417830632506821
 31
0.0
  0
LINE
  5
2D7DD
  8
0
 10
5802.894212175919165
 20
408.0010980238507159
 30
0.0
 11
5802.894212175919165
 21
407.9417830632506821
 31
0.0
  0
LINE
  5
2D7DE
  8
0
 10
5802.8921742307202294
 20
408.0010980238507159
 30
0.0
 11
5802.8921742307202294
 21
407.9417830632506821
 31
0.0
  0
LINE
  5
2D7DF
  8
0
 10
5802.8703489544195691
 20
408.0010980238507159
 30
0.0
 11
5802.8703489544195691
 21
407.9417830632506821
 31
0.0
  0
LINE
  5
2D7E0
  8
0
 10
5802.8637487817195506
 20
408.0010980238507159
 30
0.0
 11
5802.8637487817195506
 21
407.9417830632506821
 31
0.0
  0
LINE
  5
2D7E1
  8
0
 10
5802.8610557097199489
 20
408.0010980238507159
 30
0.0
 11
5802.8610557097199489
 21
407.9417830632506821
 31
0.0
  0
LINE
  5
2D7E2
  8
0
 10
5802.839885837818656
 20
408.0010980238507159
 30
0.0
 11
5802.839885837818656
 21
407.9417830632506821
 31
0.0
  0
LINE
  5
2D7E3
  8
0
 10
5802.834238447019743
 20
408.0010980238507159
 30
0.0
 11
5802.834238447019743
 21
407.9417830632506821
 31
0.0
  0
LINE
  5
2D7E4
  8
0
 10
5802.8309107441200467
 20
408.0010980238507159
 30
0.0
 11
5802.8309107441200467
 21
407.9417830632506821
 31
0.0
  0
LINE
  5
2D7E5
  8
0
 10
5802.8105573921202449
 20
408.0010980238507159
 30
0.0
 11
5802.8105573921202449
 21
407.9417830632506821
 31
0.0
  0
LINE
  5
2D7E6
  8
0
 10
5802.80590576331997
 20
408.0010980238507159
 30
0.0
 11
5802.80590576331997
 21
407.9417830632506821
 31
0.0
  0
LINE
  5
2D7E7
  8
0
 10
5802.8019687554196935
 20
408.0010980238507159
 30
0.0
 11
5802.8019687554196935
 21
407.9417830632506821
 31
0.0
  0
LINE
  5
2D7E8
  8
0
 10
5802.7825868246200116
 20
408.0010980238507159
 30
0.0
 11
5802.7825868246200116
 21
407.9417830632506821
 31
0.0
  0
LINE
  5
2D7E9
  8
0
 10
5802.7789663594203375
 20
408.0010980238507159
 30
0.0
 11
5802.7789663594203375
 21
407.9417830632506821
 31
0.0
  0
LINE
  5
2D7EA
  8
0
 10
5802.7744500095186595
 20
408.0010980238507159
 30
0.0
 11
5802.7744500095186595
 21
407.9417830632506821
 31
0.0
  0
LINE
  5
2D7EB
  8
0
 10
5802.7561870081199231
 20
408.0010980238507159
 30
0.0
 11
5802.7561870081199231
 21
407.9417830632506821
 31
0.0
  0
LINE
  5
2D7EC
  8
0
 10
5802.7536252605186746
 20
408.0010980238507159
 30
0.0
 11
5802.7536252605186746
 21
407.9417830632506821
 31
0.0
  0
LINE
  5
2D7ED
  8
0
 10
5802.7485639408196221
 20
408.0010980238507159
 30
0.0
 11
5802.7485639408196221
 21
407.9417830632506821
 31
0.0
  0
LINE
  5
2D7EE
  8
0
 10
5802.7315588612200372
 20
408.0010980238507159
 30
0.0
 11
5802.7315588612200372
 21
407.9417830632506821
 31
0.0
  0
LINE
  5
2D7EF
  8
0
 10
5802.7300753277186232
 20
408.0010980238507159
 30
0.0
 11
5802.7300753277186232
 21
407.9417830632506821
 31
0.0
  0
LINE
  5
2D7F0
  8
0
 10
5802.7245075577193347
 20
408.0010980238507159
 30
0.0
 11
5802.7245075577193347
 21
407.9417830632506821
 31
0.0
  0
LINE
  5
2D7F1
  8
0
 10
5802.7088898189185784
 20
408.0010980238507159
 30
0.0
 11
5802.7088898189185784
 21
407.9417830632506821
 31
0.0
  0
LINE
  5
2D7F2
  8
0
 10
5802.7084957900196969
 20
408.0010980238507159
 30
0.0
 11
5802.7084957900196969
 21
407.9417830632506821
 31
0.0
  0
LINE
  5
2D7F3
  8
0
 10
5802.7024639440196552
 20
408.0010980238507159
 30
0.0
 11
5802.7024639440196552
 21
407.9417830632506821
 31
0.0
  0
LINE
  5
2D7F4
  8
0
 10
5802.6883524064196536
 20
408.0010980238507159
 30
0.0
 11
5802.6883524064196536
 21
407.9417830632506821
 31
0.0
  0
LINE
  5
2D7F5
  8
0
 10
5802.6826008648204152
 20
408.0010980238507159
 30
0.0
 11
5802.6826008648204152
 21
407.9417830632506821
 31
0.0
  0
LINE
  5
2D7F6
  8
0
 10
5802.6701029257201299
 20
408.0010980238507159
 30
0.0
 11
5802.6701029257201299
 21
407.9417830632506821
 31
0.0
  0
LINE
  5
2D7F7
  8
0
 10
5802.6650694902200485
 20
408.0010980238507159
 30
0.0
 11
5802.6650694902200485
 21
407.9417830632506821
 31
0.0
  0
LINE
  5
2D7F8
  8
0
 10
5802.6542802665189811
 20
408.0010980238507159
 30
0.0
 11
5802.6542802665189811
 21
407.9417830632506821
 31
0.0
  0
LINE
  5
2D7F9
  8
0
 10
5802.6500032445192119
 20
408.0010980238507159
 30
0.0
 11
5802.6500032445192119
 21
407.9417830632506821
 31
0.0
  0
LINE
  5
2D7FA
  8
0
 10
5802.6410048487196036
 20
408.0010980238507159
 30
0.0
 11
5802.6410048487196036
 21
407.9417830632506821
 31
0.0
  0
LINE
  5
2D7FB
  8
0
 10
5802.6375167910191522
 20
408.0010980238507159
 30
0.0
 11
5802.6375167910191522
 21
407.9417830632506821
 31
0.0
  0
LINE
  5
2D7FC
  8
0
 10
5802.6303777062194058
 20
408.0010980238507159
 30
0.0
 11
5802.6303777062194058
 21
407.9417830632506821
 31
0.0
  0
LINE
  5
2D7FD
  8
0
 10
5802.6277051590195697
 20
408.0010980238507159
 30
0.0
 11
5802.6277051590195697
 21
407.9417830632506821
 31
0.0
  0
LINE
  5
2D7FE
  8
0
 10
5802.6224797181193935
 20
408.0010980238507159
 30
0.0
 11
5802.6224797181193935
 21
407.9417830632506821
 31
0.0
  0
LINE
  5
2D7FF
  8
0
 10
5802.6206430210186227
 20
408.0010980238507159
 30
0.0
 11
5802.6206430210186227
 21
407.9417830632506821
 31
0.0
  0
LINE
  5
2D800
  8
0
 10
5802.6173709927197706
 20
408.0010980238507159
 30
0.0
 11
5802.6173709927197706
 21
407.9417830632506821
 31
0.0
  0
LINE
  5
2D801
  8
0
 10
5802.6163841243196657
 20
408.0010980238507159
 30
0.0
 11
5802.6163841243196657
 21
407.9417830632506821
 31
0.0
  0
LINE
  5
2D802
  8
0
 10
5802.6150904107198585
 20
408.0010980238507159
 30
0.0
 11
5802.6150904107198585
 21
407.9417830632506821
 31
0.0
  0
LINE
  5
2D803
  8
0
 10
5802.6149608814193925
 20
408.0010980238507159
 30
0.0
 11
5802.6149608814193925
 21
407.9417830632506821
 31
0.0
  0
LINE
  5
2D804
  8
0
 10
5802.6346459208198212
 20
407.9417830632506821
 30
0.0
 11
5802.6346459208198212
 21
407.9220980238507082
 31
0.0
  0
LINE
  5
2D805
  8
0
 10
5774.6330714834193714
 20
429.1575940868507928
 30
0.0
 11
5774.140157366119638
 21
429.1575940868507928
 31
0.0
  0
ARC
  5
2D806
  8
0
 10
5774.140157366119638
 20
429.1275940868508201
 30
0.0
 40
0.0299999999999994
 50
90.0
 51
134.9971257199082117
  0
LINE
  5
2D807
  8
0
 10
5774.1189452268836249
 20
429.1488083544336973
 30
0.0
 11
5773.7703837478120477
 21
428.8002818452346787
 31
0.0
  0
ARC
  5
2D808
  8
0
 10
5773.7911933841069185
 20
428.7794701209768959
 30
0.0
 40
0.0294307463263295
 50
134.9971257199082117
 51
180.8473513417297056
  0
LINE
  5
2D809
  8
0
 10
5773.7617658562194265
 20
428.7790348834507199
 30
0.0
 11
5773.7616145992597012
 21
428.2860379595438189
 31
0.0
  0
ARC
  5
2D80A
  8
0
 10
5773.7912000132073445
 20
428.2860706820741825
 30
0.0
 40
0.029585432043012
 50
180.0633711642311141
 51
225.4911798560007128
  0
LINE
  5
2D80B
  8
0
 10
5773.7704600616189055
 20
428.2649720518506911
 30
0.0
 11
5774.1196838895421024
 21
427.9156660965912238
 31
0.0
  0
ARC
  5
2D80C
  8
0
 10
5774.1397474433415482
 20
427.9371057145349937
 30
0.0
 40
0.0293633003707343
 50
226.8989824879172943
 51
270.8316528035059036
  0
LINE
  5
2D80D
  8
0
 10
5774.1401736390198494
 20
427.9077455073506826
 30
0.0
 11
5774.6330724993204058
 21
427.9075940868507928
 31
0.0
  0
ARC
  5
2D80E
  8
0
 10
5774.6330715052090454
 20
427.9375940871643138
 30
0.0
 40
0.0300000003300266
 50
270.001898611975605
 51
314.9985567443494006
  0
LINE
  5
2D80F
  8
0
 10
5774.6542841745203987
 20
427.9163803491506997
 30
0.0
 11
5775.0028364187173793
 21
428.2649150340326969
 31
0.0
  0
ARC
  5
2D810
  8
0
 10
5774.9816461967529904
 20
428.2861063235678216
 30
0.0
 40
0.0299682541869731
 50
314.9985567443494006
 51
0.057753446997193
  0
LINE
  5
2D811
  8
0
 10
5775.0116144357152734
 20
428.2861365311974282
 30
0.0
 11
5775.0116144357198209
 21
428.7790521504506955
 31
0.0
  0
ARC
  5
2D812
  8
0
 10
5774.9816348549265967
 20
428.7790552181260182
 30
0.0
 40
0.0299795809500056
 50
359.9941371814297781
 51
45.0178431774994223
  0
LINE
  5
2D813
  8
0
 10
5775.0028270171196709
 20
428.8002605838506724
 30
0.0
 11
5774.6548872582179683
 21
429.1482047408524068
 31
0.0
  0
ARC
  5
2D814
  8
0
 10
5774.632995672674042
 20
429.1273792247758934
 30
0.0
 40
0.0302149571813346
 50
43.5703944663965075
 51
89.8562420494857435
  0
LINE
  5
2D815
  8
0
 10
5774.9716144357198573
 20
428.7749090208508278
 30
0.0
 11
5774.6289293697200264
 21
429.1175940868507155
 31
0.0
  0
LINE
  5
2D816
  8
0
 10
5774.6289293697200264
 20
429.1175940868507155
 30
0.0
 11
5774.1442995017196154
 21
429.1175940868507155
 31
0.0
  0
LINE
  5
2D817
  8
0
 10
5774.1442995017196154
 20
429.1175940868507155
 30
0.0
 11
5773.801614435718875
 21
428.7749090208508278
 31
0.0
  0
LINE
  5
2D818
  8
0
 10
5773.801614435718875
 20
428.7749090208508278
 30
0.0
 11
5773.801614435718875
 21
428.2902791528507009
 31
0.0
  0
LINE
  5
2D819
  8
0
 10
5773.801614435718875
 20
428.2902791528507009
 30
0.0
 11
5774.1442995017196154
 21
427.9475940868506996
 31
0.0
  0
LINE
  5
2D81A
  8
0
 10
5774.1442995017196154
 20
427.9475940868506996
 30
0.0
 11
5774.6289293697200264
 21
427.9475940868506996
 31
0.0
  0
LINE
  5
2D81B
  8
0
 10
5774.6289293697200264
 20
427.9475940868506996
 30
0.0
 11
5774.9716144357198573
 21
428.2902791528507009
 31
0.0
  0
LINE
  5
2D81C
  8
0
 10
5774.9716144357198573
 20
428.2902791528507009
 30
0.0
 11
5774.9716144357198573
 21
428.7749090208508278
 31
0.0
  0
LINE
  5
2D81D
  8
0
 10
5774.9716144357198573
 20
428.7749090208508278
 30
0.0
 11
5775.00933117655768
 21
428.7905308027322917
 31
0.0
  0
LINE
  5
2D81E
  8
0
 10
5774.6289293697200264
 20
429.1175940868507155
 30
0.0
 11
5774.6449406121682841
 21
429.1551328201820183
 31
0.0
  0
LINE
  5
2D81F
  8
0
 10
5774.1442995017196154
 20
429.1175940868507155
 30
0.0
 11
5774.1286768632044186
 21
429.155310472849294
 31
0.0
  0
LINE
  5
2D820
  8
0
 10
5773.801614435718875
 20
428.7749090208508278
 30
0.0
 11
5773.7639206594076313
 21
428.7905320971456717
 31
0.0
  0
LINE
  5
2D821
  8
0
 10
5773.801614435718875
 20
428.2902791528507009
 30
0.0
 11
5773.7639217485848349
 21
428.2746166841524769
 31
0.0
  0
LINE
  5
2D822
  8
0
 10
5774.1442995017196154
 20
427.9475940868506996
 30
0.0
 11
5774.1280570337157769
 21
427.9101699069279903
 31
0.0
  0
LINE
  5
2D823
  8
0
 10
5774.6289293697200264
 20
427.9475940868506996
 30
0.0
 11
5774.6445520082943403
 21
427.9098777008794059
 31
0.0
  0
LINE
  5
2D824
  8
0
 10
5774.9716144357198573
 20
428.2902791528507009
 30
0.0
 11
5775.0093388856175807
 21
428.2746515759728823
 31
0.0
  0
ENDSEC
  0
EOF
