  0
SECTION
  2
HEADER
  9
$ACADVER
  1
AC1009
  9
$INSBASE
 10
5870.4118207827314109
 20
407.6573154471449243
 30
0.0
  9
$EXTMIN
 10
5833.7579451022902504
 20
407.6272538995366972
 30
-0.0000000000000058
  9
$EXTMAX
 10
5907.2800477798045904
 20
446.968507170397686
 30
0.0000000000000104
  9
$LIMMIN
 10
0.0
 20
0.0
  9
$LIMMAX
 10
11.6929133858000007
 20
8.2677165353999982
  9
$ORTHOMODE
 70
     0
  9
$REGENMODE
 70
     1
  9
$FILLMODE
 70
     1
  9
$QTEXTMODE
 70
     0
  9
$MIRRTEXT
 70
     0
  9
$DRAGMODE
 70
     2
  9
$LTSCALE
 40
0.6431102362
  9
$OSMODE
 70
  4095
  9
$ATTMODE
 70
     1
  9
$TEXTSIZE
 40
0.2
  9
$TRACEWID
 40
0.05
  9
$TEXTSTYLE
  7
STANDARD
  9
$CLAYER
  8
0
  9
$CELTYPE
  6
BYLAYER
  9
$CECOLOR
 62
   256
  9
$DIMSCALE
 40
1.0
  9
$DIMASZ
 40
0.1875
  9
$DIMEXO
 40
0.0625
  9
$DIMDLI
 40
0.4443307087
  9
$DIMRND
 40
0.0
  9
$DIMDLE
 40
0.0
  9
$DIMEXE
 40
0.125
  9
$DIMTP
 40
0.01
  9
$DIMTM
 40
0.01
  9
$DIMTXT
 40
2.0
  9
$DIMCEN
 40
0.1052362205
  9
$DIMTSZ
 40
0.0
  9
$DIMTOL
 70
     1
  9
$DIMLIM
 70
     0
  9
$DIMTIH
 70
     1
  9
$DIMTOH
 70
     1
  9
$DIMSE1
 70
     0
  9
$DIMSE2
 70
     0
  9
$DIMTAD
 70
     0
  9
$DIMZIN
 70
     0
  9
$DIMBLK
  1

  9
$DIMASO
 70
     1
  9
$DIMSHO
 70
     1
  9
$DIMPOST
  1
\X
  9
$DIMAPOST
  1

  9
$DIMALT
 70
     1
  9
$DIMALTD
 70
     2
  9
$DIMALTF
 40
25.3999999999999986
  9
$DIMLFAC
 40
1.0
  9
$DIMTOFL
 70
     0
  9
$DIMTVP
 40
0.0
  9
$DIMTIX
 70
     0
  9
$DIMSOXD
 70
     0
  9
$DIMSAH
 70
     0
  9
$DIMBLK1
  1

  9
$DIMBLK2
  1

  9
$DIMSTYLE
  2
STANDARD
  9
$DIMCLRD
 70
     0
  9
$DIMCLRE
 70
     0
  9
$DIMCLRT
 70
     0
  9
$DIMTFAC
 40
1.0
  9
$DIMGAP
 40
0.09
  9
$LUNITS
 70
     2
  9
$LUPREC
 70
     4
  9
$SKETCHINC
 40
0.1
  9
$FILLETRAD
 40
0.0
  9
$AUNITS
 70
     0
  9
$AUPREC
 70
     0
  9
$MENU
  1
.
  9
$ELEVATION
 40
0.0
  9
$PELEVATION
 40
0.0
  9
$THICKNESS
 40
0.0
  9
$LIMCHECK
 70
     0
  9
$BLIPMODE
 70
     0
  9
$CHAMFERA
 40
0.0
  9
$CHAMFERB
 40
0.0
  9
$SKPOLY
 70
     0
  9
$TDCREATE
 40
2458060.468368056230247
  9
$TDUPDATE
 40
2460610.4864004631526768
  9
$TDINDWG
 40
0.6604931713
  9
$TDUSRTIMER
 40
0.6604931713
  9
$USRTIMER
 70
     1
  9
$ANGBASE
 50
0.0
  9
$ANGDIR
 70
     0
  9
$PDMODE
 70
     0
  9
$PDSIZE
 40
0.3125
  9
$PLINEWID
 40
0.0
  9
$COORDS
 70
     2
  9
$SPLFRAME
 70
     0
  9
$SPLINETYPE
 70
     6
  9
$SPLINESEGS
 70
     8
  9
$ATTDIA
 70
     1
  9
$ATTREQ
 70
     1
  9
$HANDLING
 70
     1
  9
$HANDSEED
  5
2E322
  9
$SURFTAB1
 70
     6
  9
$SURFTAB2
 70
     6
  9
$SURFTYPE
 70
     6
  9
$SURFU
 70
     6
  9
$SURFV
 70
     6
  9
$UCSNAME
  2

  9
$UCSORG
 10
0.0
 20
0.0
 30
0.0
  9
$UCSXDIR
 10
1.0
 20
0.0
 30
0.0
  9
$UCSYDIR
 10
0.0
 20
1.0
 30
0.0
  9
$PUCSNAME
  2

  9
$PUCSORG
 10
0.0
 20
0.0
 30
0.0
  9
$PUCSXDIR
 10
1.0
 20
0.0
 30
0.0
  9
$PUCSYDIR
 10
0.0
 20
1.0
 30
0.0
  9
$USERI1
 70
     0
  9
$USERI2
 70
     0
  9
$USERI3
 70
     0
  9
$USERI4
 70
     0
  9
$USERI5
 70
     0
  9
$USERR1
 40
0.0
  9
$USERR2
 40
0.0
  9
$USERR3
 40
0.0
  9
$USERR4
 40
0.0
  9
$USERR5
 40
0.0
  9
$WORLDVIEW
 70
     1
  9
$SHADEDGE
 70
     3
  9
$SHADEDIF
 70
    70
  9
$TILEMODE
 70
     1
  9
$MAXACTVP
 70
    64
  9
$PLIMCHECK
 70
     0
  9
$PEXTMIN
 10
1.0000000000000000E+20
 20
1.0000000000000000E+20
 30
1.0000000000000000E+20
  9
$PEXTMAX
 10
-1.0000000000000000E+20
 20
-1.0000000000000000E+20
 30
-1.0000000000000000E+20
  9
$PLIMMIN
 10
0.0
 20
0.0
  9
$PLIMMAX
 10
12.0
 20
9.0
  9
$UNITMODE
 70
     0
  9
$VISRETAIN
 70
     1
  9
$PLINEGEN
 70
     0
  9
$PSLTSCALE
 70
     1
  0
ENDSEC
  0
SECTION
  2
TABLES
  0
TABLE
  2
VPORT
 70
     1
  0
VPORT
  2
*ACTIVE
 70
     0
 10
0.0
 20
0.0
 11
1.0
 21
1.0
 12
1959.1536399957349204
 22
294.7182754324281859
 13
0.0
 23
0.0
 14
1.0
 24
1.0
 15
0.0
 25
0.0
 16
0.0
 26
0.0
 36
60.4960186965801583
 17
3911.3653564453120453
 27
132.5796051025390057
 37
0.0
 40
39.6202692515054196
 41
2.21775147928994
 42
50.0
 43
0.0
 44
0.0
 50
0.0
 51
0.0
 71
     0
 72
   100
 73
     1
 74
     1
 75
     0
 76
     0
 77
     0
 78
     1
  0
ENDTAB
  0
TABLE
  2
LTYPE
 70
     2
  0
LTYPE
  2
CONTINUOUS
 70
     0
  3
Solid line
 72
    65
 73
     0
 40
0.0
  0
LTYPE
  2
PHANTOM2
 70
     0
  3
___ _ _ ___ _ _ ___ _ _ ___ _ _
 72
    65
 73
     6
 40
1.25
 49
0.625
 49
-0.125
 49
0.125
 49
-0.125
 49
0.125
 49
-0.125
  0
ENDTAB
  0
TABLE
  2
LAYER
 70
     2
  0
LAYER
  2
0
 70
     0
 62
   255
  6
CONTINUOUS
  0
LAYER
  2
DEFPOINTS
 70
     0
 62
     7
  6
CONTINUOUS
  0
ENDTAB
  0
TABLE
  2
STYLE
 70
     1
  0
STYLE
  2
STANDARD
 70
     0
 40
0.0
 41
0.8
 50
0.0
 71
     0
 42
0.2
  3
txt
  4

  0
ENDTAB
  0
TABLE
  2
VIEW
 70
     0
  0
ENDTAB
  0
TABLE
  2
UCS
 70
     0
  0
ENDTAB
  0
TABLE
  2
APPID
 70
    11
  0
APPID
  2
ACAD
 70
     0
  0
APPID
  2
ACAD_MLEADERVER
 70
     0
  0
APPID
  2
ACAD_EXEMPT_FROM_CAD_STANDARDS
 70
     0
  0
APPID
  2
ACAD_NAV_VCDISPLAY
 70
     0
  0
APPID
  2
ACAECLAYERSTANDARD
 70
     0
  0
APPID
  2
ACCMTRANSPARENCY
 70
     0
  0
APPID
  2
ACAD_DSTYLE_DIMJAG
 70
     0
  0
APPID
  2
ACAD_DSTYLE_DIMTALN
 70
     0
  0
APPID
  2
ACDBATTR
 70
     0
  0
APPID
  2
ACADANNOTATIVE
 70
     0
  0
APPID
  2
DCO15
 70
     0
  0
ENDTAB
  0
TABLE
  2
DIMSTYLE
 70
     1
  0
DIMSTYLE
  2
STANDARD
 70
     0
  3

  4

  5

  6

  7

 40
1.0
 41
0.1875
 42
0.0625
 43
0.38
 44
0.125
 45
0.0
 46
0.0
 47
0.01
 48
0.01
140
0.15625
141
0.09
142
0.0
143
25.3999999999999986
144
1.0
145
0.0
146
1.0
147
0.09
 71
     1
 72
     0
 73
     1
 74
     1
 75
     0
 76
     0
 77
     0
 78
     4
170
     0
171
     2
172
     0
173
     0
174
     0
175
     0
176
     0
177
     0
178
     0
  0
ENDTAB
  0
ENDSEC
  0
SECTION
  2
BLOCKS
  0
BLOCK
  8
0
  2
$MODEL_SPACE
 70
     0
 10
0.0
 20
0.0
 30
0.0
  3
$MODEL_SPACE
  1

  0
ENDBLK
  5
21
  8
0
  0
BLOCK
 67
     1
  8
0
  2
$PAPER_SPACE
 70
     0
 10
0.0
 20
0.0
 30
0.0
  3
$PAPER_SPACE
  1

  0
ENDBLK
  5
1D
 67
     1
  8
0
  0
BLOCK
  8
0
  2
_FILLED
 70
     0
 10
0.0
 20
0.0
 30
0.0
  3
_FILLED
  1

  0
SOLID
  5
2A961
  8
0
  6
BYBLOCK
 62
     0
 10
0.0
 20
0.0
 30
0.0
 11
-1.0
 21
0.1666666667
 31
0.0
 12
-1.0
 22
-0.1666666667
 32
0.0
 13
-1.0
 23
-0.1666666667
 33
0.0
  0
ENDBLK
  5
2A962
  8
0
  6
BYBLOCK
 62
     0
  0
ENDSEC
  0
SECTION
  2
ENTITIES
  0
ATTDEF
  5
26A5B
  8
DEFPOINTS
 10
5870.4117516876840455
 20
407.6555335291835149
 30
0.0
 40
0.001
  1
K-33294
  3

  2
MODELNUMBER
 70
     0
1001
ACDBATTR
1070
     0
1070
     1
  0
ATTDEF
  5
26A5C
  8
DEFPOINTS
 10
5870.4116258780268254
 20
407.6538666888043281
 30
0.0
 40
0.001
  1
ALOUETTE
  3

  2
TRADENAME
 70
     0
1001
ACDBATTR
1070
     0
1070
     1
  0
ATTDEF
  5
26A5D
  8
DEFPOINTS
 10
5870.4117516876840455
 20
407.6522001958501278
 30
0.0
 40
0.001
  1
VANITY CABINET
  3

  2
PRODUCT
 70
     0
1001
ACDBATTR
1070
     0
1070
     1
  0
LINE
  5
2DD87
  8
0
 10
5906.8285136961803801
 20
446.9489138723449173
 30
0.0
 11
5833.9951278693788481
 21
446.9489138723449173
 31
0.0
  0
LINE
  5
2DD88
  8
0
 10
5906.8685136961803437
 20
446.9089138723448968
 30
0.0
 11
5833.955127869379794
 21
446.9089138723448968
 31
0.0
  0
LINE
  5
2DD89
  8
0
 10
5906.8685136962303659
 20
442.9331658408448789
 30
0.0
 11
5833.9551278693297718
 21
442.9331658408448789
 31
0.0
  0
LINE
  5
2DD8A
  8
0
 10
5906.8291436174804403
 20
442.8937957621449755
 30
0.0
 11
5833.9944979480796974
 21
442.8937957621449755
 31
0.0
  0
LINE
  5
2DD8B
  8
0
 10
5906.829143617531372
 20
442.2638745022450166
 30
0.0
 11
5833.9944979480296752
 21
442.2638745022450166
 31
0.0
  0
LINE
  5
2DD8C
  8
0
 10
5906.6519782630812188
 20
412.8150556046450106
 30
0.0
 11
5834.1716633024798284
 21
412.8150556046450106
 31
0.0
  0
LINE
  5
2DD8D
  8
0
 10
5906.6519782630812188
 20
412.500094974745025
 30
0.0
 11
5834.1716633024798284
 21
412.500094974745025
 31
0.0
  0
LINE
  5
2DD8E
  8
0
 10
5906.6519782630812188
 20
411.004031982544916
 30
0.0
 11
5834.1716633024798284
 21
411.0040319825449728
 31
0.0
  0
LINE
  5
2DD8F
  8
0
 10
5906.6519782630812188
 20
410.6890713526449872
 30
0.0
 11
5834.1716633024798284
 21
410.6890713526449872
 31
0.0
  0
LINE
  5
2DD90
  8
0
 10
5836.4551278694061693
 20
407.7363154471448752
 30
0.0
 11
5834.4866239323800983
 21
407.7363154471448752
 31
0.0
  0
LINE
  5
2DD91
  8
0
 10
5836.5338680267796008
 20
407.8150556046450106
 30
0.0
 11
5834.4078837748802471
 21
407.8150556046450106
 31
0.0
  0
LINE
  5
2DD92
  8
0
 10
5833.9157577905798462
 20
442.8937957621949977
 30
0.0
 11
5833.9157577905798462
 21
442.263874502294982
 31
0.0
  0
LINE
  5
2DD93
  8
0
 10
5870.4118207827314109
 20
407.7756855259448798
 30
0.0
 11
5870.4118207827314109
 21
407.6770004865450119
 31
0.0
  0
LINE
  5
2DD94
  8
0
 10
5833.955127869379794
 20
446.9089138723949191
 30
0.0
 11
5833.955127869379794
 21
442.9331658408949011
 31
0.0
  0
LINE
  5
2DD95
  8
0
 10
5833.9951278693788481
 20
446.9489138723449173
 30
0.0
 11
5833.955127869379794
 21
446.9089138723448968
 31
0.0
  0
LINE
  5
2DD96
  8
0
 10
5833.9157577905798462
 20
442.8937957621949977
 30
0.0
 11
5833.955127869379794
 21
442.9331658408949011
 31
0.0
  0
LINE
  5
2DD97
  8
0
 10
5833.9944979480787879
 20
442.8937957621949977
 30
0.0
 11
5833.9944979480787879
 21
442.263874502294982
 31
0.0
  0
LINE
  5
2DD98
  8
0
 10
5833.9157577905798462
 20
442.263874502294982
 30
0.0
 11
5833.955127869379794
 21
442.2245044235950218
 31
0.0
  0
LINE
  5
2DD99
  8
0
 10
5833.955127869379794
 20
442.2245044235950218
 30
0.0
 11
5833.9944979480787879
 21
442.263874502294982
 31
0.0
  0
LINE
  5
2DD9A
  8
0
 10
5833.955127869379794
 20
442.9331658408949011
 30
0.0
 11
5833.9944979480787879
 21
442.8937957621949977
 31
0.0
  0
LINE
  5
2DD9B
  8
0
 10
5834.4078837748802471
 20
442.2245044235950218
 30
0.0
 11
5834.4078837748802471
 21
412.8150556046450106
 31
0.0
  0
LINE
  5
2DD9C
  8
0
 10
5834.4078837748802471
 20
412.500094974745025
 30
0.0
 11
5834.4078837748802471
 21
411.0040319825449728
 31
0.0
  0
LINE
  5
2DD9D
  8
0
 10
5834.4078837748802471
 20
410.6890713526449872
 30
0.0
 11
5834.4078837748802471
 21
407.8150556046450106
 31
0.0
  0
LINE
  5
2DD9E
  8
0
 10
5834.1716633024798284
 20
412.8150556046450106
 30
0.0
 11
5834.1716633024798284
 21
412.500094974745025
 31
0.0
  0
LINE
  5
2DD9F
  8
0
 10
5834.1716633024798284
 20
411.0040319825449728
 30
0.0
 11
5834.1716633024798284
 21
410.6890713526449872
 31
0.0
  0
LINE
  5
2DDA0
  8
0
 10
5836.7700884992800638
 20
412.500094974745025
 30
0.0
 11
5836.7700884992800638
 21
412.8150556046450106
 31
0.0
  0
LINE
  5
2DDA1
  8
0
 10
5836.7700884992800638
 20
411.0040319825449728
 30
0.0
 11
5836.7700884992800638
 21
410.6890713526449872
 31
0.0
  0
LINE
  5
2DDA2
  8
0
 10
5834.4078837748802471
 20
407.8150556046450106
 30
0.0
 11
5834.4866239323800983
 21
407.7363154471448752
 31
0.0
  0
LINE
  5
2DDA3
  8
0
 10
5836.5338680267796008
 20
407.8150556046450106
 30
0.0
 11
5836.5338680267796008
 21
410.6890713526449872
 31
0.0
  0
LINE
  5
2DDA4
  8
0
 10
5836.5338680267796008
 20
411.0040319825449728
 30
0.0
 11
5836.5338680267796008
 21
412.500094974745025
 31
0.0
  0
LINE
  5
2DDA5
  8
0
 10
5836.5338680267796008
 20
412.8150556046450106
 30
0.0
 11
5836.5338680267796008
 21
442.2245044235950218
 31
0.0
  0
LINE
  5
2DDA6
  8
0
 10
5836.6322932236789711
 20
412.9134808014450186
 30
0.0
 11
5836.6322932236789711
 21
431.9292288329450002
 31
0.0
  0
LINE
  5
2DDA7
  8
0
 10
5904.1913483418802571
 20
431.9292288329450002
 30
0.0
 11
5864.4669388929796696
 21
431.9292288329450002
 31
0.0
  0
LINE
  5
2DDA8
  8
0
 10
5864.348828656779915
 20
431.9292288329450002
 30
0.0
 11
5850.5495402662609195
 21
431.9292288329450002
 31
0.0
  0
LINE
  5
2DDA9
  8
0
 10
5850.4314300300593459
 20
431.9292288329450002
 30
0.0
 11
5836.6322932236789711
 21
431.9292288329450002
 31
0.0
  0
LINE
  5
2DDAA
  8
0
 10
5836.5338680267796008
 20
431.496157966844919
 30
0.0
 11
5836.6322932236789711
 21
431.496157966844919
 31
0.0
  0
LINE
  5
2DDAB
  8
0
 10
5836.5338680267796008
 20
429.676512297544889
 30
0.0
 11
5836.5797357535811898
 21
429.676512297544889
 31
0.0
  0
ARC
  5
2DDAC
  8
0
 10
5836.5797357535811898
 20
429.6715124899945977
 30
0.0
 40
0.0049998075504316
 50
19.5229793286331486
 51
90.0
  0
ARC
  5
2DDAD
  8
0
 10
5836.593893325098179
 20
429.6765323400589978
 30
0.0
 40
0.0100213683676464
 50
199.5229793286299866
 51
266.8615554679058732
  0
ARC
  5
2DDAE
  8
0
 10
5836.6916280306240878
 20
431.459002723113997
 30
0.0
 40
1.795169188334701
 50
266.8615554679058732
 51
267.1384456072399871
  0
ARC
  5
2DDAF
  8
0
 10
5836.5990465136837884
 20
429.606820917255618
 30
0.0
 40
0.0593250228270465
 50
55.9154072082125779
 51
87.138445607240115
  0
LINE
  5
2DDB0
  8
0
 10
5836.5338680267796008
 20
429.1302872112448767
 30
0.0
 11
5836.5797358285799419
 21
429.1302872110450153
 31
0.0
  0
ARC
  5
2DDB1
  8
0
 10
5836.5920128853731512
 20
429.1481133724921051
 30
0.0
 40
0.0216448182124637
 50
235.4444243429996959
 51
272.8338114215599148
  0
ARC
  5
2DDB2
  8
0
 10
5835.9714139202560546
 20
397.7969761406164935
 30
0.0
 40
31.3356861394033892
 50
88.8467291619759862
 51
88.8632337398897647
  0
ARC
  5
2DDB3
  8
0
 10
5836.6003599855157518
 20
429.0077669216129834
 30
0.0
 40
0.1185606065855737
 50
74.3749407921733621
 51
89.1553573352815363
  0
LINE
  5
2DDB4
  8
0
 10
5836.5844481124177037
 20
429.1349602236538203
 30
0.0
 11
5836.5844481124177037
 21
429.6731837263318994
 31
0.0
  0
ARC
  5
2DDB5
  8
0
 10
5836.5790043663646429
 20
429.1357372691999785
 30
0.0
 40
0.0054989245190149
 50
277.644091965206826
 51
351.8764213141928963
  0
LINE
  5
2DDB6
  8
0
 10
5836.5338680267796008
 20
429.1163122975449937
 30
0.0
 11
5836.5638917881806265
 21
429.1163080882736267
 31
0.0
  0
ARC
  5
2DDB7
  8
0
 10
5836.5920938873659907
 20
429.2207090314332731
 30
0.0
 40
0.1081430318196126
 50
254.8833434179898916
 51
268.2906377333055161
  0
ARC
  5
2DDB8
  8
0
 10
5836.5910455441417071
 20
428.9894211483813251
 30
0.0
 40
0.1232122179910182
 50
81.6830654050332754
 51
91.0126353713363585
  0
ARC
  5
2DDB9
  8
0
 10
5836.6046066792423517
 20
429.0939418500776128
 30
0.0
 40
0.0179100410810406
 50
37.2239945895746231
 51
76.2355628142776425
  0
LINE
  5
2DDBA
  8
0
 10
5836.6188680267796371
 20
429.104776218444897
 30
0.0
 11
5836.6188680267796371
 21
428.976512297545014
 31
0.0
  0
LINE
  5
2DDBB
  8
0
 10
5836.5338680267796008
 20
428.976512297545014
 30
0.0
 11
5836.6322932235798362
 21
428.976512297545014
 31
0.0
  0
LINE
  5
2DDBC
  8
0
 10
5836.6322932235798362
 20
428.9365122975449935
 30
0.0
 11
5836.5338680267796008
 21
428.9365122975449935
 31
0.0
  0
LINE
  5
2DDBD
  8
0
 10
5836.5338680267796008
 20
428.9965122975448821
 30
0.0
 11
5836.5638769864799542
 21
428.9965122975448821
 31
0.0
  0
ARC
  5
2DDBE
  8
0
 10
5836.5939938935871396
 20
429.0368321653389785
 30
0.0
 40
0.0503261346876431
 50
233.2421240967001097
 51
266.8759572364219821
  0
ARC
  5
2DDBF
  8
0
 10
5836.5231426676382398
 20
427.6455511604161757
 30
0.0
 40
1.3427581041564629
 50
86.7223632382097946
 51
87.0925452847831991
  0
ARC
  5
2DDC0
  8
0
 10
5836.5988450390796061
 20
428.9661685605449861
 30
0.0
 40
0.0199728580000033
 50
31.23779902410201
 51
86.9320258830922654
  0
LINE
  5
2DDC1
  8
0
 10
5836.6322932235798362
 20
429.0401875563450176
 30
0.0
 11
5836.6188680267796371
 21
429.0401875563450176
 31
0.0
  0
LINE
  5
2DDC2
  8
0
 10
5836.6322932235798362
 20
429.0261658025449947
 30
0.0
 11
5836.6188680267796371
 21
429.0261658025449947
 31
0.0
  0
LINE
  5
2DDC3
  8
0
 10
5836.5638809454476359
 20
428.9965175879372055
 30
0.0
 11
5836.5638769864799542
 21
429.1163122975449937
 31
0.0
  0
LINE
  5
2DDC4
  8
0
 10
5836.5888680267798918
 20
429.1126141233449971
 30
0.0
 11
5836.5888680267798918
 21
429.093933557344883
 31
0.0
  0
ARC
  5
2DDC5
  8
0
 10
5836.6188680266786832
 20
429.093933557344883
 30
0.0
 40
0.0299999998993181
 50
180.0
 51
250.5287795014928918
  0
ARC
  5
2DDC6
  8
0
 10
5836.6038680268311509
 20
429.0515071505806191
 30
0.0
 40
0.0149999999496595
 50
359.9999998640346917
 51
70.5287795014928207
  0
LINE
  5
2DDC7
  8
0
 10
5836.5965968161799537
 20
428.976512297545014
 30
0.0
 11
5836.5965968161799537
 21
428.9863006704794088
 31
0.0
  0
LINE
  5
2DDC8
  8
0
 10
5836.6322932235798362
 20
428.8310827259448956
 30
0.0
 11
5836.5601448168799834
 21
428.738185159944976
 31
0.0
  0
ARC
  5
2DDC9
  8
0
 10
5836.6741507529195587
 20
428.6615122974948804
 30
0.0
 40
0.1373902517962206
 50
146.0778288187119074
 51
213.9221711812880926
  0
LINE
  5
2DDCA
  8
0
 10
5836.5601448168799834
 20
428.5848394350448984
 30
0.0
 11
5836.6322932235798362
 21
428.491941869044922
 31
0.0
  0
LINE
  5
2DDCB
  8
0
 10
5836.6322932235798362
 20
428.549002475245004
 30
0.0
 11
5836.587787315679634
 21
428.6063078365449996
 31
0.0
  0
ARC
  5
2DDCC
  8
0
 10
5836.6588680267814198
 20
428.6615122975233021
 30
0.0
 40
0.090000000014216
 50
142.1654873456564872
 51
217.8345126464027999
  0
LINE
  5
2DDCD
  8
0
 10
5836.58778731568691
 20
428.7167167585113816
 30
0.0
 11
5836.6322932235798362
 21
428.7740221197852861
 31
0.0
  0
LINE
  5
2DDCE
  8
0
 10
5836.5338680267796008
 20
427.6465122975449731
 30
0.0
 11
5836.5797357535811898
 21
427.6465122975449731
 31
0.0
  0
ARC
  5
2DDCF
  8
0
 10
5836.5797357535811898
 20
427.651512105095378
 30
0.0
 40
0.0049998075504316
 50
270.0
 51
340.4770206713668017
  0
ARC
  5
2DDD0
  8
0
 10
5836.593893325098179
 20
427.646492255030978
 30
0.0
 40
0.0100213683676464
 50
93.1384445320940841
 51
160.4770206713698997
  0
ARC
  5
2DDD1
  8
0
 10
5836.6916280306240878
 20
425.8640218719758082
 30
0.0
 40
1.795169188334701
 50
92.8615543927599134
 51
93.1384445320940841
  0
ARC
  5
2DDD2
  8
0
 10
5836.5990465136837884
 20
427.7162036778343008
 30
0.0
 40
0.0593250228270465
 50
272.8615543927598992
 51
304.0845927917873723
  0
LINE
  5
2DDD3
  8
0
 10
5836.5338680267796008
 20
428.1927373838448716
 30
0.0
 11
5836.5797358285799419
 21
428.1927373840450173
 31
0.0
  0
ARC
  5
2DDD4
  8
0
 10
5836.5920128853731512
 20
428.1749112225977001
 30
0.0
 40
0.0216448182124637
 50
87.1661885784400567
 51
124.5555756570003041
  0
ARC
  5
2DDD5
  8
0
 10
5835.9714139202560546
 20
459.5260484544734823
 30
0.0
 40
31.3356861394033892
 50
271.1367662601102211
 51
271.1532708380240138
  0
ARC
  5
2DDD6
  8
0
 10
5836.6003599855157518
 20
428.3152576734768218
 30
0.0
 40
0.1185606065855737
 50
270.8446426647184921
 51
285.6250592078266095
  0
ARC
  5
2DDD7
  8
0
 10
5836.5790043663646429
 20
428.1872873258898835
 30
0.0
 40
0.0054989245190149
 50
8.1235786858070593
 51
82.3559080347932451
  0
LINE
  5
2DDD8
  8
0
 10
5836.5338680267796008
 20
428.2067122975449251
 30
0.0
 11
5836.5638917881806265
 21
428.2067165068162922
 31
0.0
  0
ARC
  5
2DDD9
  8
0
 10
5836.5920938873659907
 20
428.1023155636565889
 30
0.0
 40
0.1081430318196126
 50
91.7093622666944555
 51
105.1166565820100942
  0
ARC
  5
2DDDA
  8
0
 10
5836.5910455441417071
 20
428.3336034467087075
 30
0.0
 40
0.1232122179910182
 50
268.9873646286636131
 51
278.3169345949667104
  0
ARC
  5
2DDDB
  8
0
 10
5836.6046066792423517
 20
428.2290827450121924
 30
0.0
 40
0.0179100410810406
 50
283.7644371857223859
 51
322.7760054104252845
  0
LINE
  5
2DDDC
  8
0
 10
5836.6188680267796371
 20
428.2182483766449081
 30
0.0
 11
5836.6188680267796371
 21
428.3465122975449049
 31
0.0
  0
LINE
  5
2DDDD
  8
0
 10
5836.5338680267796008
 20
428.3465122975449049
 30
0.0
 11
5836.6322932235798362
 21
428.3465122975449049
 31
0.0
  0
LINE
  5
2DDDE
  8
0
 10
5836.6322932235798362
 20
428.3865122975449253
 30
0.0
 11
5836.5338680267796008
 21
428.3865122975449253
 31
0.0
  0
LINE
  5
2DDDF
  8
0
 10
5836.5338680267796008
 20
428.3265122975449231
 30
0.0
 11
5836.5638769864799542
 21
428.3265122975449231
 31
0.0
  0
ARC
  5
2DDE0
  8
0
 10
5836.5939938935871396
 20
428.2861924297509972
 30
0.0
 40
0.0503261346876431
 50
93.1240427635780037
 51
126.7578759032999045
  0
ARC
  5
2DDE1
  8
0
 10
5836.5231426676382398
 20
429.6774734346738001
 30
0.0
 40
1.3427581041564629
 50
272.9074547152167725
 51
273.2776367617901769
  0
ARC
  5
2DDE2
  8
0
 10
5836.5988450390796061
 20
428.3568560345448759
 30
0.0
 40
0.0199728580000033
 50
273.067974116907692
 51
328.7622009758979971
  0
LINE
  5
2DDE3
  8
0
 10
5836.6322932235798362
 20
428.2828370387449013
 30
0.0
 11
5836.6188680267796371
 21
428.2828370387449013
 31
0.0
  0
LINE
  5
2DDE4
  8
0
 10
5836.6322932235798362
 20
428.2968587925449242
 30
0.0
 11
5836.6188680267796371
 21
428.2968587925449242
 31
0.0
  0
LINE
  5
2DDE5
  8
0
 10
5836.5638809454476359
 20
428.3265070071527134
 30
0.0
 11
5836.5638769864799542
 21
428.2067122975449251
 31
0.0
  0
LINE
  5
2DDE6
  8
0
 10
5836.5888680267798918
 20
428.2104104717449786
 30
0.0
 11
5836.5888680267798918
 21
428.2290910377449222
 31
0.0
  0
ARC
  5
2DDE7
  8
0
 10
5836.6188680266786832
 20
428.2290910377449222
 30
0.0
 40
0.0299999998993181
 50
109.471220498507094
 51
180.0
  0
ARC
  5
2DDE8
  8
0
 10
5836.6038680268311509
 20
428.2715174445094135
 30
0.0
 40
0.0149999999496595
 50
289.4712204985070798
 51
0.0000001359653031
  0
LINE
  5
2DDE9
  8
0
 10
5836.5965968161799537
 20
428.3465122975449049
 30
0.0
 11
5836.5965968161799537
 21
428.3367239246103964
 31
0.0
  0
LINE
  5
2DDEA
  8
0
 10
5836.5844482302800316
 20
428.1880634484448933
 30
0.0
 11
5836.5844482302800316
 21
427.6498412012239214
 31
0.0
  0
LINE
  5
2DDEB
  8
0
 10
5836.5338680267796008
 20
422.8937957620448742
 30
0.0
 11
5836.6322932236789711
 21
422.8937957620448742
 31
0.0
  0
LINE
  5
2DDEC
  8
0
 10
5836.5338680267796008
 20
422.6969453683449842
 30
0.0
 11
5836.6322932236789711
 21
422.6969453683449842
 31
0.0
  0
LINE
  5
2DDED
  8
0
 10
5836.5338680267796008
 20
422.657575289645024
 30
0.0
 11
5836.6322932236789711
 21
422.657575289645024
 31
0.0
  0
LINE
  5
2DDEE
  8
0
 10
5836.5338680267796008
 20
415.1661643861780249
 30
0.0
 11
5836.5797357535811898
 21
415.1661643861780249
 31
0.0
  0
ARC
  5
2DDEF
  8
0
 10
5836.5797357535811898
 20
415.1711641937284867
 30
0.0
 40
0.0049998075504316
 50
270.0
 51
340.4770206713668017
  0
ARC
  5
2DDF0
  8
0
 10
5836.593893325098179
 20
415.1661443436640866
 30
0.0
 40
0.0100213683676464
 50
93.1384445320940841
 51
160.4770206713698997
  0
ARC
  5
2DDF1
  8
0
 10
5836.6916280306240878
 20
413.3836739606089168
 30
0.0
 40
1.795169188334701
 50
92.8615543927599134
 51
93.1384445320940841
  0
ARC
  5
2DDF2
  8
0
 10
5836.5990465136837884
 20
415.2358557664674095
 30
0.0
 40
0.0593250228270465
 50
272.8615543927598992
 51
304.0845927917873723
  0
LINE
  5
2DDF3
  8
0
 10
5836.5338680267796008
 20
415.7123894724779802
 30
0.0
 11
5836.5797358285799419
 21
415.7123894726781259
 31
0.0
  0
ARC
  5
2DDF4
  8
0
 10
5836.5920128853731512
 20
415.6945633112308087
 30
0.0
 40
0.0216448182124637
 50
87.1661885784400567
 51
124.5555756570003041
  0
ARC
  5
2DDF5
  8
0
 10
5835.9714139202560546
 20
447.0457005431064772
 30
0.0
 40
31.3356861394033892
 50
271.1367662601102211
 51
271.1532708380240138
  0
ARC
  5
2DDF6
  8
0
 10
5836.6003599855157518
 20
415.8349097621098736
 30
0.0
 40
0.1185606065855737
 50
270.8446426647184921
 51
285.6250592078266095
  0
LINE
  5
2DDF7
  8
0
 10
5836.5844481124177037
 20
415.7077164600692072
 30
0.0
 11
5836.5844481124177037
 21
415.1694929573911281
 31
0.0
  0
ARC
  5
2DDF8
  8
0
 10
5836.5790043663646429
 20
415.7069394145229921
 30
0.0
 40
0.0054989245190149
 50
8.1235786858070593
 51
82.3559080347932451
  0
LINE
  5
2DDF9
  8
0
 10
5836.5338680267796008
 20
415.7263643861780906
 30
0.0
 11
5836.5638917881806265
 21
415.7263685954494008
 31
0.0
  0
ARC
  5
2DDFA
  8
0
 10
5836.5920938873659907
 20
415.6219676522898112
 30
0.0
 40
0.1081430318196126
 50
91.7093622666944555
 51
105.1166565820100942
  0
ARC
  5
2DDFB
  8
0
 10
5836.5910455441417071
 20
415.8532555353417024
 30
0.0
 40
0.1232122179910182
 50
268.9873646286636131
 51
278.3169345949667104
  0
ARC
  5
2DDFC
  8
0
 10
5836.6046066792423517
 20
415.748734833645301
 30
0.0
 40
0.0179100410810406
 50
283.7644371857223859
 51
322.7760054104252845
  0
LINE
  5
2DDFD
  8
0
 10
5836.6188680267796371
 20
415.7379004652780168
 30
0.0
 11
5836.6188680267796371
 21
415.8661643861781272
 31
0.0
  0
LINE
  5
2DDFE
  8
0
 10
5836.5338680267796008
 20
415.8661643861781272
 30
0.0
 11
5836.6322932235798362
 21
415.8661643861781272
 31
0.0
  0
LINE
  5
2DDFF
  8
0
 10
5836.6322932235798362
 20
415.9061643861780908
 30
0.0
 11
5836.5338680267796008
 21
415.9061643861780908
 31
0.0
  0
LINE
  5
2DE00
  8
0
 10
5836.5338680267796008
 20
415.8461643861779748
 30
0.0
 11
5836.5638769864799542
 21
415.8461643861779748
 31
0.0
  0
ARC
  5
2DE01
  8
0
 10
5836.5939938935871396
 20
415.8058445183841059
 30
0.0
 40
0.0503261346876431
 50
93.1240427635780037
 51
126.7578759032999045
  0
ARC
  5
2DE02
  8
0
 10
5836.5231426676382398
 20
417.1971255233069087
 30
0.0
 40
1.3427581041564629
 50
272.9074547152167725
 51
273.2776367617901769
  0
ARC
  5
2DE03
  8
0
 10
5836.5988450390796061
 20
415.8765081231780982
 30
0.0
 40
0.0199728580000033
 50
273.067974116907692
 51
328.7622009758979971
  0
LINE
  5
2DE04
  8
0
 10
5836.6322932235798362
 20
415.8024891273781236
 30
0.0
 11
5836.6188680267796371
 21
415.8024891273781236
 31
0.0
  0
LINE
  5
2DE05
  8
0
 10
5836.6322932235798362
 20
415.8165108811780897
 30
0.0
 11
5836.6188680267796371
 21
415.8165108811780897
 31
0.0
  0
LINE
  5
2DE06
  8
0
 10
5836.5638809454476359
 20
415.846159095785822
 30
0.0
 11
5836.5638769864799542
 21
415.7263643861780906
 31
0.0
  0
LINE
  5
2DE07
  8
0
 10
5836.5888680267798918
 20
415.7300625603779736
 30
0.0
 11
5836.5888680267798918
 21
415.748743126377974
 31
0.0
  0
ARC
  5
2DE08
  8
0
 10
5836.6188680266786832
 20
415.748743126377974
 30
0.0
 40
0.0299999998993181
 50
109.471220498507094
 51
180.0
  0
ARC
  5
2DE09
  8
0
 10
5836.6038680268311509
 20
415.7911695331425221
 30
0.0
 40
0.0149999999496595
 50
289.4712204985070798
 51
0.0000001359653031
  0
LINE
  5
2DE0A
  8
0
 10
5836.5965968161799537
 20
415.8661643861781272
 30
0.0
 11
5836.5965968161799537
 21
415.8563760132436187
 31
0.0
  0
LINE
  5
2DE0B
  8
0
 10
5836.6322932235798362
 20
416.011593957778075
 30
0.0
 11
5836.5601448168799834
 21
416.1044915237781083
 31
0.0
  0
ARC
  5
2DE0C
  8
0
 10
5836.6741507529195587
 20
416.1811643862279766
 30
0.0
 40
0.1373902517962206
 50
146.0778288187119074
 51
213.9221711812880926
  0
LINE
  5
2DE0D
  8
0
 10
5836.5601448168799834
 20
416.2578372486780722
 30
0.0
 11
5836.6322932235798362
 21
416.3507348146779918
 31
0.0
  0
LINE
  5
2DE0E
  8
0
 10
5836.6322932235798362
 20
416.2936742084780235
 30
0.0
 11
5836.587787315679634
 21
416.2363688471780279
 31
0.0
  0
ARC
  5
2DE0F
  8
0
 10
5836.6588680267814198
 20
416.1811643861997254
 30
0.0
 40
0.090000000014216
 50
142.1654873535972001
 51
217.8345126543435128
  0
LINE
  5
2DE10
  8
0
 10
5836.58778731568691
 20
416.1259599252114754
 30
0.0
 11
5836.6322932235798362
 21
416.0686545639376845
 31
0.0
  0
LINE
  5
2DE11
  8
0
 10
5836.5338680267796008
 20
417.1961643861781113
 30
0.0
 11
5836.5797357535811898
 21
417.1961643861781113
 31
0.0
  0
ARC
  5
2DE12
  8
0
 10
5836.5797357535811898
 20
417.1911645786275926
 30
0.0
 40
0.0049998075504316
 50
19.5229793286331486
 51
90.0
  0
ARC
  5
2DE13
  8
0
 10
5836.593893325098179
 20
417.1961844286919927
 30
0.0
 40
0.0100213683676464
 50
199.5229793286299866
 51
266.8615554679058732
  0
ARC
  5
2DE14
  8
0
 10
5836.6916280306240878
 20
418.9786548117472194
 30
0.0
 40
1.795169188334701
 50
266.8615554679058732
 51
267.1384456072399871
  0
ARC
  5
2DE15
  8
0
 10
5836.5990465136837884
 20
417.126473005888613
 30
0.0
 40
0.0593250228270465
 50
55.9154072082125779
 51
87.138445607240115
  0
LINE
  5
2DE16
  8
0
 10
5836.5338680267796008
 20
416.6499392998780991
 30
0.0
 11
5836.5797358285799419
 21
416.6499392996780102
 31
0.0
  0
ARC
  5
2DE17
  8
0
 10
5836.5920128853731512
 20
416.6677654611253274
 30
0.0
 40
0.0216448182124637
 50
235.4444243429996959
 51
272.8338114215599148
  0
ARC
  5
2DE18
  8
0
 10
5835.9714139202560546
 20
385.3166282292496021
 30
0.0
 40
31.3356861394033892
 50
88.8467291619759862
 51
88.8632337398897647
  0
ARC
  5
2DE19
  8
0
 10
5836.6003599855157518
 20
416.5274190102462057
 30
0.0
 40
0.1185606065855737
 50
74.3749407921733621
 51
89.1553573352815363
  0
ARC
  5
2DE1A
  8
0
 10
5836.5790043663646429
 20
416.6553893578330872
 30
0.0
 40
0.0054989245190149
 50
277.644091965206826
 51
351.8764213141928963
  0
LINE
  5
2DE1B
  8
0
 10
5836.5338680267796008
 20
416.6359643861779887
 30
0.0
 11
5836.5638917881806265
 21
416.6359601769066785
 31
0.0
  0
ARC
  5
2DE1C
  8
0
 10
5836.5920938873659907
 20
416.7403611200663249
 30
0.0
 40
0.1081430318196126
 50
254.8833434179898916
 51
268.2906377333055161
  0
ARC
  5
2DE1D
  8
0
 10
5836.5910455441417071
 20
416.5090732370143769
 30
0.0
 40
0.1232122179910182
 50
81.6830654050332754
 51
91.0126353713363585
  0
ARC
  5
2DE1E
  8
0
 10
5836.6046066792423517
 20
416.613593938710892
 30
0.0
 40
0.0179100410810406
 50
37.2239945895746231
 51
76.2355628142776425
  0
LINE
  5
2DE1F
  8
0
 10
5836.6188680267796371
 20
416.6244283070780057
 30
0.0
 11
5836.6188680267796371
 21
416.496164386178009
 31
0.0
  0
LINE
  5
2DE20
  8
0
 10
5836.5338680267796008
 20
416.496164386178009
 30
0.0
 11
5836.6322932235798362
 21
416.496164386178009
 31
0.0
  0
LINE
  5
2DE21
  8
0
 10
5836.6322932235798362
 20
416.4561643861779885
 30
0.0
 11
5836.5338680267796008
 21
416.4561643861779885
 31
0.0
  0
LINE
  5
2DE22
  8
0
 10
5836.5338680267796008
 20
416.5161643861781045
 30
0.0
 11
5836.5638769864799542
 21
416.5161643861781045
 31
0.0
  0
ARC
  5
2DE23
  8
0
 10
5836.5939938935871396
 20
416.5564842539720871
 30
0.0
 40
0.0503261346876431
 50
233.2421240967001097
 51
266.8759572364219821
  0
ARC
  5
2DE24
  8
0
 10
5836.5231426676382398
 20
415.1652032490492843
 30
0.0
 40
1.3427581041564629
 50
86.7223632382097946
 51
87.0925452847831991
  0
ARC
  5
2DE25
  8
0
 10
5836.5988450390796061
 20
416.4858206491779811
 30
0.0
 40
0.0199728580000033
 50
31.23779902410201
 51
86.9320258830922654
  0
LINE
  5
2DE26
  8
0
 10
5836.6322932235798362
 20
416.5598396449780125
 30
0.0
 11
5836.6188680267796371
 21
416.5598396449780125
 31
0.0
  0
LINE
  5
2DE27
  8
0
 10
5836.6322932235798362
 20
416.5458178911781033
 30
0.0
 11
5836.6188680267796371
 21
416.5458178911781033
 31
0.0
  0
LINE
  5
2DE28
  8
0
 10
5836.5638809454476359
 20
416.5161696765704278
 30
0.0
 11
5836.5638769864799542
 21
416.6359643861779887
 31
0.0
  0
LINE
  5
2DE29
  8
0
 10
5836.5888680267798918
 20
416.6322662119781057
 30
0.0
 11
5836.5888680267798918
 21
416.6135856459781053
 31
0.0
  0
ARC
  5
2DE2A
  8
0
 10
5836.6188680266786832
 20
416.6135856459781053
 30
0.0
 40
0.0299999998993181
 50
180.0
 51
250.5287795014928918
  0
ARC
  5
2DE2B
  8
0
 10
5836.6038680268311509
 20
416.5711592392137277
 30
0.0
 40
0.0149999999496595
 50
359.9999998640346917
 51
70.5287795014928207
  0
LINE
  5
2DE2C
  8
0
 10
5836.5965968161799537
 20
416.496164386178009
 30
0.0
 11
5836.5965968161799537
 21
416.5059527591125175
 31
0.0
  0
LINE
  5
2DE2D
  8
0
 10
5836.5844482302800316
 20
416.6546132352780774
 30
0.0
 11
5836.5844482302800316
 21
417.1928354824991061
 31
0.0
  0
LINE
  5
2DE2E
  8
0
 10
5836.6322932236789711
 20
412.9134808014450186
 30
0.0
 11
5850.4314300300593459
 21
412.9134808014450186
 31
0.0
  0
LINE
  5
2DE2F
  8
0
 10
5850.5495402662609195
 20
412.9134808014450186
 30
0.0
 11
5864.348828656779915
 21
412.9134808014450186
 31
0.0
  0
LINE
  5
2DE30
  8
0
 10
5864.4669388929796696
 20
412.9134808014450186
 30
0.0
 11
5904.1913483418802571
 21
412.9134808014450186
 31
0.0
  0
LINE
  5
2DE31
  8
0
 10
5836.5338680267796008
 20
421.0827721400448809
 30
0.0
 11
5836.6322932236789711
 21
421.0827721400448809
 31
0.0
  0
LINE
  5
2DE32
  8
0
 10
5850.4314300300593459
 20
431.9292870062485008
 30
0.0
 11
5850.4314300300593459
 21
412.9134808014450186
 31
0.0
  0
LINE
  5
2DE33
  8
0
 10
5850.5495402662609195
 20
431.9292870062485008
 30
0.0
 11
5850.5495402662609195
 21
412.9134808014450186
 31
0.0
  0
LINE
  5
2DE34
  8
0
 10
5850.5495402662609195
 20
431.4962161401484195
 30
0.0
 11
5850.4314300300593459
 21
431.4962161401484195
 31
0.0
  0
LINE
  5
2DE35
  8
0
 10
5850.5495402662609195
 20
422.6576334629484109
 30
0.0
 11
5850.4314300300593459
 21
422.6576334629484109
 31
0.0
  0
LINE
  5
2DE36
  8
0
 10
5850.5495402662609195
 20
422.0670822818483998
 30
0.0
 11
5850.4314300300593459
 21
422.0670822818483998
 31
0.0
  0
LINE
  5
2DE37
  8
0
 10
5850.5495402662609195
 20
421.0828303133483814
 30
0.0
 11
5850.4314300300593459
 21
421.0828303133483814
 31
0.0
  0
LINE
  5
2DE38
  8
0
 10
5850.5495402662609195
 20
415.3741688960485021
 30
0.0
 11
5850.4314300300593459
 21
415.3741688960485021
 31
0.0
  0
LINE
  5
2DE39
  8
0
 10
5864.348828656779915
 20
440.5512760770449745
 30
0.0
 11
5864.348828656779915
 21
432.2441894629449735
 31
0.0
  0
LINE
  5
2DE3A
  8
0
 10
5864.348828656779915
 20
431.9292870062485008
 30
0.0
 11
5864.348828656779915
 21
412.9134808014450186
 31
0.0
  0
LINE
  5
2DE3B
  8
0
 10
5864.4669388929796696
 20
440.5512760770449745
 30
0.0
 11
5864.4669388929796696
 21
432.2441894629449735
 31
0.0
  0
LINE
  5
2DE3C
  8
0
 10
5864.4669388929796696
 20
431.9292870062485008
 30
0.0
 11
5864.4669388929796696
 21
412.9134808014450186
 31
0.0
  0
LINE
  5
2DE3D
  8
0
 10
5836.5338680267796008
 20
432.2441894629449735
 30
0.0
 11
5904.2897735387796274
 21
432.2441894629449735
 31
0.0
  0
LINE
  5
2DE3E
  8
0
 10
5864.348828656779915
 20
431.4962161401484195
 30
0.0
 11
5864.4669388929796696
 21
431.4962161401484195
 31
0.0
  0
LINE
  5
2DE3F
  8
0
 10
5863.285836530780216
 20
412.9135389747484055
 30
0.0
 11
5863.285836530780216
 21
412.8544838566484145
 31
0.0
  0
LINE
  5
2DE40
  8
0
 10
5863.285836530780216
 20
412.8544838566484145
 30
0.0
 11
5864.0338680268796452
 21
412.8544838566484145
 31
0.0
  0
LINE
  5
2DE41
  8
0
 10
5864.0338680268796452
 20
412.8151137779483975
 30
0.0
 11
5864.0338680268796452
 21
412.9135389747484055
 31
0.0
  0
LINE
  5
2DE42
  8
0
 10
5864.1322932236789711
 20
412.8151137779483975
 30
0.0
 11
5864.0535530661800294
 21
412.8544838566484145
 31
0.0
  0
LINE
  5
2DE43
  8
0
 10
5864.0535530661800294
 20
412.8544838566484145
 30
0.0
 11
5864.7622144835795552
 21
412.8544838566484145
 31
0.0
  0
LINE
  5
2DE44
  8
0
 10
5864.7622144835795552
 20
412.8151137779483975
 30
0.0
 11
5864.7622144835795552
 21
412.9135389747484055
 31
0.0
  0
LINE
  5
2DE45
  8
0
 10
5864.0535530661800294
 20
412.8544838566484145
 30
0.0
 11
5864.0535530661800294
 21
412.9135389747484055
 31
0.0
  0
LINE
  5
2DE46
  8
0
 10
5865.7464664520803126
 20
412.9134808014949272
 30
0.0
 11
5865.7464664520803126
 21
412.8150556046949191
 31
0.0
  0
LINE
  5
2DE47
  8
0
 10
5836.5338680267796008
 20
440.6497012739449133
 30
0.0
 11
5904.2897735387796274
 21
440.6497012739449133
 31
0.0
  0
LINE
  5
2DE48
  8
0
 10
5836.6322932236789711
 20
440.5512760770449745
 30
0.0
 11
5904.1913483418802571
 21
440.5512760770449745
 31
0.0
  0
LINE
  5
2DE49
  8
0
 10
5836.6322932236789711
 20
440.5512760770449745
 30
0.0
 11
5836.6322932236789711
 21
432.2441894629449735
 31
0.0
  0
LINE
  5
2DE4A
  8
0
 10
5836.5738680268314056
 20
439.0648981243450066
 30
0.0
 11
5836.5738680268314056
 21
437.9037957621449095
 31
0.0
  0
LINE
  5
2DE4B
  8
0
 10
5836.5638680268302778
 20
439.0748981243449975
 30
0.0
 11
5836.5338680267796008
 21
439.0748981243449975
 31
0.0
  0
LINE
  5
2DE4C
  8
0
 10
5836.5638680268302778
 20
437.8937957621449755
 30
0.0
 11
5836.5338680267796008
 21
437.8937957621449755
 31
0.0
  0
ARC
  5
2DE4D
  8
0
 10
5836.5344086518298354
 20
438.0906461558449223
 30
0.0
 40
0.1594593749999347
 50
284.3270949316826091
 51
307.8686044578532233
  0
ARC
  5
2DE4E
  8
0
 10
5836.5344086518298354
 20
438.0906461558450928
 30
0.0
 40
0.1594593749999221
 50
52.1313955421448014
 51
75.6729050683173625
  0
ARC
  5
2DE4F
  8
0
 10
5836.543159365430256
 20
438.4619548668450761
 30
0.0
 40
0.2078740157001794
 50
282.8577248793263266
 51
295.3906604549048893
  0
ARC
  5
2DE50
  8
0
 10
5836.5938685270966744
 20
438.2397939158053077
 30
0.0
 40
0.0200007464913619
 50
102.8577248793269945
 51
164.9998078066404901
  0
ARC
  5
2DE51
  8
0
 10
5836.5472464769882208
 20
438.5178487922099748
 30
0.0
 40
0.1960517062609009
 50
64.291196252715693
 51
77.5784398773626265
  0
ARC
  5
2DE52
  8
0
 10
5836.5945438504722915
 20
438.7302955514638256
 30
0.0
 40
0.0216013825114247
 50
196.8330145706727023
 51
256.2725188351849965
  0
ARC
  5
2DE53
  8
0
 10
5836.5344086518298354
 20
438.8780477306449939
 30
0.0
 40
0.15945937500008
 50
284.3802797894239802
 51
307.8686044578491874
  0
ARC
  5
2DE54
  8
0
 10
5836.5344086518298354
 20
438.8780477306449939
 30
0.0
 40
0.1594593750000291
 50
52.1313955421488018
 51
75.6729050683173625
  0
ARC
  5
2DE55
  8
0
 10
5836.5638680268302778
 20
439.0648981243450066
 30
0.0
 40
0.01
 50
359.9999999999805027
 51
90.0
  0
ARC
  5
2DE56
  8
0
 10
5836.5638680268302778
 20
437.9037957621449095
 30
0.0
 40
0.01
 50
270.0
 51
359.9999999999902229
  0
LINE
  5
2DE57
  8
0
 10
5836.6322932236789711
 20
437.0670241085448993
 30
0.0
 11
5836.5338680267796008
 21
437.0670241085448993
 31
0.0
  0
LINE
  5
2DE58
  8
0
 10
5849.1818240856600823
 20
428.8928696834483958
 30
0.0
 11
5848.6889099683594395
 21
428.8928696834483958
 31
0.0
  0
ARC
  5
2DE59
  8
0
 10
5848.6889099683594395
 20
428.8628696834484799
 30
0.0
 40
0.0299999999999994
 50
90.0
 51
134.9971257199036074
  0
LINE
  5
2DE5A
  8
0
 10
5848.6676978291252453
 20
428.8840839510315277
 30
0.0
 11
5848.3191363500527586
 21
428.5355574418323954
 31
0.0
  0
ARC
  5
2DE5B
  8
0
 10
5848.3399459863476295
 20
428.5147457175744989
 30
0.0
 40
0.0294307463263295
 50
134.9971257199059949
 51
180.8473513417297056
  0
LINE
  5
2DE5C
  8
0
 10
5848.310518458459228
 20
428.5143104800484934
 30
0.0
 11
5848.3103672015004122
 21
428.0213135561414788
 31
0.0
  0
ARC
  5
2DE5D
  8
0
 10
5848.3399526154471459
 20
428.0213462786718992
 30
0.0
 40
0.029585432043012
 50
180.0633711642311141
 51
225.4911798559984959
  0
LINE
  5
2DE5E
  8
0
 10
5848.3192126638587069
 20
428.0002476484485214
 30
0.0
 11
5848.6684364917819039
 21
427.6509416931888836
 31
0.0
  0
ARC
  5
2DE5F
  8
0
 10
5848.6885000455822592
 20
427.6723813111328241
 30
0.0
 40
0.0293633003707343
 50
226.8989824879240018
 51
270.8316528035059036
  0
LINE
  5
2DE60
  8
0
 10
5848.6889262412587414
 20
427.6430211039483993
 30
0.0
 11
5849.1818251015602073
 21
427.6428696834483958
 31
0.0
  0
ARC
  5
2DE61
  8
0
 10
5849.1818241074488469
 20
427.6728696837619736
 30
0.0
 40
0.0300000003300266
 50
270.001898611975605
 51
314.9985567443562218
  0
LINE
  5
2DE62
  8
0
 10
5849.2030367767602002
 20
427.6516559457484163
 30
0.0
 11
5849.5515890209562713
 21
428.0001906306304136
 31
0.0
  0
ARC
  5
2DE63
  8
0
 10
5849.5303987989927919
 20
428.0213819201654246
 30
0.0
 40
0.0299682541869731
 50
314.9985567443562218
 51
0.057753446997193
  0
LINE
  5
2DE64
  8
0
 10
5849.5603670379550749
 20
428.0214121277950881
 30
0.0
 11
5849.5603670379587129
 21
428.5143277470484122
 31
0.0
  0
ARC
  5
2DE65
  8
0
 10
5849.5303874571673077
 20
428.514330814723678
 30
0.0
 40
0.0299795809500056
 50
359.9941371814297781
 51
45.0178431775132282
  0
LINE
  5
2DE66
  8
0
 10
5849.5515796193585629
 20
428.5355361804485028
 30
0.0
 11
5849.2036398604577698
 21
428.8834803374501234
 31
0.0
  0
ARC
  5
2DE67
  8
0
 10
5849.1817482749138435
 20
428.86265482137361
 30
0.0
 40
0.0302149571813346
 50
43.5703944663988665
 51
89.8562420494857435
  0
LINE
  5
2DE68
  8
0
 10
5849.5203670379596588
 20
428.5101846174484876
 30
0.0
 11
5849.1776819719589184
 21
428.8528696834483753
 31
0.0
  0
LINE
  5
2DE69
  8
0
 10
5849.1776819719589184
 20
428.8528696834483753
 30
0.0
 11
5848.6930521039603263
 21
428.8528696834483753
 31
0.0
  0
LINE
  5
2DE6A
  8
0
 10
5848.6930521039603263
 20
428.8528696834483753
 30
0.0
 11
5848.3503670379586765
 21
428.5101846174484876
 31
0.0
  0
LINE
  5
2DE6B
  8
0
 10
5848.3503670379586765
 20
428.5101846174484876
 30
0.0
 11
5848.3503670379586765
 21
428.0255547494484176
 31
0.0
  0
LINE
  5
2DE6C
  8
0
 10
5848.3503670379586765
 20
428.0255547494484176
 30
0.0
 11
5848.6930521039603263
 21
427.6828696834484163
 31
0.0
  0
LINE
  5
2DE6D
  8
0
 10
5848.6930521039603263
 20
427.6828696834484163
 30
0.0
 11
5849.1776819719589184
 21
427.6828696834484163
 31
0.0
  0
LINE
  5
2DE6E
  8
0
 10
5849.1776819719589184
 20
427.6828696834484163
 30
0.0
 11
5849.5203670379596588
 21
428.0255547494484176
 31
0.0
  0
LINE
  5
2DE6F
  8
0
 10
5849.5203670379596588
 20
428.0255547494484176
 30
0.0
 11
5849.5203670379596588
 21
428.5101846174484876
 31
0.0
  0
LINE
  5
2DE70
  8
0
 10
5849.5203670379596588
 20
428.5101846174484876
 30
0.0
 11
5849.558083778798391
 21
428.5258063993301221
 31
0.0
  0
LINE
  5
2DE71
  8
0
 10
5849.1776819719589184
 20
428.8528696834483753
 30
0.0
 11
5849.1936932144071761
 21
428.8904084167796782
 31
0.0
  0
LINE
  5
2DE72
  8
0
 10
5848.6930521039603263
 20
428.8528696834483753
 30
0.0
 11
5848.6774294654451296
 21
428.8905860694470107
 31
0.0
  0
LINE
  5
2DE73
  8
0
 10
5848.3503670379586765
 20
428.5101846174484876
 30
0.0
 11
5848.3126732616492518
 21
428.5258076937433884
 31
0.0
  0
LINE
  5
2DE74
  8
0
 10
5848.3503670379586765
 20
428.0255547494484176
 30
0.0
 11
5848.3126743508246363
 21
428.0098922807503072
 31
0.0
  0
LINE
  5
2DE75
  8
0
 10
5848.6930521039603263
 20
427.6828696834484163
 30
0.0
 11
5848.6768096359573974
 21
427.6454455035258206
 31
0.0
  0
LINE
  5
2DE76
  8
0
 10
5849.1776819719589184
 20
427.6828696834484163
 30
0.0
 11
5849.1933046105350513
 21
427.6451532974771226
 31
0.0
  0
LINE
  5
2DE77
  8
0
 10
5849.5203670379596588
 20
428.0255547494484176
 30
0.0
 11
5849.5580914878592012
 21
428.0099271725705989
 31
0.0
  0
LINE
  5
2DE78
  8
0
 10
5852.2920603061093061
 20
428.8928696834483958
 30
0.0
 11
5851.7991461888095728
 21
428.8928696834483958
 31
0.0
  0
ARC
  5
2DE79
  8
0
 10
5851.7991461888095728
 20
428.8628696834484799
 30
0.0
 40
0.0299999999999994
 50
90.0
 51
134.9971257199036074
  0
LINE
  5
2DE7A
  8
0
 10
5851.7779340495735596
 20
428.8840839510315277
 30
0.0
 11
5851.4293725705028919
 21
428.5355574418323954
 31
0.0
  0
ARC
  5
2DE7B
  8
0
 10
5851.4501822067968533
 20
428.5147457175744989
 30
0.0
 40
0.0294307463263295
 50
134.9971257199059949
 51
180.8473513417297056
  0
LINE
  5
2DE7C
  8
0
 10
5851.4207546789093612
 20
428.5143104800484934
 30
0.0
 11
5851.420603421949636
 21
428.0213135561414788
 31
0.0
  0
ARC
  5
2DE7D
  8
0
 10
5851.4501888358972792
 20
428.0213462786718992
 30
0.0
 40
0.029585432043012
 50
180.0633711642311141
 51
225.4911798559984959
  0
LINE
  5
2DE7E
  8
0
 10
5851.4294488843097497
 20
428.0002476484485214
 30
0.0
 11
5851.7786727122320372
 21
427.6509416931888836
 31
0.0
  0
ARC
  5
2DE7F
  8
0
 10
5851.7987362660305735
 20
427.6723813111328241
 30
0.0
 40
0.0293633003707343
 50
226.8989824879240018
 51
270.8316528035059036
  0
LINE
  5
2DE80
  8
0
 10
5851.7991624617088746
 20
427.6430211039483993
 30
0.0
 11
5852.292061322009431
 21
427.6428696834483958
 31
0.0
  0
ARC
  5
2DE81
  8
0
 10
5852.2920603278989802
 20
427.6728696837619736
 30
0.0
 40
0.0300000003300266
 50
270.001898611975605
 51
314.9985567443562218
  0
LINE
  5
2DE82
  8
0
 10
5852.3132729972103334
 20
427.6516559457484163
 30
0.0
 11
5852.661825241407314
 21
428.0001906306304136
 31
0.0
  0
ARC
  5
2DE83
  8
0
 10
5852.6406350194429251
 20
428.0213819201654246
 30
0.0
 40
0.0299682541869731
 50
314.9985567443562218
 51
0.057753446997193
  0
LINE
  5
2DE84
  8
0
 10
5852.6706032584061177
 20
428.0214121277950881
 30
0.0
 11
5852.6706032584097557
 21
428.5143277470484122
 31
0.0
  0
ARC
  5
2DE85
  8
0
 10
5852.640623677617441
 20
428.514330814723678
 30
0.0
 40
0.0299795809500056
 50
359.9941371814297781
 51
45.0178431775132282
  0
LINE
  5
2DE86
  8
0
 10
5852.6618158398086962
 20
428.5355361804485028
 30
0.0
 11
5852.3138760809079031
 21
428.8834803374501234
 31
0.0
  0
ARC
  5
2DE87
  8
0
 10
5852.2919844953639767
 20
428.86265482137361
 30
0.0
 40
0.0302149571813346
 50
43.5703944663988665
 51
89.8562420494857435
  0
LINE
  5
2DE88
  8
0
 10
5852.630603258409792
 20
428.5101846174484876
 30
0.0
 11
5852.2879181924099612
 21
428.8528696834483753
 31
0.0
  0
LINE
  5
2DE89
  8
0
 10
5852.2879181924099612
 20
428.8528696834483753
 30
0.0
 11
5851.8032883244086406
 21
428.8528696834483753
 31
0.0
  0
LINE
  5
2DE8A
  8
0
 10
5851.8032883244086406
 20
428.8528696834483753
 30
0.0
 11
5851.4606032584088098
 21
428.5101846174484876
 31
0.0
  0
LINE
  5
2DE8B
  8
0
 10
5851.4606032584088098
 20
428.5101846174484876
 30
0.0
 11
5851.4606032584088098
 21
428.0255547494484176
 31
0.0
  0
LINE
  5
2DE8C
  8
0
 10
5851.4606032584088098
 20
428.0255547494484176
 30
0.0
 11
5851.8032883244086406
 21
427.6828696834484163
 31
0.0
  0
LINE
  5
2DE8D
  8
0
 10
5851.8032883244086406
 20
427.6828696834484163
 30
0.0
 11
5852.2879181924099612
 21
427.6828696834484163
 31
0.0
  0
LINE
  5
2DE8E
  8
0
 10
5852.2879181924099612
 20
427.6828696834484163
 30
0.0
 11
5852.630603258409792
 21
428.0255547494484176
 31
0.0
  0
LINE
  5
2DE8F
  8
0
 10
5852.630603258409792
 20
428.0255547494484176
 30
0.0
 11
5852.630603258409792
 21
428.5101846174484876
 31
0.0
  0
LINE
  5
2DE90
  8
0
 10
5852.630603258409792
 20
428.5101846174484876
 30
0.0
 11
5852.6683199992467053
 21
428.5258063993301221
 31
0.0
  0
LINE
  5
2DE91
  8
0
 10
5852.2879181924099612
 20
428.8528696834483753
 30
0.0
 11
5852.3039294348573094
 21
428.8904084167796782
 31
0.0
  0
LINE
  5
2DE92
  8
0
 10
5851.8032883244086406
 20
428.8528696834483753
 30
0.0
 11
5851.7876656858952629
 21
428.8905860694470107
 31
0.0
  0
LINE
  5
2DE93
  8
0
 10
5851.4606032584088098
 20
428.5101846174484876
 30
0.0
 11
5851.4229094820966566
 21
428.5258076937433884
 31
0.0
  0
LINE
  5
2DE94
  8
0
 10
5851.4606032584088098
 20
428.0255547494484176
 30
0.0
 11
5851.4229105712756791
 21
428.0098922807503072
 31
0.0
  0
LINE
  5
2DE95
  8
0
 10
5851.8032883244086406
 20
427.6828696834484163
 30
0.0
 11
5851.7870458564057117
 21
427.6454455035258206
 31
0.0
  0
LINE
  5
2DE96
  8
0
 10
5852.2879181924099612
 20
427.6828696834484163
 30
0.0
 11
5852.3035408309851846
 21
427.6451532974771226
 31
0.0
  0
LINE
  5
2DE97
  8
0
 10
5852.630603258409792
 20
428.0255547494484176
 30
0.0
 11
5852.6683277083084249
 21
428.0099271725705989
 31
0.0
  0
LINE
  5
2DE98
  8
0
 10
5836.5338680267796008
 20
407.8150556046450106
 30
0.0
 11
5836.4551278694061693
 21
407.7363154471448752
 31
0.0
  0
LINE
  5
2DE99
  8
0
 10
5836.1992223575798562
 20
407.6770004865450119
 30
0.0
 11
5835.0968601527811188
 21
407.6770004865450119
 31
0.0
  0
LINE
  5
2DE9A
  8
0
 10
5836.179537318180337
 20
407.6573154471449243
 30
0.0
 11
5835.1165451921797285
 21
407.6573154471449243
 31
0.0
  0
LINE
  5
2DE9B
  8
0
 10
5835.0968601527811188
 20
407.6770004865450119
 30
0.0
 11
5835.0968601527811188
 21
407.7363154471448752
 31
0.0
  0
LINE
  5
2DE9C
  8
0
 10
5835.0975545998790039
 20
407.6770004865450119
 30
0.0
 11
5835.0975545998790039
 21
407.7363154471448752
 31
0.0
  0
LINE
  5
2DE9D
  8
0
 10
5835.098283395679573
 20
407.6770004865450119
 30
0.0
 11
5835.098283395679573
 21
407.7363154471448752
 31
0.0
  0
LINE
  5
2DE9E
  8
0
 10
5835.1009607182795662
 20
407.6770004865450119
 30
0.0
 11
5835.1009607182795662
 21
407.7363154471448752
 31
0.0
  0
LINE
  5
2DE9F
  8
0
 10
5835.102542292380349
 20
407.6770004865450119
 30
0.0
 11
5835.102542292380349
 21
407.7363154471448752
 31
0.0
  0
LINE
  5
2DEA0
  8
0
 10
5835.1071821144796559
 20
407.6770004865450119
 30
0.0
 11
5835.1071821144796559
 21
407.7363154471448752
 31
0.0
  0
LINE
  5
2DEA1
  8
0
 10
5835.1096044303803865
 20
407.6770004865450119
 30
0.0
 11
5835.1096044303803865
 21
407.7363154471448752
 31
0.0
  0
LINE
  5
2DEA2
  8
0
 10
5835.1161714400795972
 20
407.6770004865450119
 30
0.0
 11
5835.1161714400795972
 21
407.7363154471448752
 31
0.0
  0
LINE
  5
2DEA3
  8
0
 10
5835.1194160623790594
 20
407.6770004865450119
 30
0.0
 11
5835.1194160623790594
 21
407.7363154471448752
 31
0.0
  0
LINE
  5
2DEA4
  8
0
 10
5835.1278602807788047
 20
407.6770004865450119
 30
0.0
 11
5835.1278602807788047
 21
407.7363154471448752
 31
0.0
  0
LINE
  5
2DEA5
  8
0
 10
5835.1319025158800287
 20
407.6770004865450119
 30
0.0
 11
5835.1319025158800287
 21
407.7363154471448752
 31
0.0
  0
LINE
  5
2DEA6
  8
0
 10
5835.1421596773798228
 20
407.6770004865450119
 30
0.0
 11
5835.1421596773798228
 21
407.7363154471448752
 31
0.0
  0
LINE
  5
2DEA7
  8
0
 10
5835.1469687615808652
 20
407.6770004865450119
 30
0.0
 11
5835.1469687615808652
 21
407.7363154471448752
 31
0.0
  0
LINE
  5
2DEA8
  8
0
 10
5835.1589608030799354
 20
407.6770004865450119
 30
0.0
 11
5835.1589608030799354
 21
407.7363154471448752
 31
0.0
  0
LINE
  5
2DEA9
  8
0
 10
5835.1645001362803669
 20
407.6770004865450119
 30
0.0
 11
5835.1645001362803669
 21
407.7363154471448752
 31
0.0
  0
LINE
  5
2DEAA
  8
0
 10
5835.1781357908803329
 20
407.6770004865450119
 30
0.0
 11
5835.1781357908803329
 21
407.7363154471448752
 31
0.0
  0
LINE
  5
2DEAB
  8
0
 10
5835.1840684116814373
 20
407.6770004865450119
 30
0.0
 11
5835.1840684116814373
 21
407.7363154471448752
 31
0.0
  0
LINE
  5
2DEAC
  8
0
 10
5835.1843632153813815
 20
407.6770004865450119
 30
0.0
 11
5835.1843632153813815
 21
407.7363154471448752
 31
0.0
  0
LINE
  5
2DEAD
  8
0
 10
5835.199538707780448
 20
407.6770004865450119
 30
0.0
 11
5835.199538707780448
 21
407.7363154471448752
 31
0.0
  0
LINE
  5
2DEAE
  8
0
 10
5835.2050148866801464
 20
407.6770004865450119
 30
0.0
 11
5835.2050148866801464
 21
407.7363154471448752
 31
0.0
  0
LINE
  5
2DEAF
  8
0
 10
5835.2064068291801959
 20
407.6770004865450119
 30
0.0
 11
5835.2064068291801959
 21
407.7363154471448752
 31
0.0
  0
LINE
  5
2DEB0
  8
0
 10
5835.2230066644797262
 20
407.6770004865450119
 30
0.0
 11
5835.2230066644797262
 21
407.7363154471448752
 31
0.0
  0
LINE
  5
2DEB1
  8
0
 10
5835.2279847243789845
 20
407.6770004865450119
 30
0.0
 11
5835.2279847243789845
 21
407.7363154471448752
 31
0.0
  0
LINE
  5
2DEB2
  8
0
 10
5835.2304632121804389
 20
407.6770004865450119
 30
0.0
 11
5835.2304632121804389
 21
407.7363154471448752
 31
0.0
  0
LINE
  5
2DEB3
  8
0
 10
5835.2483610557801512
 20
407.6770004865450119
 30
0.0
 11
5835.2483610557801512
 21
407.7363154471448752
 31
0.0
  0
LINE
  5
2DEB4
  8
0
 10
5835.252803110680361
 20
407.6770004865450119
 30
0.0
 11
5835.252803110680361
 21
407.7363154471448752
 31
0.0
  0
LINE
  5
2DEB5
  8
0
 10
5835.2563492809813397
 20
407.6770004865450119
 30
0.0
 11
5835.2563492809813397
 21
407.7363154471448752
 31
0.0
  0
LINE
  5
2DEB6
  8
0
 10
5835.2754089193813343
 20
407.6770004865450119
 30
0.0
 11
5835.2754089193813343
 21
407.7363154471448752
 31
0.0
  0
LINE
  5
2DEB7
  8
0
 10
5835.2792811625813556
 20
407.6770004865450119
 30
0.0
 11
5835.2792811625813556
 21
407.7363154471448752
 31
0.0
  0
LINE
  5
2DEB8
  8
0
 10
5835.2838680267814198
 20
407.6770004865450119
 30
0.0
 11
5835.2838680267814198
 21
407.7363154471448752
 31
0.0
  0
LINE
  5
2DEB9
  8
0
 10
5835.3039444047799407
 20
407.6770004865450119
 30
0.0
 11
5835.3039444047799407
 21
407.7363154471448752
 31
0.0
  0
LINE
  5
2DEBA
  8
0
 10
5835.3072173661812485
 20
407.6770004865450119
 30
0.0
 11
5835.3072173661812485
 21
407.7363154471448752
 31
0.0
  0
LINE
  5
2DEBB
  8
0
 10
5835.3128100155790889
 20
407.6770004865450119
 30
0.0
 11
5835.3128100155790889
 21
407.7363154471448752
 31
0.0
  0
LINE
  5
2DEBC
  8
0
 10
5835.333750339580547
 20
407.6770004865450119
 30
0.0
 11
5835.333750339580547
 21
407.7363154471448752
 31
0.0
  0
LINE
  5
2DEBD
  8
0
 10
5835.336399109980448
 20
407.6770004865450119
 30
0.0
 11
5835.336399109980448
 21
407.7363154471448752
 31
0.0
  0
LINE
  5
2DEBE
  8
0
 10
5835.3429549810789467
 20
407.6770004865450119
 30
0.0
 11
5835.3429549810789467
 21
407.7363154471448752
 31
0.0
  0
LINE
  5
2DEBF
  8
0
 10
5835.3645998827796575
 20
407.6770004865450119
 30
0.0
 11
5835.3645998827796575
 21
407.7363154471448752
 31
0.0
  0
LINE
  5
2DEC0
  8
0
 10
5835.3666043033799724
 20
407.6770004865450119
 30
0.0
 11
5835.3666043033799724
 21
407.7363154471448752
 31
0.0
  0
LINE
  5
2DEC1
  8
0
 10
5835.3740735020801367
 20
407.6770004865450119
 30
0.0
 11
5835.3740735020801367
 21
407.7363154471448752
 31
0.0
  0
LINE
  5
2DEC2
  8
0
 10
5835.3962582505801038
 20
407.6770004865450119
 30
0.0
 11
5835.3962582505801038
 21
407.7363154471448752
 31
0.0
  0
LINE
  5
2DEC3
  8
0
 10
5835.3976030665799044
 20
407.6770004865450119
 30
0.0
 11
5835.3976030665799044
 21
407.7363154471448752
 31
0.0
  0
LINE
  5
2DEC4
  8
0
 10
5835.4059287477803082
 20
407.6770004865450119
 30
0.0
 11
5835.4059287477803082
 21
407.7363154471448752
 31
0.0
  0
LINE
  5
2DEC5
  8
0
 10
5835.4284845037800551
 20
407.6770004865450119
 30
0.0
 11
5835.4284845037800551
 21
407.7363154471448752
 31
0.0
  0
LINE
  5
2DEC6
  8
0
 10
5835.42915948027985
 20
407.6770004865450119
 30
0.0
 11
5835.42915948027985
 21
407.7363154471448752
 31
0.0
  0
LINE
  5
2DEC7
  8
0
 10
5835.4382782804814269
 20
407.6770004865450119
 30
0.0
 11
5835.4382782804814269
 21
407.7363154471448752
 31
0.0
  0
LINE
  5
2DEC8
  8
0
 10
5835.4610333811797318
 20
407.6770004865450119
 30
0.0
 11
5835.4610333811797318
 21
407.7363154471448752
 31
0.0
  0
LINE
  5
2DEC9
  8
0
 10
5835.4936571659791298
 20
407.7363154471448752
 30
0.0
 11
5835.4936571659791298
 21
407.6770004865450119
 31
0.0
  0
LINE
  5
2DECA
  8
0
 10
5835.5027872554801434
 20
407.7363154471448752
 30
0.0
 11
5835.5027872554801434
 21
407.6770004865450119
 31
0.0
  0
LINE
  5
2DECB
  8
0
 10
5835.5034735211802399
 20
407.7363154471448752
 30
0.0
 11
5835.5034735211802399
 21
407.6770004865450119
 31
0.0
  0
LINE
  5
2DECC
  8
0
 10
5835.5261075716798587
 20
407.7363154471448752
 30
0.0
 11
5835.5261075716798587
 21
407.6770004865450119
 31
0.0
  0
LINE
  5
2DECD
  8
0
 10
5835.5344557453800007
 20
407.7363154471448752
 30
0.0
 11
5835.5344557453800007
 21
407.6770004865450119
 31
0.0
  0
LINE
  5
2DECE
  8
0
 10
5835.5358230538813586
 20
407.7363154471448752
 30
0.0
 11
5835.5358230538813586
 21
407.6770004865450119
 31
0.0
  0
LINE
  5
2DECF
  8
0
 10
5835.5581376309801271
 20
407.7363154471448752
 30
0.0
 11
5835.5581376309801271
 21
407.6770004865450119
 31
0.0
  0
LINE
  5
2DED0
  8
0
 10
5835.565640354379866
 20
407.7363154471448752
 30
0.0
 11
5835.565640354379866
 21
407.6770004865450119
 31
0.0
  0
LINE
  5
2DED1
  8
0
 10
5835.5676782995797112
 20
407.7363154471448752
 30
0.0
 11
5835.5676782995797112
 21
407.6770004865450119
 31
0.0
  0
LINE
  5
2DED2
  8
0
 10
5835.589503575881281
 20
407.7363154471448752
 30
0.0
 11
5835.589503575881281
 21
407.6770004865450119
 31
0.0
  0
LINE
  5
2DED3
  8
0
 10
5835.5961037485812994
 20
407.7363154471448752
 30
0.0
 11
5835.5961037485812994
 21
407.6770004865450119
 31
0.0
  0
LINE
  5
2DED4
  8
0
 10
5835.5987968205799916
 20
407.7363154471448752
 30
0.0
 11
5835.5987968205799916
 21
407.6770004865450119
 31
0.0
  0
LINE
  5
2DED5
  8
0
 10
5835.6199666924803751
 20
407.7363154471448752
 30
0.0
 11
5835.6199666924803751
 21
407.6770004865450119
 31
0.0
  0
LINE
  5
2DED6
  8
0
 10
5835.6256140832801975
 20
407.7363154471448752
 30
0.0
 11
5835.6256140832801975
 21
407.6770004865450119
 31
0.0
  0
LINE
  5
2DED7
  8
0
 10
5835.6289417861798938
 20
407.7363154471448752
 30
0.0
 11
5835.6289417861798938
 21
407.6770004865450119
 31
0.0
  0
LINE
  5
2DED8
  8
0
 10
5835.6492951381787861
 20
407.7363154471448752
 30
0.0
 11
5835.6492951381787861
 21
407.6770004865450119
 31
0.0
  0
LINE
  5
2DED9
  8
0
 10
5835.6539467669799706
 20
407.7363154471448752
 30
0.0
 11
5835.6539467669799706
 21
407.6770004865450119
 31
0.0
  0
LINE
  5
2DEDA
  8
0
 10
5835.6578837748811566
 20
407.7363154471448752
 30
0.0
 11
5835.6578837748811566
 21
407.6770004865450119
 31
0.0
  0
LINE
  5
2DEDB
  8
0
 10
5835.6772657056799289
 20
407.7363154471448752
 30
0.0
 11
5835.6772657056799289
 21
407.6770004865450119
 31
0.0
  0
LINE
  5
2DEDC
  8
0
 10
5835.680886170879603
 20
407.7363154471448752
 30
0.0
 11
5835.680886170879603
 21
407.6770004865450119
 31
0.0
  0
LINE
  5
2DEDD
  8
0
 10
5835.6854025206812366
 20
407.7363154471448752
 30
0.0
 11
5835.6854025206812366
 21
407.6770004865450119
 31
0.0
  0
LINE
  5
2DEDE
  8
0
 10
5835.7036655221809269
 20
407.7363154471448752
 30
0.0
 11
5835.7036655221809269
 21
407.6770004865450119
 31
0.0
  0
LINE
  5
2DEDF
  8
0
 10
5835.7062272697803564
 20
407.7363154471448752
 30
0.0
 11
5835.7062272697803564
 21
407.6770004865450119
 31
0.0
  0
LINE
  5
2DEE0
  8
0
 10
5835.711288589481228
 20
407.7363154471448752
 30
0.0
 11
5835.711288589481228
 21
407.6770004865450119
 31
0.0
  0
LINE
  5
2DEE1
  8
0
 10
5835.7282936690799033
 20
407.7363154471448752
 30
0.0
 11
5835.7282936690799033
 21
407.6770004865450119
 31
0.0
  0
LINE
  5
2DEE2
  8
0
 10
5835.7297772025804079
 20
407.7363154471448752
 30
0.0
 11
5835.7297772025804079
 21
407.6770004865450119
 31
0.0
  0
LINE
  5
2DEE3
  8
0
 10
5835.7353449725787868
 20
407.7363154471448752
 30
0.0
 11
5835.7353449725787868
 21
407.6770004865450119
 31
0.0
  0
LINE
  5
2DEE4
  8
0
 10
5835.7509627113804527
 20
407.7363154471448752
 30
0.0
 11
5835.7509627113804527
 21
407.6770004865450119
 31
0.0
  0
LINE
  5
2DEE5
  8
0
 10
5835.7513567402811532
 20
407.7363154471448752
 30
0.0
 11
5835.7513567402811532
 21
407.6770004865450119
 31
0.0
  0
LINE
  5
2DEE6
  8
0
 10
5835.7573885862802854
 20
407.7363154471448752
 30
0.0
 11
5835.7573885862802854
 21
407.6770004865450119
 31
0.0
  0
LINE
  5
2DEE7
  8
0
 10
5835.771500123880287
 20
407.7363154471448752
 30
0.0
 11
5835.771500123880287
 21
407.6770004865450119
 31
0.0
  0
LINE
  5
2DEE8
  8
0
 10
5835.7772516654804349
 20
407.7363154471448752
 30
0.0
 11
5835.7772516654804349
 21
407.6770004865450119
 31
0.0
  0
LINE
  5
2DEE9
  8
0
 10
5835.7897496045798107
 20
407.7363154471448752
 30
0.0
 11
5835.7897496045798107
 21
407.6770004865450119
 31
0.0
  0
LINE
  5
2DEEA
  8
0
 10
5835.7947830400798921
 20
407.7363154471448752
 30
0.0
 11
5835.7947830400798921
 21
407.6770004865450119
 31
0.0
  0
LINE
  5
2DEEB
  8
0
 10
5835.80557226378005
 20
407.7363154471448752
 30
0.0
 11
5835.80557226378005
 21
407.6770004865450119
 31
0.0
  0
LINE
  5
2DEEC
  8
0
 10
5835.8098492857798192
 20
407.7363154471448752
 30
0.0
 11
5835.8098492857798192
 21
407.6770004865450119
 31
0.0
  0
LINE
  5
2DEED
  8
0
 10
5835.8188476815803369
 20
407.7363154471448752
 30
0.0
 11
5835.8188476815803369
 21
407.6770004865450119
 31
0.0
  0
LINE
  5
2DEEE
  8
0
 10
5835.8223357392798789
 20
407.7363154471448752
 30
0.0
 11
5835.8223357392798789
 21
407.6770004865450119
 31
0.0
  0
LINE
  5
2DEEF
  8
0
 10
5835.8294748240796253
 20
407.7363154471448752
 30
0.0
 11
5835.8294748240796253
 21
407.6770004865450119
 31
0.0
  0
LINE
  5
2DEF0
  8
0
 10
5835.8321473712812804
 20
407.7363154471448752
 30
0.0
 11
5835.8321473712812804
 21
407.6770004865450119
 31
0.0
  0
LINE
  5
2DEF1
  8
0
 10
5835.8373728121796375
 20
407.7363154471448752
 30
0.0
 11
5835.8373728121796375
 21
407.6770004865450119
 31
0.0
  0
LINE
  5
2DEF2
  8
0
 10
5835.8392095092813179
 20
407.7363154471448752
 30
0.0
 11
5835.8392095092813179
 21
407.6770004865450119
 31
0.0
  0
LINE
  5
2DEF3
  8
0
 10
5835.84248153758017
 20
407.7363154471448752
 30
0.0
 11
5835.84248153758017
 21
407.6770004865450119
 31
0.0
  0
LINE
  5
2DEF4
  8
0
 10
5835.8434684059802748
 20
407.7363154471448752
 30
0.0
 11
5835.8434684059802748
 21
407.6770004865450119
 31
0.0
  0
LINE
  5
2DEF5
  8
0
 10
5835.8447621195800821
 20
407.7363154471448752
 30
0.0
 11
5835.8447621195800821
 21
407.6770004865450119
 31
0.0
  0
LINE
  5
2DEF6
  8
0
 10
5835.8448916488796385
 20
407.7363154471448752
 30
0.0
 11
5835.8448916488796385
 21
407.6770004865450119
 31
0.0
  0
LINE
  5
2DEF7
  8
0
 10
5835.1165451921797285
 20
407.6770004865450119
 30
0.0
 11
5835.1165451921797285
 21
407.6573154471449243
 31
0.0
  0
LINE
  5
2DEF8
  8
0
 10
5835.8479878746802569
 20
407.7363154471448752
 30
0.0
 11
5835.8479878746802569
 21
407.6770004865450119
 31
0.0
  0
LINE
  5
2DEF9
  8
0
 10
5835.8571179641812705
 20
407.7363154471448752
 30
0.0
 11
5835.8571179641812705
 21
407.6770004865450119
 31
0.0
  0
LINE
  5
2DEFA
  8
0
 10
5835.8578042298795481
 20
407.7363154471448752
 30
0.0
 11
5835.8578042298795481
 21
407.6770004865450119
 31
0.0
  0
LINE
  5
2DEFB
  8
0
 10
5835.8804382803800763
 20
407.7363154471448752
 30
0.0
 11
5835.8804382803800763
 21
407.6770004865450119
 31
0.0
  0
LINE
  5
2DEFC
  8
0
 10
5835.8887864540811279
 20
407.7363154471448752
 30
0.0
 11
5835.8887864540811279
 21
407.6770004865450119
 31
0.0
  0
LINE
  5
2DEFD
  8
0
 10
5835.8901537625797573
 20
407.7363154471448752
 30
0.0
 11
5835.8901537625797573
 21
407.6770004865450119
 31
0.0
  0
LINE
  5
2DEFE
  8
0
 10
5835.9124683396812543
 20
407.7363154471448752
 30
0.0
 11
5835.9124683396812543
 21
407.6770004865450119
 31
0.0
  0
LINE
  5
2DEFF
  8
0
 10
5835.9199710630809932
 20
407.7363154471448752
 30
0.0
 11
5835.9199710630809932
 21
407.6770004865450119
 31
0.0
  0
LINE
  5
2DF00
  8
0
 10
5835.9220090082799288
 20
407.7363154471448752
 30
0.0
 11
5835.9220090082799288
 21
407.6770004865450119
 31
0.0
  0
LINE
  5
2DF01
  8
0
 10
5835.9438342845796797
 20
407.7363154471448752
 30
0.0
 11
5835.9438342845796797
 21
407.6770004865450119
 31
0.0
  0
LINE
  5
2DF02
  8
0
 10
5835.9504344572796981
 20
407.7363154471448752
 30
0.0
 11
5835.9504344572796981
 21
407.6770004865450119
 31
0.0
  0
LINE
  5
2DF03
  8
0
 10
5835.9531275292802093
 20
407.7363154471448752
 30
0.0
 11
5835.9531275292802093
 21
407.6770004865450119
 31
0.0
  0
LINE
  5
2DF04
  8
0
 10
5835.9742974011787737
 20
407.7363154471448752
 30
0.0
 11
5835.9742974011787737
 21
407.6770004865450119
 31
0.0
  0
LINE
  5
2DF05
  8
0
 10
5835.9799447919804152
 20
407.7363154471448752
 30
0.0
 11
5835.9799447919804152
 21
407.6770004865450119
 31
0.0
  0
LINE
  5
2DF06
  8
0
 10
5835.9832724948801115
 20
407.7363154471448752
 30
0.0
 11
5835.9832724948801115
 21
407.6770004865450119
 31
0.0
  0
LINE
  5
2DF07
  8
0
 10
5836.0036258468799133
 20
407.7363154471448752
 30
0.0
 11
5836.0036258468799133
 21
407.6770004865450119
 31
0.0
  0
LINE
  5
2DF08
  8
0
 10
5836.0082774756810977
 20
407.7363154471448752
 30
0.0
 11
5836.0082774756810977
 21
407.6770004865450119
 31
0.0
  0
LINE
  5
2DF09
  8
0
 10
5836.0122144835813742
 20
407.7363154471448752
 30
0.0
 11
5836.0122144835813742
 21
407.6770004865450119
 31
0.0
  0
LINE
  5
2DF0A
  8
0
 10
5836.0315964143801466
 20
407.7363154471448752
 30
0.0
 11
5836.0315964143801466
 21
407.6770004865450119
 31
0.0
  0
LINE
  5
2DF0B
  8
0
 10
5836.0352168795789112
 20
407.7363154471448752
 30
0.0
 11
5836.0352168795789112
 21
407.6770004865450119
 31
0.0
  0
LINE
  5
2DF0C
  8
0
 10
5836.0397332294796797
 20
407.7363154471448752
 30
0.0
 11
5836.0397332294796797
 21
407.6770004865450119
 31
0.0
  0
LINE
  5
2DF0D
  8
0
 10
5836.0579962308811446
 20
407.7363154471448752
 30
0.0
 11
5836.0579962308811446
 21
407.6770004865450119
 31
0.0
  0
LINE
  5
2DF0E
  8
0
 10
5836.0605579784805741
 20
407.7363154471448752
 30
0.0
 11
5836.0605579784805741
 21
407.6770004865450119
 31
0.0
  0
LINE
  5
2DF0F
  8
0
 10
5836.0656192981814456
 20
407.7363154471448752
 30
0.0
 11
5836.0656192981814456
 21
407.6770004865450119
 31
0.0
  0
LINE
  5
2DF10
  8
0
 10
5836.082624377780121
 20
407.7363154471448752
 30
0.0
 11
5836.082624377780121
 21
407.6770004865450119
 31
0.0
  0
LINE
  5
2DF11
  8
0
 10
5836.0841079112788066
 20
407.7363154471448752
 30
0.0
 11
5836.0841079112788066
 21
407.6770004865450119
 31
0.0
  0
LINE
  5
2DF12
  8
0
 10
5836.089675681279914
 20
407.7363154471448752
 30
0.0
 11
5836.089675681279914
 21
407.6770004865450119
 31
0.0
  0
LINE
  5
2DF13
  8
0
 10
5836.1052934200797608
 20
407.7363154471448752
 30
0.0
 11
5836.1052934200797608
 21
407.6770004865450119
 31
0.0
  0
LINE
  5
2DF14
  8
0
 10
5836.1056874489813708
 20
407.7363154471448752
 30
0.0
 11
5836.1056874489813708
 21
407.6770004865450119
 31
0.0
  0
LINE
  5
2DF15
  8
0
 10
5836.1117192949795935
 20
407.7363154471448752
 30
0.0
 11
5836.1117192949795935
 21
407.6770004865450119
 31
0.0
  0
LINE
  5
2DF16
  8
0
 10
5836.1258308325814141
 20
407.7363154471448752
 30
0.0
 11
5836.1258308325814141
 21
407.6770004865450119
 31
0.0
  0
LINE
  5
2DF17
  8
0
 10
5836.1315823741788336
 20
407.7363154471448752
 30
0.0
 11
5836.1315823741788336
 21
407.6770004865450119
 31
0.0
  0
LINE
  5
2DF18
  8
0
 10
5836.1440803132800283
 20
407.7363154471448752
 30
0.0
 11
5836.1440803132800283
 21
407.6770004865450119
 31
0.0
  0
LINE
  5
2DF19
  8
0
 10
5836.1491137487801097
 20
407.7363154471448752
 30
0.0
 11
5836.1491137487801097
 21
407.6770004865450119
 31
0.0
  0
LINE
  5
2DF1A
  8
0
 10
5836.1599029724802676
 20
407.7363154471448752
 30
0.0
 11
5836.1599029724802676
 21
407.6770004865450119
 31
0.0
  0
LINE
  5
2DF1B
  8
0
 10
5836.1641799944791273
 20
407.7363154471448752
 30
0.0
 11
5836.1641799944791273
 21
407.6770004865450119
 31
0.0
  0
LINE
  5
2DF1C
  8
0
 10
5836.1731783902796451
 20
407.7363154471448752
 30
0.0
 11
5836.1731783902796451
 21
407.6770004865450119
 31
0.0
  0
LINE
  5
2DF1D
  8
0
 10
5836.1766664479800966
 20
407.7363154471448752
 30
0.0
 11
5836.1766664479800966
 21
407.6770004865450119
 31
0.0
  0
LINE
  5
2DF1E
  8
0
 10
5836.1838055327798429
 20
407.7363154471448752
 30
0.0
 11
5836.1838055327798429
 21
407.6770004865450119
 31
0.0
  0
LINE
  5
2DF1F
  8
0
 10
5836.186478079979679
 20
407.7363154471448752
 30
0.0
 11
5836.186478079979679
 21
407.6770004865450119
 31
0.0
  0
LINE
  5
2DF20
  8
0
 10
5836.1917035208798552
 20
407.7363154471448752
 30
0.0
 11
5836.1917035208798552
 21
407.6770004865450119
 31
0.0
  0
LINE
  5
2DF21
  8
0
 10
5836.1935402179797165
 20
407.7363154471448752
 30
0.0
 11
5836.1935402179797165
 21
407.6770004865450119
 31
0.0
  0
LINE
  5
2DF22
  8
0
 10
5836.1968122462812971
 20
407.7363154471448752
 30
0.0
 11
5836.1968122462812971
 21
407.6770004865450119
 31
0.0
  0
LINE
  5
2DF23
  8
0
 10
5836.197799114681402
 20
407.7363154471448752
 30
0.0
 11
5836.197799114681402
 21
407.6770004865450119
 31
0.0
  0
LINE
  5
2DF24
  8
0
 10
5836.1990928282802997
 20
407.7363154471448752
 30
0.0
 11
5836.1990928282802997
 21
407.6770004865450119
 31
0.0
  0
LINE
  5
2DF25
  8
0
 10
5836.1992223575798562
 20
407.7363154471448752
 30
0.0
 11
5836.1992223575798562
 21
407.6770004865450119
 31
0.0
  0
LINE
  5
2DF26
  8
0
 10
5836.179537318180337
 20
407.6770004865450119
 30
0.0
 11
5836.179537318180337
 21
407.6573154471449243
 31
0.0
  0
LINE
  5
2DF27
  8
0
 10
5870.7661514913797873
 20
407.6573154471449243
 30
0.0
 11
5870.0574900740803059
 21
407.6573154471449243
 31
0.0
  0
LINE
  5
2DF28
  8
0
 10
5870.785836530780216
 20
407.6770004865450119
 30
0.0
 11
5870.0378050346798773
 21
407.6770004865450119
 31
0.0
  0
LINE
  5
2DF29
  8
0
 10
5870.0378050346798773
 20
407.7756855259448798
 30
0.0
 11
5870.0378050346798773
 21
407.6770004865450119
 31
0.0
  0
LINE
  5
2DF2A
  8
0
 10
5870.0384994817795814
 20
407.7756855259448798
 30
0.0
 11
5870.0384994817786719
 21
407.6770004865450119
 31
0.0
  0
LINE
  5
2DF2B
  8
0
 10
5870.0392282775801505
 20
407.7756855259448798
 30
0.0
 11
5870.0392282775801505
 21
407.6770004865450119
 31
0.0
  0
LINE
  5
2DF2C
  8
0
 10
5870.0419056001810532
 20
407.7756855259448798
 30
0.0
 11
5870.0419056001810532
 21
407.6770004865450119
 31
0.0
  0
LINE
  5
2DF2D
  8
0
 10
5870.0434871742800169
 20
407.7756855259448798
 30
0.0
 11
5870.0434871742800169
 21
407.6770004865450119
 31
0.0
  0
LINE
  5
2DF2E
  8
0
 10
5870.0481269963802333
 20
407.7756855259448798
 30
0.0
 11
5870.0481269963802333
 21
407.6770004865450119
 31
0.0
  0
LINE
  5
2DF2F
  8
0
 10
5870.0505493122800544
 20
407.7756855259448798
 30
0.0
 11
5870.0505493122800544
 21
407.6770004865450119
 31
0.0
  0
LINE
  5
2DF30
  8
0
 10
5870.0571163219801747
 20
407.7756855259448798
 30
0.0
 11
5870.0571163219801747
 21
407.6770004865450119
 31
0.0
  0
LINE
  5
2DF31
  8
0
 10
5870.0603609442805464
 20
407.7756855259448798
 30
0.0
 11
5870.0603609442787274
 21
407.6770004865450119
 31
0.0
  0
LINE
  5
2DF32
  8
0
 10
5870.0688051626812012
 20
407.7756855259448798
 30
0.0
 11
5870.0688051626812012
 21
407.6770004865450119
 31
0.0
  0
LINE
  5
2DF33
  8
0
 10
5870.0728473977787871
 20
407.7756855259448798
 30
0.0
 11
5870.0728473977787871
 21
407.6770004865450119
 31
0.0
  0
LINE
  5
2DF34
  8
0
 10
5870.0831045592813098
 20
407.7756855259448798
 30
0.0
 11
5870.0831045592813098
 21
407.6770004865450119
 31
0.0
  0
LINE
  5
2DF35
  8
0
 10
5870.0879136434796237
 20
407.7756855259448798
 30
0.0
 11
5870.0879136434796237
 21
407.6770004865450119
 31
0.0
  0
LINE
  5
2DF36
  8
0
 10
5870.099905684881378
 20
407.7756855259448798
 30
0.0
 11
5870.099905684881378
 21
407.6770004865450119
 31
0.0
  0
LINE
  5
2DF37
  8
0
 10
5870.1054450180790809
 20
407.7756855259448798
 30
0.0
 11
5870.1054450180790809
 21
407.6770004865450119
 31
0.0
  0
LINE
  5
2DF38
  8
0
 10
5870.1190806727800009
 20
407.7756855259448798
 30
0.0
 11
5870.1190806727800009
 21
407.6770004865450119
 31
0.0
  0
LINE
  5
2DF39
  8
0
 10
5870.1250132935811052
 20
407.7756855259448798
 30
0.0
 11
5870.1250132935811052
 21
407.6770004865450119
 31
0.0
  0
LINE
  5
2DF3A
  8
0
 10
5870.1253080972801399
 20
407.7756855259448798
 30
0.0
 11
5870.1253080972801399
 21
407.6770004865450119
 31
0.0
  0
LINE
  5
2DF3B
  8
0
 10
5870.140483589680116
 20
407.7756855259448798
 30
0.0
 11
5870.140483589680116
 21
407.6770004865450119
 31
0.0
  0
LINE
  5
2DF3C
  8
0
 10
5870.1459597685798144
 20
407.7756855259448798
 30
0.0
 11
5870.1459597685798144
 21
407.6770004865450119
 31
0.0
  0
LINE
  5
2DF3D
  8
0
 10
5870.14735171097891
 20
407.7756855259448798
 30
0.0
 11
5870.14735171097891
 21
407.6770004865450119
 31
0.0
  0
LINE
  5
2DF3E
  8
0
 10
5870.1639515463812131
 20
407.7756855259448798
 30
0.0
 11
5870.1639515463812131
 21
407.6770004865450119
 31
0.0
  0
LINE
  5
2DF3F
  8
0
 10
5870.168929606279562
 20
407.7756855259448798
 30
0.0
 11
5870.168929606279562
 21
407.6770004865450119
 31
0.0
  0
LINE
  5
2DF40
  8
0
 10
5870.1714080940801068
 20
407.7756855259448798
 30
0.0
 11
5870.1714080940801068
 21
407.6770004865450119
 31
0.0
  0
LINE
  5
2DF41
  8
0
 10
5870.1893059376798192
 20
407.7756855259448798
 30
0.0
 11
5870.1893059376798192
 21
407.6770004865450119
 31
0.0
  0
LINE
  5
2DF42
  8
0
 10
5870.1937479925800289
 20
407.7756855259448798
 30
0.0
 11
5870.1937479925800289
 21
407.6770004865450119
 31
0.0
  0
LINE
  5
2DF43
  8
0
 10
5870.1972941627800537
 20
407.7756855259448798
 30
0.0
 11
5870.1972941627800537
 21
407.6770004865450119
 31
0.0
  0
LINE
  5
2DF44
  8
0
 10
5870.2163538012800927
 20
407.7756855259448798
 30
0.0
 11
5870.2163538012800927
 21
407.6770004865450119
 31
0.0
  0
LINE
  5
2DF45
  8
0
 10
5870.2202260444801141
 20
407.7756855259448798
 30
0.0
 11
5870.2202260444801141
 21
407.6770004865450119
 31
0.0
  0
LINE
  5
2DF46
  8
0
 10
5870.2248129086810877
 20
407.7756855259448798
 30
0.0
 11
5870.2248129086810877
 21
407.6770004865450119
 31
0.0
  0
LINE
  5
2DF47
  8
0
 10
5870.2448892865795642
 20
407.7756855259448798
 30
0.0
 11
5870.2448892865795642
 21
407.6770004865450119
 31
0.0
  0
LINE
  5
2DF48
  8
0
 10
5870.248162248080007
 20
407.7756855259448798
 30
0.0
 11
5870.248162248080007
 21
407.6770004865450119
 31
0.0
  0
LINE
  5
2DF49
  8
0
 10
5870.253754897379622
 20
407.7756855259448798
 30
0.0
 11
5870.253754897379622
 21
407.6770004865450119
 31
0.0
  0
LINE
  5
2DF4A
  8
0
 10
5870.274695221480215
 20
407.7756855259448798
 30
0.0
 11
5870.274695221480215
 21
407.6770004865450119
 31
0.0
  0
LINE
  5
2DF4B
  8
0
 10
5870.2773439918801159
 20
407.7756855259448798
 30
0.0
 11
5870.2773439918801159
 21
407.6770004865450119
 31
0.0
  0
LINE
  5
2DF4C
  8
0
 10
5870.2838998629813432
 20
407.7756855259448798
 30
0.0
 11
5870.2838998629813432
 21
407.6770004865450119
 31
0.0
  0
LINE
  5
2DF4D
  8
0
 10
5870.3055447646802349
 20
407.7756855259448798
 30
0.0
 11
5870.3055447646802349
 21
407.6770004865450119
 31
0.0
  0
LINE
  5
2DF4E
  8
0
 10
5870.3075491852796404
 20
407.7756855259448798
 30
0.0
 11
5870.3075491852796404
 21
407.6770004865450119
 31
0.0
  0
LINE
  5
2DF4F
  8
0
 10
5870.3150183839798046
 20
407.7756855259448798
 30
0.0
 11
5870.3150183839798046
 21
407.6770004865450119
 31
0.0
  0
LINE
  5
2DF50
  8
0
 10
5870.3372031324788622
 20
407.7756855259448798
 30
0.0
 11
5870.3372031324788622
 21
407.6770004865450119
 31
0.0
  0
LINE
  5
2DF51
  8
0
 10
5870.3385479484813914
 20
407.7756855259448798
 30
0.0
 11
5870.3385479484813914
 21
407.6770004865450119
 31
0.0
  0
LINE
  5
2DF52
  8
0
 10
5870.3468736296799761
 20
407.7756855259448798
 30
0.0
 11
5870.3468736296799761
 21
407.6770004865450119
 31
0.0
  0
LINE
  5
2DF53
  8
0
 10
5870.3694293856797231
 20
407.7756855259448798
 30
0.0
 11
5870.3694293856797231
 21
407.6770004865450119
 31
0.0
  0
LINE
  5
2DF54
  8
0
 10
5870.3701043621804274
 20
407.7756855259448798
 30
0.0
 11
5870.3701043621804274
 21
407.6770004865450119
 31
0.0
  0
LINE
  5
2DF55
  8
0
 10
5870.3792231623801854
 20
407.7756855259448798
 30
0.0
 11
5870.3792231623801854
 21
407.6770004865450119
 31
0.0
  0
LINE
  5
2DF56
  8
0
 10
5870.4019782630803093
 20
407.7756855259448798
 30
0.0
 11
5870.4019782630803093
 21
407.6770004865450119
 31
0.0
  0
LINE
  5
2DF57
  8
0
 10
5870.4346020478787977
 20
407.7756855259448798
 30
0.0
 11
5870.4346020478787977
 21
407.6770004865450119
 31
0.0
  0
LINE
  5
2DF58
  8
0
 10
5870.4437321373798113
 20
407.7756855259448798
 30
0.0
 11
5870.4437321373798113
 21
407.6770004865450119
 31
0.0
  0
LINE
  5
2DF59
  8
0
 10
5870.4444184030799079
 20
407.7756855259448798
 30
0.0
 11
5870.4444184030799079
 21
407.6770004865450119
 31
0.0
  0
LINE
  5
2DF5A
  8
0
 10
5870.4670524535804361
 20
407.7756855259448798
 30
0.0
 11
5870.4670524535804361
 21
407.6770004865450119
 31
0.0
  0
LINE
  5
2DF5B
  8
0
 10
5870.4754006272805782
 20
407.7756855259448798
 30
0.0
 11
5870.4754006272796687
 21
407.6770004865450119
 31
0.0
  0
LINE
  5
2DF5C
  8
0
 10
5870.4767679357801171
 20
407.7756855259448798
 30
0.0
 11
5870.4767679357801171
 21
407.6770004865450119
 31
0.0
  0
LINE
  5
2DF5D
  8
0
 10
5870.4990825128788856
 20
407.7756855259448798
 30
0.0
 11
5870.4990825128788856
 21
407.6770004865450119
 31
0.0
  0
LINE
  5
2DF5E
  8
0
 10
5870.506585236281353
 20
407.7756855259448798
 30
0.0
 11
5870.506585236281353
 21
407.6770004865450119
 31
0.0
  0
LINE
  5
2DF5F
  8
0
 10
5870.5086231814802886
 20
407.7756855259448798
 30
0.0
 11
5870.5086231814802886
 21
407.6770004865450119
 31
0.0
  0
LINE
  5
2DF60
  8
0
 10
5870.5304484577800395
 20
407.7756855259448798
 30
0.0
 11
5870.5304484577800395
 21
407.6770004865450119
 31
0.0
  0
LINE
  5
2DF61
  8
0
 10
5870.5370486304800579
 20
407.7756855259448798
 30
0.0
 11
5870.5370486304800579
 21
407.6770004865450119
 31
0.0
  0
LINE
  5
2DF62
  8
0
 10
5870.5397417024796596
 20
407.7756855259448798
 30
0.0
 11
5870.5397417024787501
 21
407.6770004865450119
 31
0.0
  0
LINE
  5
2DF63
  8
0
 10
5870.560911574380043
 20
407.7756855259448798
 30
0.0
 11
5870.560911574380043
 21
407.6770004865450119
 31
0.0
  0
LINE
  5
2DF64
  8
0
 10
5870.5665589651798655
 20
407.7756855259448798
 30
0.0
 11
5870.5665589651798655
 21
407.6770004865450119
 31
0.0
  0
LINE
  5
2DF65
  8
0
 10
5870.5698866679804269
 20
407.7756855259448798
 30
0.0
 11
5870.5698866679804269
 21
407.6770004865450119
 31
0.0
  0
LINE
  5
2DF66
  8
0
 10
5870.5902400199802287
 20
407.7756855259448798
 30
0.0
 11
5870.5902400199802287
 21
407.6770004865450119
 31
0.0
  0
LINE
  5
2DF67
  8
0
 10
5870.594891648880548
 20
407.7756855259448798
 30
0.0
 11
5870.5948916488796385
 21
407.6770004865450119
 31
0.0
  0
LINE
  5
2DF68
  8
0
 10
5870.598828656779915
 20
407.7756855259448798
 30
0.0
 11
5870.598828656779915
 21
407.6770004865450119
 31
0.0
  0
LINE
  5
2DF69
  8
0
 10
5870.6182105875795969
 20
407.7756855259448798
 30
0.0
 11
5870.6182105875786874
 21
407.6770004865450119
 31
0.0
  0
LINE
  5
2DF6A
  8
0
 10
5870.6218310526801361
 20
407.7756855259448798
 30
0.0
 11
5870.6218310526801361
 21
407.6770004865450119
 31
0.0
  0
LINE
  5
2DF6B
  8
0
 10
5870.6263474025809046
 20
407.7756855259448798
 30
0.0
 11
5870.6263474025809046
 21
407.6770004865450119
 31
0.0
  0
LINE
  5
2DF6C
  8
0
 10
5870.6446104040805949
 20
407.7756855259448798
 30
0.0
 11
5870.6446104040796854
 21
407.6770004865450119
 31
0.0
  0
LINE
  5
2DF6D
  8
0
 10
5870.64717215157998
 20
407.7756855259448798
 30
0.0
 11
5870.64717215157998
 21
407.6770004865450119
 31
0.0
  0
LINE
  5
2DF6E
  8
0
 10
5870.6522334713799864
 20
407.7756855259448798
 30
0.0
 11
5870.6522334713799864
 21
407.6770004865450119
 31
0.0
  0
LINE
  5
2DF6F
  8
0
 10
5870.6692385509813903
 20
407.7756855259448798
 30
0.0
 11
5870.6692385509813903
 21
407.6770004865450119
 31
0.0
  0
LINE
  5
2DF70
  8
0
 10
5870.6707220844800759
 20
407.7756855259448798
 30
0.0
 11
5870.6707220844800759
 21
407.6770004865450119
 31
0.0
  0
LINE
  5
2DF71
  8
0
 10
5870.6762898543802294
 20
407.7756855259448798
 30
0.0
 11
5870.6762898543802294
 21
407.6770004865450119
 31
0.0
  0
LINE
  5
2DF72
  8
0
 10
5870.6919075932801206
 20
407.7756855259448798
 30
0.0
 11
5870.6919075932801206
 21
407.6770004865450119
 31
0.0
  0
LINE
  5
2DF73
  8
0
 10
5870.6923016221799116
 20
407.7756855259448798
 30
0.0
 11
5870.6923016221799116
 21
407.6770004865450119
 31
0.0
  0
LINE
  5
2DF74
  8
0
 10
5870.6983334681799533
 20
407.7756855259448798
 30
0.0
 11
5870.6983334681799533
 21
407.6770004865450119
 31
0.0
  0
LINE
  5
2DF75
  8
0
 10
5870.7124450057790455
 20
407.7756855259448798
 30
0.0
 11
5870.7124450057790455
 21
407.6770004865450119
 31
0.0
  0
LINE
  5
2DF76
  8
0
 10
5870.7181965472791489
 20
407.7756855259448798
 30
0.0
 11
5870.7181965472791489
 21
407.6770004865450119
 31
0.0
  0
LINE
  5
2DF77
  8
0
 10
5870.7306944864803882
 20
407.7756855259448798
 30
0.0
 11
5870.7306944864803882
 21
407.6770004865450119
 31
0.0
  0
LINE
  5
2DF78
  8
0
 10
5870.735727921981379
 20
407.7756855259448798
 30
0.0
 11
5870.735727921981379
 21
407.6770004865450119
 31
0.0
  0
LINE
  5
2DF79
  8
0
 10
5870.7465171456806274
 20
407.7756855259448798
 30
0.0
 11
5870.7465171456788084
 21
407.6770004865450119
 31
0.0
  0
LINE
  5
2DF7A
  8
0
 10
5870.7507941676803966
 20
407.7756855259448798
 30
0.0
 11
5870.7507941676803966
 21
407.6770004865450119
 31
0.0
  0
LINE
  5
2DF7B
  8
0
 10
5870.7597925634800049
 20
407.7756855259448798
 30
0.0
 11
5870.7597925634800049
 21
407.6770004865450119
 31
0.0
  0
LINE
  5
2DF7C
  8
0
 10
5870.7632806211795469
 20
407.7756855259448798
 30
0.0
 11
5870.7632806211795469
 21
407.6770004865450119
 31
0.0
  0
LINE
  5
2DF7D
  8
0
 10
5870.7704197059802027
 20
407.7756855259448798
 30
0.0
 11
5870.7704197059802027
 21
407.6770004865450119
 31
0.0
  0
LINE
  5
2DF7E
  8
0
 10
5870.7730922531800388
 20
407.7756855259448798
 30
0.0
 11
5870.7730922531800388
 21
407.6770004865450119
 31
0.0
  0
LINE
  5
2DF7F
  8
0
 10
5870.778317694080215
 20
407.7756855259448798
 30
0.0
 11
5870.778317694080215
 21
407.6770004865450119
 31
0.0
  0
LINE
  5
2DF80
  8
0
 10
5870.7801543911800763
 20
407.7756855259448798
 30
0.0
 11
5870.7801543911800763
 21
407.6770004865450119
 31
0.0
  0
LINE
  5
2DF81
  8
0
 10
5870.7834264194798379
 20
407.7756855259448798
 30
0.0
 11
5870.7834264194798379
 21
407.6770004865450119
 31
0.0
  0
LINE
  5
2DF82
  8
0
 10
5870.7844132878790333
 20
407.7756855259448798
 30
0.0
 11
5870.7844132878790333
 21
407.6770004865450119
 31
0.0
  0
LINE
  5
2DF83
  8
0
 10
5870.78570700147975
 20
407.7756855259448798
 30
0.0
 11
5870.78570700147975
 21
407.6770004865450119
 31
0.0
  0
LINE
  5
2DF84
  8
0
 10
5870.785836530780216
 20
407.7756855259448798
 30
0.0
 11
5870.785836530780216
 21
407.6770004865450119
 31
0.0
  0
LINE
  5
2DF85
  8
0
 10
5870.0574900740803059
 20
407.6770004865450119
 30
0.0
 11
5870.0574900740803059
 21
407.6573154471449243
 31
0.0
  0
LINE
  5
2DF86
  8
0
 10
5870.7661514913797873
 20
407.6770004865450119
 30
0.0
 11
5870.7661514913797873
 21
407.6573154471449243
 31
0.0
  0
LINE
  5
2DF87
  8
0
 10
5836.4944979481442715
 20
407.7756855259448798
 30
0.0
 11
5904.3291436174167757
 21
407.7756855259448798
 31
0.0
  0
LINE
  5
2DF88
  8
0
 10
5870.6582778414312997
 20
428.8928696834483958
 30
0.0
 11
5870.1653637241297474
 21
428.8928696834483958
 31
0.0
  0
ARC
  5
2DF89
  8
0
 10
5870.1653637241297474
 20
428.8628696834484799
 30
0.0
 40
0.0299999999999994
 50
90.0
 51
134.9971257199036074
  0
LINE
  5
2DF8A
  8
0
 10
5870.1441515848946437
 20
428.8840839510315277
 30
0.0
 11
5869.7955901058230666
 21
428.5355574418323954
 31
0.0
  0
ARC
  5
2DF8B
  8
0
 10
5869.8163997421188469
 20
428.5147457175744989
 30
0.0
 40
0.0294307463263295
 50
134.9971257199059949
 51
180.8473513417297056
  0
LINE
  5
2DF8C
  8
0
 10
5869.7869722142313549
 20
428.5143104800484934
 30
0.0
 11
5869.7868209572707201
 21
428.0213135561414788
 31
0.0
  0
ARC
  5
2DF8D
  8
0
 10
5869.8164063712183633
 20
428.0213462786718992
 30
0.0
 40
0.029585432043012
 50
180.0633711642311141
 51
225.4911798559984959
  0
LINE
  5
2DF8E
  8
0
 10
5869.7956664196299243
 20
428.0002476484485214
 30
0.0
 11
5870.1448902475522118
 21
427.6509416931888836
 31
0.0
  0
ARC
  5
2DF8F
  8
0
 10
5870.1649538013525671
 20
427.6723813111328241
 30
0.0
 40
0.0293633003707343
 50
226.8989824879240018
 51
270.8316528035059036
  0
LINE
  5
2DF90
  8
0
 10
5870.1653799970299588
 20
427.6430211039483993
 30
0.0
 11
5870.6582788573296057
 21
427.6428696834483958
 31
0.0
  0
ARC
  5
2DF91
  8
0
 10
5870.6582778632200643
 20
427.6728696837619736
 30
0.0
 40
0.0300000003300266
 50
270.001898611975605
 51
314.9985567443562218
  0
LINE
  5
2DF92
  8
0
 10
5870.6794905325314176
 20
427.6516559457484163
 30
0.0
 11
5871.0280427767256697
 21
428.0001906306304136
 31
0.0
  0
ARC
  5
2DF93
  8
0
 10
5871.0068525547640093
 20
428.0213819201654246
 30
0.0
 40
0.0299682541869731
 50
314.9985567443562218
 51
0.057753446997193
  0
LINE
  5
2DF94
  8
0
 10
5871.0368207937262923
 20
428.0214121277950881
 30
0.0
 11
5871.0368207937299303
 21
428.5143277470484122
 31
0.0
  0
ARC
  5
2DF95
  8
0
 10
5871.0068412129367061
 20
428.514330814723678
 30
0.0
 40
0.0299795809500056
 50
359.9941371814297781
 51
45.0178431775132282
  0
LINE
  5
2DF96
  8
0
 10
5871.0280333751297803
 20
428.5355361804485028
 30
0.0
 11
5870.6800936162280777
 21
428.8834803374501234
 31
0.0
  0
ARC
  5
2DF97
  8
0
 10
5870.6582020306841514
 20
428.86265482137361
 30
0.0
 40
0.0302149571813346
 50
43.5703944663988665
 51
89.8562420494857435
  0
LINE
  5
2DF98
  8
0
 10
5870.9968207937299667
 20
428.5101846174484876
 30
0.0
 11
5870.6541357277301358
 21
428.8528696834483753
 31
0.0
  0
LINE
  5
2DF99
  8
0
 10
5870.6541357277301358
 20
428.8528696834483753
 30
0.0
 11
5870.1695058597288153
 21
428.8528696834483753
 31
0.0
  0
LINE
  5
2DF9A
  8
0
 10
5870.1695058597288153
 20
428.8528696834483753
 30
0.0
 11
5869.8268207937298939
 21
428.5101846174484876
 31
0.0
  0
LINE
  5
2DF9B
  8
0
 10
5869.8268207937298939
 20
428.5101846174484876
 30
0.0
 11
5869.8268207937298939
 21
428.0255547494484176
 31
0.0
  0
LINE
  5
2DF9C
  8
0
 10
5869.8268207937298939
 20
428.0255547494484176
 30
0.0
 11
5870.1695058597288153
 21
427.6828696834484163
 31
0.0
  0
LINE
  5
2DF9D
  8
0
 10
5870.1695058597288153
 20
427.6828696834484163
 30
0.0
 11
5870.6541357277301358
 21
427.6828696834484163
 31
0.0
  0
LINE
  5
2DF9E
  8
0
 10
5870.6541357277301358
 20
427.6828696834484163
 30
0.0
 11
5870.9968207937299667
 21
428.0255547494484176
 31
0.0
  0
LINE
  5
2DF9F
  8
0
 10
5870.9968207937299667
 20
428.0255547494484176
 30
0.0
 11
5870.9968207937299667
 21
428.5101846174484876
 31
0.0
  0
LINE
  5
2DFA0
  8
0
 10
5870.9968207937299667
 20
428.5101846174484876
 30
0.0
 11
5871.0345375345677894
 21
428.5258063993301221
 31
0.0
  0
LINE
  5
2DFA1
  8
0
 10
5870.6541357277301358
 20
428.8528696834483753
 30
0.0
 11
5870.6701469701783935
 21
428.8904084167796782
 31
0.0
  0
LINE
  5
2DFA2
  8
0
 10
5870.1695058597288153
 20
428.8528696834483753
 30
0.0
 11
5870.153883221216347
 21
428.8905860694470107
 31
0.0
  0
LINE
  5
2DFA3
  8
0
 10
5869.8268207937298939
 20
428.5101846174484876
 30
0.0
 11
5869.7891270174186502
 21
428.5258076937433884
 31
0.0
  0
LINE
  5
2DFA4
  8
0
 10
5869.8268207937298939
 20
428.0255547494484176
 30
0.0
 11
5869.7891281065958538
 21
428.0098922807503072
 31
0.0
  0
LINE
  5
2DFA5
  8
0
 10
5870.1695058597288153
 20
427.6828696834484163
 30
0.0
 11
5870.1532633917267958
 21
427.6454455035258206
 31
0.0
  0
LINE
  5
2DFA6
  8
0
 10
5870.6541357277301358
 20
427.6828696834484163
 30
0.0
 11
5870.6697583663062687
 21
427.6451532974771226
 31
0.0
  0
LINE
  5
2DFA7
  8
0
 10
5870.9968207937299667
 20
428.0255547494484176
 30
0.0
 11
5871.0345452436276901
 21
428.0099271725705989
 31
0.0
  0
LINE
  5
2DFA8
  8
0
 10
5868.8370176331800394
 20
412.9134808014450186
 30
0.0
 11
5868.8370176331800394
 21
412.8150556046450106
 31
0.0
  0
LINE
  5
2DFA9
  8
0
 10
5864.7622144835795552
 20
440.6497012739449133
 30
0.0
 11
5864.7622144835795552
 21
440.5512760770449745
 31
0.0
  0
LINE
  5
2DFAA
  8
0
 10
5864.0535530661800294
 20
440.6497012739449133
 30
0.0
 11
5864.0535530661800294
 21
440.5512760770449745
 31
0.0
  0
LINE
  5
2DFAB
  8
0
 10
5864.0338680268796452
 20
440.6497012739449133
 30
0.0
 11
5864.0338680268796452
 21
440.5512760770449745
 31
0.0
  0
LINE
  5
2DFAC
  8
0
 10
5863.285836530780216
 20
440.6497012739449133
 30
0.0
 11
5863.285836530780216
 21
440.5512760770449745
 31
0.0
  0
LINE
  5
2DFAD
  8
0
 10
5859.734366952144228
 20
440.6497012739449133
 30
0.0
 11
5859.7017768772502677
 21
440.5512760770449745
 31
0.0
  0
LINE
  5
2DFAE
  8
0
 10
5859.1509858358249403
 20
440.6497012739449133
 30
0.0
 11
5859.0851781447836402
 21
440.5512760770449745
 31
0.0
  0
LINE
  5
2DFAF
  8
0
 10
5858.1530095553389401
 20
440.6497012739449133
 30
0.0
 11
5858.0806225474361781
 21
440.5512760770449745
 31
0.0
  0
LINE
  5
2DFB0
  8
0
 10
5853.0496160583797973
 20
440.6497012739449133
 30
0.0
 11
5853.0496160583797973
 21
440.5512760770449745
 31
0.0
  0
LINE
  5
2DFB1
  8
0
 10
5852.1337007759666449
 20
440.6497012739449133
 30
0.0
 11
5852.128430482863223
 21
440.5512760770449745
 31
0.0
  0
LINE
  5
2DFB2
  8
0
 10
5851.8261580619800952
 20
440.6497012739449133
 30
0.0
 11
5851.8209998159736642
 21
440.5512760770449745
 31
0.0
  0
LINE
  5
2DFB3
  8
0
 10
5849.7331550077005886
 20
440.6497012739449133
 30
0.0
 11
5849.7380211503514147
 21
440.5512760770449745
 31
0.0
  0
LINE
  5
2DFB4
  8
0
 10
5849.1549638184797004
 20
440.6497012739449133
 30
0.0
 11
5849.1601220644852219
 21
440.5512760770449745
 31
0.0
  0
LINE
  5
2DFB5
  8
0
 10
5848.8474211042039315
 20
440.6497012739449133
 30
0.0
 11
5848.8526913985542706
 21
440.5512760770449745
 31
0.0
  0
LINE
  5
2DFB6
  8
0
 10
5842.8280665935653815
 20
440.6497012739449133
 30
0.0
 11
5842.9005385295822634
 21
440.5512760770449745
 31
0.0
  0
LINE
  5
2DFB7
  8
0
 10
5841.8300847358559622
 20
440.6497012739449133
 30
0.0
 11
5841.8959904615367122
 21
440.5512760770449745
 31
0.0
  0
LINE
  5
2DFB8
  8
0
 10
5841.2468437765173803
 20
440.6497012739449133
 30
0.0
 11
5841.2793202039802054
 21
440.5512760770449745
 31
0.0
  0
LINE
  5
2DFB9
  8
0
 10
5904.3685136961539683
 20
407.7363154471448752
 30
0.0
 11
5906.3370176331800394
 21
407.7363154471448752
 31
0.0
  0
LINE
  5
2DFBA
  8
0
 10
5904.2897735387796274
 20
407.8150556046450106
 30
0.0
 11
5906.4157577906789811
 21
407.8150556046450106
 31
0.0
  0
LINE
  5
2DFBB
  8
0
 10
5906.4157577906789811
 20
442.2245044235950218
 30
0.0
 11
5906.4157577906789811
 21
412.8150556046450106
 31
0.0
  0
LINE
  5
2DFBC
  8
0
 10
5906.4157577906789811
 20
412.500094974745025
 30
0.0
 11
5906.4157577906789811
 21
411.0040319825449728
 31
0.0
  0
LINE
  5
2DFBD
  8
0
 10
5906.4157577906789811
 20
410.6890713526449872
 30
0.0
 11
5906.4157577906789811
 21
407.8150556046450106
 31
0.0
  0
LINE
  5
2DFBE
  8
0
 10
5906.6519782630812188
 20
412.8150556046450106
 30
0.0
 11
5906.6519782630812188
 21
412.500094974745025
 31
0.0
  0
LINE
  5
2DFBF
  8
0
 10
5906.6519782630812188
 20
411.0040319825449728
 30
0.0
 11
5906.6519782630812188
 21
410.6890713526449872
 31
0.0
  0
LINE
  5
2DFC0
  8
0
 10
5904.0535530662800738
 20
412.500094974745025
 30
0.0
 11
5904.0535530662800738
 21
412.8150556046450106
 31
0.0
  0
LINE
  5
2DFC1
  8
0
 10
5904.0535530662800738
 20
411.0040319825449728
 30
0.0
 11
5904.0535530662800738
 21
410.6890713526449872
 31
0.0
  0
LINE
  5
2DFC2
  8
0
 10
5906.4157577906789811
 20
407.8150556046450106
 30
0.0
 11
5906.3370176331800394
 21
407.7363154471448752
 31
0.0
  0
LINE
  5
2DFC3
  8
0
 10
5904.2897735387796274
 20
407.8150556046450106
 30
0.0
 11
5904.2897735387796274
 21
410.6890713526449872
 31
0.0
  0
LINE
  5
2DFC4
  8
0
 10
5904.2897735387796274
 20
411.0040319825449728
 30
0.0
 11
5904.2897735387796274
 21
412.500094974745025
 31
0.0
  0
LINE
  5
2DFC5
  8
0
 10
5904.2897735387796274
 20
412.8150556046450106
 30
0.0
 11
5904.2897735387796274
 21
442.2245044235950218
 31
0.0
  0
LINE
  5
2DFC6
  8
0
 10
5904.1913483418802571
 20
412.9134808014450186
 30
0.0
 11
5904.1913483418802571
 21
431.9292288329450002
 31
0.0
  0
LINE
  5
2DFC7
  8
0
 10
5904.2897735387796274
 20
431.496157966844919
 30
0.0
 11
5904.1913483418802571
 21
431.496157966844919
 31
0.0
  0
LINE
  5
2DFC8
  8
0
 10
5904.2897735387796274
 20
429.676512297544889
 30
0.0
 11
5904.2439058119798574
 21
429.676512297544889
 31
0.0
  0
ARC
  5
2DFC9
  8
0
 10
5904.2439058119798574
 20
429.6715124899945977
 30
0.0
 40
0.0049998075504316
 50
90.0
 51
160.4770206713668017
  0
ARC
  5
2DFCA
  8
0
 10
5904.2297482404619586
 20
429.6765323400589978
 30
0.0
 40
0.0100213683676464
 50
273.1384445320941268
 51
340.4770206713699849
  0
ARC
  5
2DFCB
  8
0
 10
5904.1320135349351403
 20
431.459002723113997
 30
0.0
 40
1.795169188334701
 50
272.8615543927598992
 51
273.1384445320941268
  0
ARC
  5
2DFCC
  8
0
 10
5904.2245950518763493
 20
429.606820917255618
 30
0.0
 40
0.0593250228270465
 50
92.8615543927599134
 51
124.0845927917874008
  0
LINE
  5
2DFCD
  8
0
 10
5904.2897735387796274
 20
429.1302872112448767
 30
0.0
 11
5904.2439057369801958
 21
429.1302872110450153
 31
0.0
  0
ARC
  5
2DFCE
  8
0
 10
5904.2316286801869865
 20
429.1481133724921051
 30
0.0
 40
0.0216448182124637
 50
267.1661885784400283
 51
304.5555756570003041
  0
ARC
  5
2DFCF
  8
0
 10
5904.8522276453040831
 20
397.7969761406164935
 30
0.0
 40
31.3356861394033892
 50
91.1367662601102069
 51
91.153270838024028
  0
ARC
  5
2DFD0
  8
0
 10
5904.2232815800443859
 20
429.0077669216129834
 30
0.0
 40
0.1185606065855737
 50
90.8446426647184637
 51
105.6250592078265953
  0
LINE
  5
2DFD1
  8
0
 10
5904.2391934531433435
 20
429.1349602236538203
 30
0.0
 11
5904.2391934531433435
 21
429.6731837263318994
 31
0.0
  0
ARC
  5
2DFD2
  8
0
 10
5904.2446371991945853
 20
429.1357372691999785
 30
0.0
 40
0.0054989245190149
 50
188.1235786858069901
 51
262.355908034793174
  0
LINE
  5
2DFD3
  8
0
 10
5904.2897735387796274
 20
429.1163122975449937
 30
0.0
 11
5904.2597497773813302
 21
429.1163080882736267
 31
0.0
  0
ARC
  5
2DFD4
  8
0
 10
5904.231547678194147
 20
429.2207090314332731
 30
0.0
 40
0.1081430318196126
 50
271.7093622667464956
 51
285.11665658201008
  0
ARC
  5
2DFD5
  8
0
 10
5904.2325960214193401
 20
428.9894211483813251
 30
0.0
 40
0.1232122179910182
 50
88.9873646286636557
 51
98.3169345949667388
  0
ARC
  5
2DFD6
  8
0
 10
5904.2190348863186955
 20
429.0939418500776128
 30
0.0
 40
0.0179100410810406
 50
103.7644371857223007
 51
142.7760054104253982
  0
LINE
  5
2DFD7
  8
0
 10
5904.204773538779591
 20
429.104776218444897
 30
0.0
 11
5904.204773538779591
 21
428.976512297545014
 31
0.0
  0
LINE
  5
2DFD8
  8
0
 10
5904.2897735387796274
 20
428.976512297545014
 30
0.0
 11
5904.191348341981211
 21
428.976512297545014
 31
0.0
  0
LINE
  5
2DFD9
  8
0
 10
5904.191348341981211
 20
428.9365122975449935
 30
0.0
 11
5904.2897735387796274
 21
428.9365122975449935
 31
0.0
  0
LINE
  5
2DFDA
  8
0
 10
5904.2897735387796274
 20
428.9965122975448821
 30
0.0
 11
5904.2597645790801835
 21
428.9965122975448821
 31
0.0
  0
ARC
  5
2DFDB
  8
0
 10
5904.2296476719729981
 20
429.0368321653389785
 30
0.0
 40
0.0503261346876431
 50
273.1240427635780179
 51
306.7578759032999187
  0
ARC
  5
2DFDC
  8
0
 10
5904.3004988979218979
 20
427.6455511604161757
 30
0.0
 40
1.3427581041564629
 50
92.9074547152167867
 51
93.2776367617902054
  0
ARC
  5
2DFDD
  8
0
 10
5904.2247965264796221
 20
428.9661685605449861
 30
0.0
 40
0.0199728580000033
 50
93.0679741169077346
 51
148.7622009758979971
  0
LINE
  5
2DFDE
  8
0
 10
5904.191348341981211
 20
429.0401875563450176
 30
0.0
 11
5904.204773538779591
 21
429.0401875563450176
 31
0.0
  0
LINE
  5
2DFDF
  8
0
 10
5904.191348341981211
 20
429.0261658025449947
 30
0.0
 11
5904.204773538779591
 21
429.0261658025449947
 31
0.0
  0
LINE
  5
2DFE0
  8
0
 10
5904.2597606201134113
 20
428.9965175879372055
 30
0.0
 11
5904.2597645790801835
 21
429.1163122975449937
 31
0.0
  0
LINE
  5
2DFE1
  8
0
 10
5904.2347735387811554
 20
429.1126141233449971
 30
0.0
 11
5904.2347735387811554
 21
429.093933557344883
 31
0.0
  0
ARC
  5
2DFE2
  8
0
 10
5904.2047735388796355
 20
429.093933557344883
 30
0.0
 40
0.0299999998993181
 50
289.4712204985070798
 51
0.0
  0
ARC
  5
2DFE3
  8
0
 10
5904.2197735387298962
 20
429.0515071505806191
 30
0.0
 40
0.0149999999496595
 50
109.471220498507094
 51
180.0000001359653083
  0
LINE
  5
2DFE4
  8
0
 10
5904.2270447493801839
 20
428.976512297545014
 30
0.0
 11
5904.2270447493801839
 21
428.9863006704794088
 31
0.0
  0
LINE
  5
2DFE5
  8
0
 10
5904.191348341981211
 20
428.8310827259448956
 30
0.0
 11
5904.2634967486801543
 21
428.738185159944976
 31
0.0
  0
ARC
  5
2DFE6
  8
0
 10
5904.149490812640579
 20
428.6615122974948804
 30
0.0
 40
0.1373902517962206
 50
326.0778288187119074
 51
33.922171181288121
  0
LINE
  5
2DFE7
  8
0
 10
5904.2634967486801543
 20
428.5848394350448984
 30
0.0
 11
5904.191348341981211
 21
428.491941869044922
 31
0.0
  0
LINE
  5
2DFE8
  8
0
 10
5904.191348341981211
 20
428.549002475245004
 30
0.0
 11
5904.2358542498795941
 21
428.6063078365449996
 31
0.0
  0
ARC
  5
2DFE9
  8
0
 10
5904.1647735387787179
 20
428.6615122975233021
 30
0.0
 40
0.090000000014216
 50
322.1654873535972001
 51
37.8345126543435128
  0
LINE
  5
2DFEA
  8
0
 10
5904.2358542498723182
 20
428.7167167585113816
 30
0.0
 11
5904.191348341981211
 21
428.7740221197852861
 31
0.0
  0
LINE
  5
2DFEB
  8
0
 10
5904.2897735387796274
 20
427.6465122975449731
 30
0.0
 11
5904.2439058119798574
 21
427.6465122975449731
 31
0.0
  0
ARC
  5
2DFEC
  8
0
 10
5904.2439058119798574
 20
427.651512105095378
 30
0.0
 40
0.0049998075504316
 50
199.522979328633113
 51
270.0
  0
ARC
  5
2DFED
  8
0
 10
5904.2297482404619586
 20
427.646492255030978
 30
0.0
 40
0.0100213683676464
 50
19.522979328630079
 51
86.8615554679059159
  0
ARC
  5
2DFEE
  8
0
 10
5904.1320135349351403
 20
425.8640218719758082
 30
0.0
 40
1.795169188334701
 50
86.8615554679059159
 51
87.138445607240115
  0
ARC
  5
2DFEF
  8
0
 10
5904.2245950518763493
 20
427.7162036778343008
 30
0.0
 40
0.0593250228270465
 50
235.9154072082125992
 51
267.1384456072399871
  0
LINE
  5
2DFF0
  8
0
 10
5904.2897735387796274
 20
428.1927373838448716
 30
0.0
 11
5904.2439057369801958
 21
428.1927373840450173
 31
0.0
  0
ARC
  5
2DFF1
  8
0
 10
5904.2316286801869865
 20
428.1749112225977001
 30
0.0
 40
0.0216448182124637
 50
55.4444243429996533
 51
92.8338114215599433
  0
ARC
  5
2DFF2
  8
0
 10
5904.8522276453040831
 20
459.5260484544734823
 30
0.0
 40
31.3356861394033892
 50
268.8467291619759862
 51
268.8632337398897789
  0
ARC
  5
2DFF3
  8
0
 10
5904.2232815800443859
 20
428.3152576734768218
 30
0.0
 40
0.1185606065855737
 50
254.3749407921733905
 51
269.1553573352816215
  0
ARC
  5
2DFF4
  8
0
 10
5904.2446371991945853
 20
428.1872873258898835
 30
0.0
 40
0.0054989245190149
 50
97.6440919652067407
 51
171.8764213141928963
  0
LINE
  5
2DFF5
  8
0
 10
5904.2897735387796274
 20
428.2067122975449251
 30
0.0
 11
5904.2597497773813302
 21
428.2067165068162922
 31
0.0
  0
ARC
  5
2DFF6
  8
0
 10
5904.231547678194147
 20
428.1023155636565889
 30
0.0
 40
0.1081430318196126
 50
74.8833434179898489
 51
88.290637733305573
  0
ARC
  5
2DFF7
  8
0
 10
5904.2325960214193401
 20
428.3336034467087075
 30
0.0
 40
0.1232122179910182
 50
261.6830654050331759
 51
271.0126353713363869
  0
ARC
  5
2DFF8
  8
0
 10
5904.2190348863186955
 20
428.2290827450121924
 30
0.0
 40
0.0179100410810406
 50
217.2239945895746018
 51
256.2355628142776141
  0
LINE
  5
2DFF9
  8
0
 10
5904.204773538779591
 20
428.2182483766449081
 30
0.0
 11
5904.204773538779591
 21
428.3465122975449049
 31
0.0
  0
LINE
  5
2DFFA
  8
0
 10
5904.2897735387796274
 20
428.3465122975449049
 30
0.0
 11
5904.191348341981211
 21
428.3465122975449049
 31
0.0
  0
LINE
  5
2DFFB
  8
0
 10
5904.191348341981211
 20
428.3865122975449253
 30
0.0
 11
5904.2897735387796274
 21
428.3865122975449253
 31
0.0
  0
LINE
  5
2DFFC
  8
0
 10
5904.2897735387796274
 20
428.3265122975449231
 30
0.0
 11
5904.2597645790801835
 21
428.3265122975449231
 31
0.0
  0
ARC
  5
2DFFD
  8
0
 10
5904.2296476719729981
 20
428.2861924297509972
 30
0.0
 40
0.0503261346876431
 50
53.2421240967001026
 51
86.8759572364219963
  0
ARC
  5
2DFFE
  8
0
 10
5904.3004988979218979
 20
429.6774734346738001
 30
0.0
 40
1.3427581041564629
 50
266.7223632382098231
 51
267.0925452847832275
  0
ARC
  5
2DFFF
  8
0
 10
5904.2247965264796221
 20
428.3568560345448759
 30
0.0
 40
0.0199728580000033
 50
211.2377990241020029
 51
266.9320258830921944
  0
LINE
  5
2E000
  8
0
 10
5904.191348341981211
 20
428.2828370387449013
 30
0.0
 11
5904.204773538779591
 21
428.2828370387449013
 31
0.0
  0
LINE
  5
2E001
  8
0
 10
5904.191348341981211
 20
428.2968587925449242
 30
0.0
 11
5904.204773538779591
 21
428.2968587925449242
 31
0.0
  0
LINE
  5
2E002
  8
0
 10
5904.2597606201134113
 20
428.3265070071527134
 30
0.0
 11
5904.2597645790801835
 21
428.2067122975449251
 31
0.0
  0
LINE
  5
2E003
  8
0
 10
5904.2347735387811554
 20
428.2104104717449786
 30
0.0
 11
5904.2347735387811554
 21
428.2290910377449222
 31
0.0
  0
ARC
  5
2E004
  8
0
 10
5904.2047735388796355
 20
428.2290910377449222
 30
0.0
 40
0.0299999998993181
 50
0.0
 51
70.5287795014928207
  0
ARC
  5
2E005
  8
0
 10
5904.2197735387298962
 20
428.2715174445094135
 30
0.0
 40
0.0149999999496595
 50
179.9999998640346917
 51
250.5287795014928918
  0
LINE
  5
2E006
  8
0
 10
5904.2270447493801839
 20
428.3465122975449049
 30
0.0
 11
5904.2270447493801839
 21
428.3367239246103964
 31
0.0
  0
LINE
  5
2E007
  8
0
 10
5904.2391933352801061
 20
428.1880634484448933
 30
0.0
 11
5904.2391933352801061
 21
427.6498412012239214
 31
0.0
  0
LINE
  5
2E008
  8
0
 10
5904.2897735387796274
 20
422.8937957620448742
 30
0.0
 11
5904.1913483418802571
 21
422.8937957620448742
 31
0.0
  0
LINE
  5
2E009
  8
0
 10
5904.2897735387796274
 20
422.6969453683449842
 30
0.0
 11
5904.1913483418802571
 21
422.6969453683449842
 31
0.0
  0
LINE
  5
2E00A
  8
0
 10
5904.2897735387796274
 20
422.657575289645024
 30
0.0
 11
5904.1913483418802571
 21
422.657575289645024
 31
0.0
  0
LINE
  5
2E00B
  8
0
 10
5904.2897735387796274
 20
415.1661643861780249
 30
0.0
 11
5904.2439058119798574
 21
415.1661643861780249
 31
0.0
  0
ARC
  5
2E00C
  8
0
 10
5904.2439058119798574
 20
415.1711641937284867
 30
0.0
 40
0.0049998075504316
 50
199.522979328633113
 51
270.0
  0
ARC
  5
2E00D
  8
0
 10
5904.2297482404619586
 20
415.1661443436640866
 30
0.0
 40
0.0100213683676464
 50
19.522979328630079
 51
86.8615554679059159
  0
ARC
  5
2E00E
  8
0
 10
5904.1320135349351403
 20
413.3836739606089168
 30
0.0
 40
1.795169188334701
 50
86.8615554679059159
 51
87.138445607240115
  0
ARC
  5
2E00F
  8
0
 10
5904.2245950518763493
 20
415.2358557664674095
 30
0.0
 40
0.0593250228270465
 50
235.9154072082125992
 51
267.1384456072399871
  0
LINE
  5
2E010
  8
0
 10
5904.2897735387796274
 20
415.7123894724779802
 30
0.0
 11
5904.2439057369801958
 21
415.7123894726781259
 31
0.0
  0
ARC
  5
2E011
  8
0
 10
5904.2316286801869865
 20
415.6945633112308087
 30
0.0
 40
0.0216448182124637
 50
55.4444243429996533
 51
92.8338114215599433
  0
ARC
  5
2E012
  8
0
 10
5904.8522276453040831
 20
447.0457005431064772
 30
0.0
 40
31.3356861394033892
 50
268.8467291619759862
 51
268.8632337398897789
  0
ARC
  5
2E013
  8
0
 10
5904.2232815800443859
 20
415.8349097621098736
 30
0.0
 40
0.1185606065855737
 50
254.3749407921733905
 51
269.1553573352816215
  0
LINE
  5
2E014
  8
0
 10
5904.2391934531433435
 20
415.7077164600692072
 30
0.0
 11
5904.2391934531433435
 21
415.1694929573911281
 31
0.0
  0
ARC
  5
2E015
  8
0
 10
5904.2446371991945853
 20
415.7069394145229921
 30
0.0
 40
0.0054989245190149
 50
97.6440919652067407
 51
171.8764213141928963
  0
LINE
  5
2E016
  8
0
 10
5904.2897735387796274
 20
415.7263643861780906
 30
0.0
 11
5904.2597497773813302
 21
415.7263685954494008
 31
0.0
  0
ARC
  5
2E017
  8
0
 10
5904.231547678194147
 20
415.6219676522898112
 30
0.0
 40
0.1081430318196126
 50
74.8833434179898489
 51
88.290637733253476
  0
ARC
  5
2E018
  8
0
 10
5904.2325960214193401
 20
415.8532555353417024
 30
0.0
 40
0.1232122179910182
 50
261.6830654050331759
 51
271.0126353713363869
  0
ARC
  5
2E019
  8
0
 10
5904.2190348863186955
 20
415.748734833645301
 30
0.0
 40
0.0179100410810406
 50
217.2239945895746018
 51
256.2355628142776141
  0
LINE
  5
2E01A
  8
0
 10
5904.204773538779591
 20
415.7379004652780168
 30
0.0
 11
5904.204773538779591
 21
415.8661643861781272
 31
0.0
  0
LINE
  5
2E01B
  8
0
 10
5904.2897735387796274
 20
415.8661643861781272
 30
0.0
 11
5904.191348341981211
 21
415.8661643861781272
 31
0.0
  0
LINE
  5
2E01C
  8
0
 10
5904.191348341981211
 20
415.9061643861780908
 30
0.0
 11
5904.2897735387796274
 21
415.9061643861780908
 31
0.0
  0
LINE
  5
2E01D
  8
0
 10
5904.2897735387796274
 20
415.8461643861779748
 30
0.0
 11
5904.2597645790801835
 21
415.8461643861779748
 31
0.0
  0
ARC
  5
2E01E
  8
0
 10
5904.2296476719729981
 20
415.8058445183841059
 30
0.0
 40
0.0503261346876431
 50
53.2421240967001026
 51
86.8759572364219963
  0
ARC
  5
2E01F
  8
0
 10
5904.3004988979218979
 20
417.1971255233069087
 30
0.0
 40
1.3427581041564629
 50
266.7223632382098231
 51
267.0925452847832275
  0
ARC
  5
2E020
  8
0
 10
5904.2247965264796221
 20
415.8765081231780982
 30
0.0
 40
0.0199728580000033
 50
211.2377990241020029
 51
266.9320258830921944
  0
LINE
  5
2E021
  8
0
 10
5904.191348341981211
 20
415.8024891273781236
 30
0.0
 11
5904.204773538779591
 21
415.8024891273781236
 31
0.0
  0
LINE
  5
2E022
  8
0
 10
5904.191348341981211
 20
415.8165108811780897
 30
0.0
 11
5904.204773538779591
 21
415.8165108811780897
 31
0.0
  0
LINE
  5
2E023
  8
0
 10
5904.2597606201134113
 20
415.846159095785822
 30
0.0
 11
5904.2597645790801835
 21
415.7263643861780906
 31
0.0
  0
LINE
  5
2E024
  8
0
 10
5904.2347735387811554
 20
415.7300625603779736
 30
0.0
 11
5904.2347735387811554
 21
415.748743126377974
 31
0.0
  0
ARC
  5
2E025
  8
0
 10
5904.2047735388796355
 20
415.748743126377974
 30
0.0
 40
0.0299999998993181
 50
0.0
 51
70.5287795014928207
  0
ARC
  5
2E026
  8
0
 10
5904.2197735387298962
 20
415.7911695331425221
 30
0.0
 40
0.0149999999496595
 50
179.9999998640346917
 51
250.5287795014928918
  0
LINE
  5
2E027
  8
0
 10
5904.2270447493801839
 20
415.8661643861781272
 30
0.0
 11
5904.2270447493801839
 21
415.8563760132436187
 31
0.0
  0
LINE
  5
2E028
  8
0
 10
5904.191348341981211
 20
416.011593957778075
 30
0.0
 11
5904.2634967486801543
 21
416.1044915237781083
 31
0.0
  0
ARC
  5
2E029
  8
0
 10
5904.149490812640579
 20
416.1811643862279766
 30
0.0
 40
0.1373902517962206
 50
326.0778288187119074
 51
33.922171181288121
  0
LINE
  5
2E02A
  8
0
 10
5904.2634967486801543
 20
416.2578372486780722
 30
0.0
 11
5904.191348341981211
 21
416.3507348146779918
 31
0.0
  0
LINE
  5
2E02B
  8
0
 10
5904.191348341981211
 20
416.2936742084780235
 30
0.0
 11
5904.2358542498795941
 21
416.2363688471780279
 31
0.0
  0
ARC
  5
2E02C
  8
0
 10
5904.1647735387787179
 20
416.1811643861997254
 30
0.0
 40
0.090000000014216
 50
322.1654873456565156
 51
37.834512646402807
  0
LINE
  5
2E02D
  8
0
 10
5904.2358542498723182
 20
416.1259599252114754
 30
0.0
 11
5904.191348341981211
 21
416.0686545639376845
 31
0.0
  0
LINE
  5
2E02E
  8
0
 10
5904.2897735387796274
 20
417.1961643861781113
 30
0.0
 11
5904.2439058119798574
 21
417.1961643861781113
 31
0.0
  0
ARC
  5
2E02F
  8
0
 10
5904.2439058119798574
 20
417.1911645786275926
 30
0.0
 40
0.0049998075504316
 50
90.0
 51
160.4770206713668017
  0
ARC
  5
2E030
  8
0
 10
5904.2297482404619586
 20
417.1961844286919927
 30
0.0
 40
0.0100213683676464
 50
273.1384445320941268
 51
340.4770206713699849
  0
ARC
  5
2E031
  8
0
 10
5904.1320135349351403
 20
418.9786548117472194
 30
0.0
 40
1.795169188334701
 50
272.8615543927598992
 51
273.1384445320941268
  0
ARC
  5
2E032
  8
0
 10
5904.2245950518763493
 20
417.126473005888613
 30
0.0
 40
0.0593250228270465
 50
92.8615543927599134
 51
124.0845927917874008
  0
LINE
  5
2E033
  8
0
 10
5904.2897735387796274
 20
416.6499392998780991
 30
0.0
 11
5904.2439057369801958
 21
416.6499392996780102
 31
0.0
  0
ARC
  5
2E034
  8
0
 10
5904.2316286801869865
 20
416.6677654611253274
 30
0.0
 40
0.0216448182124637
 50
267.1661885784400283
 51
304.5555756570003041
  0
ARC
  5
2E035
  8
0
 10
5904.8522276453040831
 20
385.3166282292496021
 30
0.0
 40
31.3356861394033892
 50
91.1367662601102069
 51
91.153270838024028
  0
ARC
  5
2E036
  8
0
 10
5904.2232815800443859
 20
416.5274190102462057
 30
0.0
 40
0.1185606065855737
 50
90.8446426647184637
 51
105.6250592078265953
  0
ARC
  5
2E037
  8
0
 10
5904.2446371991945853
 20
416.6553893578330872
 30
0.0
 40
0.0054989245190149
 50
188.1235786858069901
 51
262.355908034793174
  0
LINE
  5
2E038
  8
0
 10
5904.2897735387796274
 20
416.6359643861779887
 30
0.0
 11
5904.2597497773813302
 21
416.6359601769066785
 31
0.0
  0
ARC
  5
2E039
  8
0
 10
5904.231547678194147
 20
416.7403611200663249
 30
0.0
 40
0.1081430318196126
 50
271.709362266694427
 51
285.11665658201008
  0
ARC
  5
2E03A
  8
0
 10
5904.2325960214193401
 20
416.5090732370143769
 30
0.0
 40
0.1232122179910182
 50
88.9873646286636557
 51
98.3169345949667388
  0
ARC
  5
2E03B
  8
0
 10
5904.2190348863186955
 20
416.613593938710892
 30
0.0
 40
0.0179100410810406
 50
103.7644371857223007
 51
142.7760054104253982
  0
LINE
  5
2E03C
  8
0
 10
5904.204773538779591
 20
416.6244283070780057
 30
0.0
 11
5904.204773538779591
 21
416.496164386178009
 31
0.0
  0
LINE
  5
2E03D
  8
0
 10
5904.2897735387796274
 20
416.496164386178009
 30
0.0
 11
5904.191348341981211
 21
416.496164386178009
 31
0.0
  0
LINE
  5
2E03E
  8
0
 10
5904.191348341981211
 20
416.4561643861779885
 30
0.0
 11
5904.2897735387796274
 21
416.4561643861779885
 31
0.0
  0
LINE
  5
2E03F
  8
0
 10
5904.2897735387796274
 20
416.5161643861781045
 30
0.0
 11
5904.2597645790801835
 21
416.5161643861781045
 31
0.0
  0
ARC
  5
2E040
  8
0
 10
5904.2296476719729981
 20
416.5564842539720871
 30
0.0
 40
0.0503261346876431
 50
273.1240427635780179
 51
306.7578759032999187
  0
ARC
  5
2E041
  8
0
 10
5904.3004988979218979
 20
415.1652032490492843
 30
0.0
 40
1.3427581041564629
 50
92.9074547152167867
 51
93.2776367617902054
  0
ARC
  5
2E042
  8
0
 10
5904.2247965264796221
 20
416.4858206491779811
 30
0.0
 40
0.0199728580000033
 50
93.0679741169077346
 51
148.7622009758979971
  0
LINE
  5
2E043
  8
0
 10
5904.191348341981211
 20
416.5598396449780125
 30
0.0
 11
5904.204773538779591
 21
416.5598396449780125
 31
0.0
  0
LINE
  5
2E044
  8
0
 10
5904.191348341981211
 20
416.5458178911781033
 30
0.0
 11
5904.204773538779591
 21
416.5458178911781033
 31
0.0
  0
LINE
  5
2E045
  8
0
 10
5904.2597606201134113
 20
416.5161696765704278
 30
0.0
 11
5904.2597645790801835
 21
416.6359643861779887
 31
0.0
  0
LINE
  5
2E046
  8
0
 10
5904.2347735387811554
 20
416.6322662119781057
 30
0.0
 11
5904.2347735387811554
 21
416.6135856459781053
 31
0.0
  0
ARC
  5
2E047
  8
0
 10
5904.2047735388796355
 20
416.6135856459781053
 30
0.0
 40
0.0299999998993181
 50
289.4712204985070798
 51
0.0
  0
ARC
  5
2E048
  8
0
 10
5904.2197735387298962
 20
416.5711592392137277
 30
0.0
 40
0.0149999999496595
 50
109.471220498507094
 51
180.0000001359653083
  0
LINE
  5
2E049
  8
0
 10
5904.2270447493801839
 20
416.496164386178009
 30
0.0
 11
5904.2270447493801839
 21
416.5059527591125175
 31
0.0
  0
LINE
  5
2E04A
  8
0
 10
5904.2391933352801061
 20
416.6546132352780774
 30
0.0
 11
5904.2391933352801061
 21
417.1928354824991061
 31
0.0
  0
LINE
  5
2E04B
  8
0
 10
5904.2897735387796274
 20
421.0827721400448809
 30
0.0
 11
5904.1913483418802571
 21
421.0827721400448809
 31
0.0
  0
LINE
  5
2E04C
  8
0
 10
5890.3922115355007918
 20
431.9292870062485008
 30
0.0
 11
5890.3922115355007918
 21
412.9134808014450186
 31
0.0
  0
LINE
  5
2E04D
  8
0
 10
5890.2741012993010372
 20
431.9292870062485008
 30
0.0
 11
5890.2741012993010372
 21
412.9134808014450186
 31
0.0
  0
LINE
  5
2E04E
  8
0
 10
5890.2741012993010372
 20
431.4962161401484195
 30
0.0
 11
5890.3922115355007918
 21
431.4962161401484195
 31
0.0
  0
LINE
  5
2E04F
  8
0
 10
5890.2741012993010372
 20
422.6576334629484109
 30
0.0
 11
5890.3922115355007918
 21
422.6576334629484109
 31
0.0
  0
LINE
  5
2E050
  8
0
 10
5890.2741012993010372
 20
422.0670822818483998
 30
0.0
 11
5890.3922115355007918
 21
422.0670822818483998
 31
0.0
  0
LINE
  5
2E051
  8
0
 10
5890.2741012993010372
 20
421.0828303133483814
 30
0.0
 11
5890.3922115355007918
 21
421.0828303133483814
 31
0.0
  0
LINE
  5
2E052
  8
0
 10
5890.2741012993010372
 20
415.3741688960485021
 30
0.0
 11
5890.3922115355007918
 21
415.3741688960485021
 31
0.0
  0
LINE
  5
2E053
  8
0
 10
5876.4748129087811321
 20
440.5512760770449745
 30
0.0
 11
5876.4748129087811321
 21
432.2441894629449735
 31
0.0
  0
LINE
  5
2E054
  8
0
 10
5876.4748129087811321
 20
431.9292870062485008
 30
0.0
 11
5876.4748129087811321
 21
412.9134808014450186
 31
0.0
  0
LINE
  5
2E055
  8
0
 10
5876.3567026725795586
 20
440.5512760770449745
 30
0.0
 11
5876.3567026725795586
 21
432.2441894629449735
 31
0.0
  0
LINE
  5
2E056
  8
0
 10
5876.3567026725795586
 20
431.9292870062485008
 30
0.0
 11
5876.3567026725795586
 21
412.9134808014450186
 31
0.0
  0
LINE
  5
2E057
  8
0
 10
5876.4748129087811321
 20
431.4962161401484195
 30
0.0
 11
5876.3567026725795586
 21
431.4962161401484195
 31
0.0
  0
LINE
  5
2E058
  8
0
 10
5877.5378050347799217
 20
412.9135389747484055
 30
0.0
 11
5877.5378050347799217
 21
412.8544838566484145
 31
0.0
  0
LINE
  5
2E059
  8
0
 10
5877.5378050347799217
 20
412.8544838566484145
 30
0.0
 11
5876.789773538679583
 21
412.8544838566484145
 31
0.0
  0
LINE
  5
2E05A
  8
0
 10
5876.789773538679583
 20
412.8151137779483975
 30
0.0
 11
5876.789773538679583
 21
412.9135389747484055
 31
0.0
  0
LINE
  5
2E05B
  8
0
 10
5876.6913483418802571
 20
412.8151137779483975
 30
0.0
 11
5876.7700884993801083
 21
412.8544838566484145
 31
0.0
  0
LINE
  5
2E05C
  8
0
 10
5876.7700884993801083
 20
412.8544838566484145
 30
0.0
 11
5876.0614270819805824
 21
412.8544838566484145
 31
0.0
  0
LINE
  5
2E05D
  8
0
 10
5876.0614270819805824
 20
412.8151137779483975
 30
0.0
 11
5876.0614270819805824
 21
412.9135389747484055
 31
0.0
  0
LINE
  5
2E05E
  8
0
 10
5876.7700884993801083
 20
412.8544838566484145
 30
0.0
 11
5876.7700884993801083
 21
412.9135389747484055
 31
0.0
  0
LINE
  5
2E05F
  8
0
 10
5875.0771751134798251
 20
412.9134808014949272
 30
0.0
 11
5875.0771751134798251
 21
412.8150556046949191
 31
0.0
  0
LINE
  5
2E060
  8
0
 10
5904.1913483418802571
 20
440.5512760770449745
 30
0.0
 11
5904.1913483418802571
 21
432.2441894629449735
 31
0.0
  0
LINE
  5
2E061
  8
0
 10
5904.2497735387296416
 20
439.0648981243450066
 30
0.0
 11
5904.2497735387296416
 21
437.9037957621449095
 31
0.0
  0
LINE
  5
2E062
  8
0
 10
5904.2597735387289504
 20
439.0748981243449975
 30
0.0
 11
5904.2897735387796274
 21
439.0748981243449975
 31
0.0
  0
LINE
  5
2E063
  8
0
 10
5904.2597735387289504
 20
437.8937957621449755
 30
0.0
 11
5904.2897735387796274
 21
437.8937957621449755
 31
0.0
  0
ARC
  5
2E064
  8
0
 10
5904.2892329137303022
 20
438.0906461558449223
 30
0.0
 40
0.1594593749999347
 50
232.1313955421468052
 51
255.6729050683173057
  0
ARC
  5
2E065
  8
0
 10
5904.2892329137303022
 20
438.0906461558450928
 30
0.0
 40
0.1594593749999221
 50
104.3270949316825948
 51
127.8686044578551986
  0
ARC
  5
2E066
  8
0
 10
5904.2804822001298817
 20
438.4619548668450761
 30
0.0
 40
0.2078740157001794
 50
244.6093395450951107
 51
257.1422751206736734
  0
ARC
  5
2E067
  8
0
 10
5904.2297730384625538
 20
438.2397939158053077
 30
0.0
 40
0.0200007464913619
 50
15.0001921933594708
 51
77.1422751206729345
  0
ARC
  5
2E068
  8
0
 10
5904.2763950885719169
 20
438.5178487922099748
 30
0.0
 40
0.1960517062609009
 50
102.4215601226373025
 51
115.708803747284307
  0
ARC
  5
2E069
  8
0
 10
5904.2290977150887556
 20
438.7302955514638256
 30
0.0
 40
0.0216013825114247
 50
283.7274811648150035
 51
343.1669854293273261
  0
ARC
  5
2E06A
  8
0
 10
5904.2892329137303022
 20
438.8780477306449939
 30
0.0
 40
0.15945937500008
 50
232.1313955421508126
 51
255.6197202105759914
  0
ARC
  5
2E06B
  8
0
 10
5904.2892329137303022
 20
438.8780477306449939
 30
0.0
 40
0.1594593750000291
 50
104.3270949316825948
 51
127.8686044578512053
  0
ARC
  5
2E06C
  8
0
 10
5904.2597735387289504
 20
439.0648981243450066
 30
0.0
 40
0.01
 50
90.0
 51
180.0000000000194973
  0
ARC
  5
2E06D
  8
0
 10
5904.2597735387289504
 20
437.9037957621449095
 30
0.0
 40
0.01
 50
180.0000000000098055
 51
270.0
  0
LINE
  5
2E06E
  8
0
 10
5904.1913483418802571
 20
437.0670241085448993
 30
0.0
 11
5904.2897735387796274
 21
437.0670241085448993
 31
0.0
  0
LINE
  5
2E06F
  8
0
 10
5891.6418174799009648
 20
428.8928696834483958
 30
0.0
 11
5892.1347315972006982
 21
428.8928696834483958
 31
0.0
  0
ARC
  5
2E070
  8
0
 10
5892.1347315972006982
 20
428.8628696834484799
 30
0.0
 40
0.0299999999999994
 50
45.0028742800963215
 51
90.0
  0
LINE
  5
2E071
  8
0
 10
5892.1559437364348923
 20
428.8840839510315277
 30
0.0
 11
5892.5045052155082885
 21
428.5355574418323954
 31
0.0
  0
ARC
  5
2E072
  8
0
 10
5892.4836955792115987
 20
428.5147457175744989
 30
0.0
 40
0.0294307463263295
 50
359.1526486582703228
 51
45.0028742800940265
  0
LINE
  5
2E073
  8
0
 10
5892.5131231071009097
 20
428.5143104800484934
 30
0.0
 11
5892.513274364058816
 21
428.0213135561414788
 31
0.0
  0
ARC
  5
2E074
  8
0
 10
5892.4836889501129917
 20
428.0213462786718992
 30
0.0
 40
0.029585432043012
 50
314.5088201440015041
 51
359.9366288357688859
  0
LINE
  5
2E075
  8
0
 10
5892.5044289017014307
 20
428.0002476484485214
 30
0.0
 11
5892.1552050737782338
 21
427.6509416931888836
 31
0.0
  0
ARC
  5
2E076
  8
0
 10
5892.1351415199778785
 20
427.6723813111328241
 30
0.0
 40
0.0293633003707343
 50
269.1683471964940964
 51
313.1010175120759982
  0
LINE
  5
2E077
  8
0
 10
5892.1347153242995773
 20
427.6430211039483993
 30
0.0
 11
5891.6418164640008399
 21
427.6428696834483958
 31
0.0
  0
ARC
  5
2E078
  8
0
 10
5891.6418174581112908
 20
427.6728696837619736
 30
0.0
 40
0.0300000003300266
 50
225.001443255643693
 51
269.9981013880242813
  0
LINE
  5
2E079
  8
0
 10
5891.620604788800847
 20
427.6516559457484163
 30
0.0
 11
5891.2720525446038664
 21
428.0001906306304136
 31
0.0
  0
ARC
  5
2E07A
  8
0
 10
5891.2932427665673458
 20
428.0213819201654246
 30
0.0
 40
0.0299682541869731
 50
179.9422465530028035
 51
225.001443255643693
  0
LINE
  5
2E07B
  8
0
 10
5891.2632745276041533
 20
428.0214121277950881
 30
0.0
 11
5891.2632745276014248
 21
428.5143277470484122
 31
0.0
  0
ARC
  5
2E07C
  8
0
 10
5891.2932541083928299
 20
428.514330814723678
 30
0.0
 40
0.0299795809500056
 50
134.9821568224867008
 51
180.0058628185701934
  0
LINE
  5
2E07D
  8
0
 10
5891.2720619461997558
 20
428.5355361804485028
 30
0.0
 11
5891.6200017051032773
 21
428.8834803374501234
 31
0.0
  0
ARC
  5
2E07E
  8
0
 10
5891.6418932906462942
 20
428.86265482137361
 30
0.0
 40
0.0302149571813346
 50
90.1437579505142565
 51
136.4296055336010909
  0
LINE
  5
2E07F
  8
0
 10
5891.3032745276013884
 20
428.5101846174484876
 30
0.0
 11
5891.6459595936003097
 21
428.8528696834483753
 31
0.0
  0
LINE
  5
2E080
  8
0
 10
5891.6459595936003097
 20
428.8528696834483753
 30
0.0
 11
5892.1305894616007208
 21
428.8528696834483753
 31
0.0
  0
LINE
  5
2E081
  8
0
 10
5892.1305894616007208
 20
428.8528696834483753
 30
0.0
 11
5892.4732745275996422
 21
428.5101846174484876
 31
0.0
  0
LINE
  5
2E082
  8
0
 10
5892.4732745275996422
 20
428.5101846174484876
 30
0.0
 11
5892.4732745275996422
 21
428.0255547494484176
 31
0.0
  0
LINE
  5
2E083
  8
0
 10
5892.4732745275996422
 20
428.0255547494484176
 30
0.0
 11
5892.1305894616007208
 21
427.6828696834484163
 31
0.0
  0
LINE
  5
2E084
  8
0
 10
5892.1305894616007208
 20
427.6828696834484163
 30
0.0
 11
5891.6459595936003097
 21
427.6828696834484163
 31
0.0
  0
LINE
  5
2E085
  8
0
 10
5891.6459595936003097
 20
427.6828696834484163
 30
0.0
 11
5891.3032745276013884
 21
428.0255547494484176
 31
0.0
  0
LINE
  5
2E086
  8
0
 10
5891.3032745276013884
 20
428.0255547494484176
 30
0.0
 11
5891.3032745276013884
 21
428.5101846174484876
 31
0.0
  0
LINE
  5
2E087
  8
0
 10
5891.3032745276013884
 20
428.5101846174484876
 30
0.0
 11
5891.2655577867626562
 21
428.5258063993301221
 31
0.0
  0
LINE
  5
2E088
  8
0
 10
5891.6459595936003097
 20
428.8528696834483753
 30
0.0
 11
5891.6299483511529615
 21
428.8904084167796782
 31
0.0
  0
LINE
  5
2E089
  8
0
 10
5892.1305894616007208
 20
428.8528696834483753
 30
0.0
 11
5892.1462121001150081
 21
428.8905860694470107
 31
0.0
  0
LINE
  5
2E08A
  8
0
 10
5892.4732745275996422
 20
428.5101846174484876
 30
0.0
 11
5892.5109683039127049
 21
428.5258076937433884
 31
0.0
  0
LINE
  5
2E08B
  8
0
 10
5892.4732745275996422
 20
428.0255547494484176
 30
0.0
 11
5892.5109672147345918
 21
428.0098922807503072
 31
0.0
  0
LINE
  5
2E08C
  8
0
 10
5892.1305894616007208
 20
427.6828696834484163
 30
0.0
 11
5892.1468319296036498
 21
427.6454455035258206
 31
0.0
  0
LINE
  5
2E08D
  8
0
 10
5891.6459595936003097
 20
427.6828696834484163
 30
0.0
 11
5891.6303369550241769
 21
427.6451532974771226
 31
0.0
  0
LINE
  5
2E08E
  8
0
 10
5891.3032745276013884
 20
428.0255547494484176
 30
0.0
 11
5891.2655500777027555
 21
428.0099271725705989
 31
0.0
  0
LINE
  5
2E08F
  8
0
 10
5888.5315812594508316
 20
428.8928696834483958
 30
0.0
 11
5889.0244953767505649
 21
428.8928696834483958
 31
0.0
  0
ARC
  5
2E090
  8
0
 10
5889.0244953767505649
 20
428.8628696834484799
 30
0.0
 40
0.0299999999999994
 50
45.0028742800963215
 51
90.0
  0
LINE
  5
2E091
  8
0
 10
5889.0457075159856686
 20
428.8840839510315277
 30
0.0
 11
5889.3942689950572458
 21
428.5355574418323954
 31
0.0
  0
ARC
  5
2E092
  8
0
 10
5889.3734593587623749
 20
428.5147457175744989
 30
0.0
 40
0.0294307463263295
 50
359.1526486582703228
 51
45.0028742800940265
  0
LINE
  5
2E093
  8
0
 10
5889.4028868866498669
 20
428.5143104800484934
 30
0.0
 11
5889.4030381436086827
 21
428.0213135561414788
 31
0.0
  0
ARC
  5
2E094
  8
0
 10
5889.3734527296628585
 20
428.0213462786718992
 30
0.0
 40
0.029585432043012
 50
314.5088201440015041
 51
359.9366288357688859
  0
LINE
  5
2E095
  8
0
 10
5889.394192681250388
 20
428.0002476484485214
 30
0.0
 11
5889.0449688533281005
 21
427.6509416931888836
 31
0.0
  0
ARC
  5
2E096
  8
0
 10
5889.0249052995277452
 20
427.6723813111328241
 30
0.0
 40
0.0293633003707343
 50
269.1683471964940964
 51
313.1010175120759982
  0
LINE
  5
2E097
  8
0
 10
5889.0244791038503536
 20
427.6430211039483993
 30
0.0
 11
5888.5315802435507067
 21
427.6428696834483958
 31
0.0
  0
ARC
  5
2E098
  8
0
 10
5888.5315812376611575
 20
427.6728696837619736
 30
0.0
 40
0.0300000003300266
 50
225.001443255643693
 51
269.9981013880242813
  0
LINE
  5
2E099
  8
0
 10
5888.5103685683507138
 20
427.6516559457484163
 30
0.0
 11
5888.1618163241537331
 21
428.0001906306304136
 31
0.0
  0
ARC
  5
2E09A
  8
0
 10
5888.1830065461181221
 20
428.0213819201654246
 30
0.0
 40
0.0299682541869731
 50
179.9422465530028035
 51
225.001443255643693
  0
LINE
  5
2E09B
  8
0
 10
5888.1530383071549295
 20
428.0214121277950881
 30
0.0
 11
5888.1530383071512915
 21
428.5143277470484122
 31
0.0
  0
ARC
  5
2E09C
  8
0
 10
5888.1830178879436062
 20
428.514330814723678
 30
0.0
 40
0.0299795809500056
 50
134.9821568224867008
 51
180.0058628185701934
  0
LINE
  5
2E09D
  8
0
 10
5888.1618257257514415
 20
428.5355361804485028
 30
0.0
 11
5888.5097654846522346
 21
428.8834803374501234
 31
0.0
  0
ARC
  5
2E09E
  8
0
 10
5888.5316570701952514
 20
428.86265482137361
 30
0.0
 40
0.0302149571813346
 50
90.1437579505142565
 51
136.4296055336010909
  0
LINE
  5
2E09F
  8
0
 10
5888.1930383071503456
 20
428.5101846174484876
 30
0.0
 11
5888.5357233731501765
 21
428.8528696834483753
 31
0.0
  0
LINE
  5
2E0A0
  8
0
 10
5888.5357233731501765
 20
428.8528696834483753
 30
0.0
 11
5889.0203532411496781
 21
428.8528696834483753
 31
0.0
  0
LINE
  5
2E0A1
  8
0
 10
5889.0203532411496781
 20
428.8528696834483753
 30
0.0
 11
5889.3630383071504184
 21
428.5101846174484876
 31
0.0
  0
LINE
  5
2E0A2
  8
0
 10
5889.3630383071504184
 20
428.5101846174484876
 30
0.0
 11
5889.3630383071504184
 21
428.0255547494484176
 31
0.0
  0
LINE
  5
2E0A3
  8
0
 10
5889.3630383071504184
 20
428.0255547494484176
 30
0.0
 11
5889.0203532411496781
 21
427.6828696834484163
 31
0.0
  0
LINE
  5
2E0A4
  8
0
 10
5889.0203532411496781
 20
427.6828696834484163
 30
0.0
 11
5888.5357233731501765
 21
427.6828696834484163
 31
0.0
  0
LINE
  5
2E0A5
  8
0
 10
5888.5357233731501765
 20
427.6828696834484163
 30
0.0
 11
5888.1930383071503456
 21
428.0255547494484176
 31
0.0
  0
LINE
  5
2E0A6
  8
0
 10
5888.1930383071503456
 20
428.0255547494484176
 30
0.0
 11
5888.1930383071503456
 21
428.5101846174484876
 31
0.0
  0
LINE
  5
2E0A7
  8
0
 10
5888.1930383071503456
 20
428.5101846174484876
 30
0.0
 11
5888.1553215663116134
 21
428.5258063993301221
 31
0.0
  0
LINE
  5
2E0A8
  8
0
 10
5888.5357233731501765
 20
428.8528696834483753
 30
0.0
 11
5888.5197121307028283
 21
428.8904084167796782
 31
0.0
  0
LINE
  5
2E0A9
  8
0
 10
5889.0203532411496781
 20
428.8528696834483753
 30
0.0
 11
5889.0359758796648748
 21
428.8905860694470107
 31
0.0
  0
LINE
  5
2E0AA
  8
0
 10
5889.3630383071504184
 20
428.5101846174484876
 30
0.0
 11
5889.4007320834616621
 21
428.5258076937433884
 31
0.0
  0
LINE
  5
2E0AB
  8
0
 10
5889.3630383071504184
 20
428.0255547494484176
 30
0.0
 11
5889.4007309942835491
 21
428.0098922807503072
 31
0.0
  0
LINE
  5
2E0AC
  8
0
 10
5889.0203532411496781
 20
427.6828696834484163
 30
0.0
 11
5889.036595709154426
 21
427.6454455035258206
 31
0.0
  0
LINE
  5
2E0AD
  8
0
 10
5888.5357233731501765
 20
427.6828696834484163
 30
0.0
 11
5888.5201007345749531
 21
427.6451532974771226
 31
0.0
  0
LINE
  5
2E0AE
  8
0
 10
5888.1930383071503456
 20
428.0255547494484176
 30
0.0
 11
5888.1553138572526223
 21
428.0099271725705989
 31
0.0
  0
LINE
  5
2E0AF
  8
0
 10
5904.2897735387796274
 20
407.8150556046450106
 30
0.0
 11
5904.3685136961539683
 21
407.7363154471448752
 31
0.0
  0
LINE
  5
2E0B0
  8
0
 10
5904.6244192079802815
 20
407.6770004865450119
 30
0.0
 11
5905.7267814127799284
 21
407.6770004865450119
 31
0.0
  0
LINE
  5
2E0B1
  8
0
 10
5904.6441042473798007
 20
407.6573154471449243
 30
0.0
 11
5905.7070963733804092
 21
407.6573154471449243
 31
0.0
  0
LINE
  5
2E0B2
  8
0
 10
5905.7267814127799284
 20
407.6770004865450119
 30
0.0
 11
5905.7267814127799284
 21
407.7363154471448752
 31
0.0
  0
LINE
  5
2E0B3
  8
0
 10
5905.7260869656802242
 20
407.6770004865450119
 30
0.0
 11
5905.7260869656802242
 21
407.7363154471448752
 31
0.0
  0
LINE
  5
2E0B4
  8
0
 10
5905.7253581698805647
 20
407.6770004865450119
 30
0.0
 11
5905.7253581698805647
 21
407.7363154471448752
 31
0.0
  0
LINE
  5
2E0B5
  8
0
 10
5905.722680847279662
 20
407.6770004865450119
 30
0.0
 11
5905.722680847279662
 21
407.7363154471448752
 31
0.0
  0
LINE
  5
2E0B6
  8
0
 10
5905.7210992731788792
 20
407.6770004865450119
 30
0.0
 11
5905.7210992731788792
 21
407.7363154471448752
 31
0.0
  0
LINE
  5
2E0B7
  8
0
 10
5905.7164594510813913
 20
407.6770004865450119
 30
0.0
 11
5905.7164594510813913
 21
407.7363154471448752
 31
0.0
  0
LINE
  5
2E0B8
  8
0
 10
5905.7140371351788417
 20
407.6770004865450119
 30
0.0
 11
5905.7140371351788417
 21
407.7363154471448752
 31
0.0
  0
LINE
  5
2E0B9
  8
0
 10
5905.7074701254814499
 20
407.6770004865450119
 30
0.0
 11
5905.7074701254814499
 21
407.7363154471448752
 31
0.0
  0
LINE
  5
2E0BA
  8
0
 10
5905.7042255031801687
 20
407.6770004865450119
 30
0.0
 11
5905.7042255031801687
 21
407.7363154471448752
 31
0.0
  0
LINE
  5
2E0BB
  8
0
 10
5905.6957812847804234
 20
407.6770004865450119
 30
0.0
 11
5905.6957812847804234
 21
407.7363154471448752
 31
0.0
  0
LINE
  5
2E0BC
  8
0
 10
5905.691739049680109
 20
407.6770004865450119
 30
0.0
 11
5905.691739049680109
 21
407.7363154471448752
 31
0.0
  0
LINE
  5
2E0BD
  8
0
 10
5905.6814818881803149
 20
407.6770004865450119
 30
0.0
 11
5905.6814818881803149
 21
407.7363154471448752
 31
0.0
  0
LINE
  5
2E0BE
  8
0
 10
5905.6766728039810914
 20
407.6770004865450119
 30
0.0
 11
5905.6766728039810914
 21
407.7363154471448752
 31
0.0
  0
LINE
  5
2E0BF
  8
0
 10
5905.6646807624802022
 20
407.6770004865450119
 30
0.0
 11
5905.6646807624802022
 21
407.7363154471448752
 31
0.0
  0
LINE
  5
2E0C0
  8
0
 10
5905.6591414292788613
 20
407.6770004865450119
 30
0.0
 11
5905.6591414292788613
 21
407.7363154471448752
 31
0.0
  0
LINE
  5
2E0C1
  8
0
 10
5905.6455057746798047
 20
407.6770004865450119
 30
0.0
 11
5905.6455057746798047
 21
407.7363154471448752
 31
0.0
  0
LINE
  5
2E0C2
  8
0
 10
5905.6395731538796099
 20
407.6770004865450119
 30
0.0
 11
5905.6395731538796099
 21
407.7363154471448752
 31
0.0
  0
LINE
  5
2E0C3
  8
0
 10
5905.6392783501796657
 20
407.6770004865450119
 30
0.0
 11
5905.6392783501796657
 21
407.7363154471448752
 31
0.0
  0
LINE
  5
2E0C4
  8
0
 10
5905.6241028577805992
 20
407.6770004865450119
 30
0.0
 11
5905.6241028577805992
 21
407.7363154471448752
 31
0.0
  0
LINE
  5
2E0C5
  8
0
 10
5905.6186266788790817
 20
407.6770004865450119
 30
0.0
 11
5905.6186266788790817
 21
407.7363154471448752
 31
0.0
  0
LINE
  5
2E0C6
  8
0
 10
5905.6172347363799418
 20
407.6770004865450119
 30
0.0
 11
5905.6172347363799418
 21
407.7363154471448752
 31
0.0
  0
LINE
  5
2E0C7
  8
0
 10
5905.6006349010804115
 20
407.6770004865450119
 30
0.0
 11
5905.6006349010804115
 21
407.7363154471448752
 31
0.0
  0
LINE
  5
2E0C8
  8
0
 10
5905.5956568411802436
 20
407.6770004865450119
 30
0.0
 11
5905.5956568411802436
 21
407.7363154471448752
 31
0.0
  0
LINE
  5
2E0C9
  8
0
 10
5905.5931783533796988
 20
407.6770004865450119
 30
0.0
 11
5905.5931783533796988
 21
407.7363154471448752
 31
0.0
  0
LINE
  5
2E0CA
  8
0
 10
5905.5752805097799865
 20
407.6770004865450119
 30
0.0
 11
5905.5752805097799865
 21
407.7363154471448752
 31
0.0
  0
LINE
  5
2E0CB
  8
0
 10
5905.5708384548797767
 20
407.6770004865450119
 30
0.0
 11
5905.5708384548797767
 21
407.7363154471448752
 31
0.0
  0
LINE
  5
2E0CC
  8
0
 10
5905.5672922845797075
 20
407.6770004865450119
 30
0.0
 11
5905.5672922845797075
 21
407.7363154471448752
 31
0.0
  0
LINE
  5
2E0CD
  8
0
 10
5905.5482326461797129
 20
407.6770004865450119
 30
0.0
 11
5905.5482326461797129
 21
407.7363154471448752
 31
0.0
  0
LINE
  5
2E0CE
  8
0
 10
5905.5443604029806011
 20
407.6770004865450119
 30
0.0
 11
5905.5443604029806011
 21
407.7363154471448752
 31
0.0
  0
LINE
  5
2E0CF
  8
0
 10
5905.5397735387796274
 20
407.6770004865450119
 30
0.0
 11
5905.5397735387796274
 21
407.7363154471448752
 31
0.0
  0
LINE
  5
2E0D0
  8
0
 10
5905.519697160780197
 20
407.6770004865450119
 30
0.0
 11
5905.519697160780197
 21
407.7363154471448752
 31
0.0
  0
LINE
  5
2E0D1
  8
0
 10
5905.5164241993797987
 20
407.6770004865450119
 30
0.0
 11
5905.5164241993797987
 21
407.7363154471448752
 31
0.0
  0
LINE
  5
2E0D2
  8
0
 10
5905.5108315499801392
 20
407.6770004865450119
 30
0.0
 11
5905.5108315499801392
 21
407.7363154471448752
 31
0.0
  0
LINE
  5
2E0D3
  8
0
 10
5905.4898912259814097
 20
407.6770004865450119
 30
0.0
 11
5905.4898912259814097
 21
407.7363154471448752
 31
0.0
  0
LINE
  5
2E0D4
  8
0
 10
5905.4872424555787802
 20
407.6770004865450119
 30
0.0
 11
5905.4872424555787802
 21
407.7363154471448752
 31
0.0
  0
LINE
  5
2E0D5
  8
0
 10
5905.4806865844802815
 20
407.6770004865450119
 30
0.0
 11
5905.4806865844802815
 21
407.7363154471448752
 31
0.0
  0
LINE
  5
2E0D6
  8
0
 10
5905.4590416827813897
 20
407.6770004865450119
 30
0.0
 11
5905.4590416827813897
 21
407.7363154471448752
 31
0.0
  0
LINE
  5
2E0D7
  8
0
 10
5905.4570372621810748
 20
407.6770004865450119
 30
0.0
 11
5905.4570372621810748
 21
407.7363154471448752
 31
0.0
  0
LINE
  5
2E0D8
  8
0
 10
5905.449568063480001
 20
407.6770004865450119
 30
0.0
 11
5905.449568063480001
 21
407.7363154471448752
 31
0.0
  0
LINE
  5
2E0D9
  8
0
 10
5905.4273833149800339
 20
407.6770004865450119
 30
0.0
 11
5905.4273833149800339
 21
407.7363154471448752
 31
0.0
  0
LINE
  5
2E0DA
  8
0
 10
5905.4260384989802333
 20
407.6770004865450119
 30
0.0
 11
5905.4260384989802333
 21
407.7363154471448752
 31
0.0
  0
LINE
  5
2E0DB
  8
0
 10
5905.41771281777892
 20
407.6770004865450119
 30
0.0
 11
5905.41771281777892
 21
407.7363154471448752
 31
0.0
  0
LINE
  5
2E0DC
  8
0
 10
5905.3951570617800826
 20
407.6770004865450119
 30
0.0
 11
5905.3951570617800826
 21
407.7363154471448752
 31
0.0
  0
LINE
  5
2E0DD
  8
0
 10
5905.3944820852811972
 20
407.6770004865450119
 30
0.0
 11
5905.3944820852811972
 21
407.7363154471448752
 31
0.0
  0
LINE
  5
2E0DE
  8
0
 10
5905.3853632850814392
 20
407.6770004865450119
 30
0.0
 11
5905.3853632850814392
 21
407.7363154471448752
 31
0.0
  0
LINE
  5
2E0DF
  8
0
 10
5905.3626081843804059
 20
407.6770004865450119
 30
0.0
 11
5905.3626081843804059
 21
407.7363154471448752
 31
0.0
  0
LINE
  5
2E0E0
  8
0
 10
5905.3299843995800984
 20
407.7363154471448752
 30
0.0
 11
5905.3299843995800984
 21
407.6770004865450119
 31
0.0
  0
LINE
  5
2E0E1
  8
0
 10
5905.3208543100799943
 20
407.7363154471448752
 30
0.0
 11
5905.3208543100799943
 21
407.6770004865450119
 31
0.0
  0
LINE
  5
2E0E2
  8
0
 10
5905.3201680443789883
 20
407.7363154471448752
 30
0.0
 11
5905.3201680443789883
 21
407.6770004865450119
 31
0.0
  0
LINE
  5
2E0E3
  8
0
 10
5905.2975339938811885
 20
407.7363154471448752
 30
0.0
 11
5905.2975339938811885
 21
407.6770004865450119
 31
0.0
  0
LINE
  5
2E0E4
  8
0
 10
5905.2891858201801369
 20
407.7363154471448752
 30
0.0
 11
5905.2891858201801369
 21
407.6770004865450119
 31
0.0
  0
LINE
  5
2E0E5
  8
0
 10
5905.287818511680598
 20
407.7363154471448752
 30
0.0
 11
5905.287818511680598
 21
407.6770004865450119
 31
0.0
  0
LINE
  5
2E0E6
  8
0
 10
5905.2655039345800105
 20
407.7363154471448752
 30
0.0
 11
5905.2655039345800105
 21
407.6770004865450119
 31
0.0
  0
LINE
  5
2E0E7
  8
0
 10
5905.2580012111802716
 20
407.7363154471448752
 30
0.0
 11
5905.2580012111802716
 21
407.6770004865450119
 31
0.0
  0
LINE
  5
2E0E8
  8
0
 10
5905.255963265981336
 20
407.7363154471448752
 30
0.0
 11
5905.255963265981336
 21
407.6770004865450119
 31
0.0
  0
LINE
  5
2E0E9
  8
0
 10
5905.2341379896797662
 20
407.7363154471448752
 30
0.0
 11
5905.2341379896797662
 21
407.6770004865450119
 31
0.0
  0
LINE
  5
2E0EA
  8
0
 10
5905.2275378169797477
 20
407.7363154471448752
 30
0.0
 11
5905.2275378169797477
 21
407.6770004865450119
 31
0.0
  0
LINE
  5
2E0EB
  8
0
 10
5905.2248447449810556
 20
407.7363154471448752
 30
0.0
 11
5905.2248447449810556
 21
407.6770004865450119
 31
0.0
  0
LINE
  5
2E0EC
  8
0
 10
5905.2036748730797626
 20
407.7363154471448752
 30
0.0
 11
5905.2036748730797626
 21
407.6770004865450119
 31
0.0
  0
LINE
  5
2E0ED
  8
0
 10
5905.1980274822799402
 20
407.7363154471448752
 30
0.0
 11
5905.1980274822799402
 21
407.6770004865450119
 31
0.0
  0
LINE
  5
2E0EE
  8
0
 10
5905.1946997793802439
 20
407.7363154471448752
 30
0.0
 11
5905.1946997793802439
 21
407.6770004865450119
 31
0.0
  0
LINE
  5
2E0EF
  8
0
 10
5905.174346427380442
 20
407.7363154471448752
 30
0.0
 11
5905.174346427380442
 21
407.6770004865450119
 31
0.0
  0
LINE
  5
2E0F0
  8
0
 10
5905.1696947985801671
 20
407.7363154471448752
 30
0.0
 11
5905.1696947985801671
 21
407.6770004865450119
 31
0.0
  0
LINE
  5
2E0F1
  8
0
 10
5905.1657577906798906
 20
407.7363154471448752
 30
0.0
 11
5905.1657577906798906
 21
407.6770004865450119
 31
0.0
  0
LINE
  5
2E0F2
  8
0
 10
5905.1463758598802087
 20
407.7363154471448752
 30
0.0
 11
5905.1463758598802087
 21
407.6770004865450119
 31
0.0
  0
LINE
  5
2E0F3
  8
0
 10
5905.1427553946814442
 20
407.7363154471448752
 30
0.0
 11
5905.1427553946814442
 21
407.6770004865450119
 31
0.0
  0
LINE
  5
2E0F4
  8
0
 10
5905.1382390448798105
 20
407.7363154471448752
 30
0.0
 11
5905.1382390448798105
 21
407.6770004865450119
 31
0.0
  0
LINE
  5
2E0F5
  8
0
 10
5905.1199760433801202
 20
407.7363154471448752
 30
0.0
 11
5905.1199760433801202
 21
407.6770004865450119
 31
0.0
  0
LINE
  5
2E0F6
  8
0
 10
5905.1174142957797812
 20
407.7363154471448752
 30
0.0
 11
5905.1174142957797812
 21
407.6770004865450119
 31
0.0
  0
LINE
  5
2E0F7
  8
0
 10
5905.1123529760798192
 20
407.7363154471448752
 30
0.0
 11
5905.1123529760798192
 21
407.6770004865450119
 31
0.0
  0
LINE
  5
2E0F8
  8
0
 10
5905.0953478964802343
 20
407.7363154471448752
 30
0.0
 11
5905.0953478964802343
 21
407.6770004865450119
 31
0.0
  0
LINE
  5
2E0F9
  8
0
 10
5905.0938643629797298
 20
407.7363154471448752
 30
0.0
 11
5905.0938643629797298
 21
407.6770004865450119
 31
0.0
  0
LINE
  5
2E0FA
  8
0
 10
5905.0882965929813508
 20
407.7363154471448752
 30
0.0
 11
5905.0882965929813508
 21
407.6770004865450119
 31
0.0
  0
LINE
  5
2E0FB
  8
0
 10
5905.0726788541787755
 20
407.7363154471448752
 30
0.0
 11
5905.0726788541787755
 21
407.6770004865450119
 31
0.0
  0
LINE
  5
2E0FC
  8
0
 10
5905.072284825279894
 20
407.7363154471448752
 30
0.0
 11
5905.072284825279894
 21
407.6770004865450119
 31
0.0
  0
LINE
  5
2E0FD
  8
0
 10
5905.0662529792798523
 20
407.7363154471448752
 30
0.0
 11
5905.0662529792798523
 21
407.6770004865450119
 31
0.0
  0
LINE
  5
2E0FE
  8
0
 10
5905.0521414416798507
 20
407.7363154471448752
 30
0.0
 11
5905.0521414416798507
 21
407.6770004865450119
 31
0.0
  0
LINE
  5
2E0FF
  8
0
 10
5905.0463899000787933
 20
407.7363154471448752
 30
0.0
 11
5905.0463899000787933
 21
407.6770004865450119
 31
0.0
  0
LINE
  5
2E100
  8
0
 10
5905.0338919609812365
 20
407.7363154471448752
 30
0.0
 11
5905.0338919609812365
 21
407.6770004865450119
 31
0.0
  0
LINE
  5
2E101
  8
0
 10
5905.0288585254802456
 20
407.7363154471448752
 30
0.0
 11
5905.0288585254802456
 21
407.6770004865450119
 31
0.0
  0
LINE
  5
2E102
  8
0
 10
5905.0180693017800877
 20
407.7363154471448752
 30
0.0
 11
5905.0180693017800877
 21
407.6770004865450119
 31
0.0
  0
LINE
  5
2E103
  8
0
 10
5905.0137922797803185
 20
407.7363154471448752
 30
0.0
 11
5905.0137922797803185
 21
407.6770004865450119
 31
0.0
  0
LINE
  5
2E104
  8
0
 10
5905.0047938839788912
 20
407.7363154471448752
 30
0.0
 11
5905.0047938839788912
 21
407.6770004865450119
 31
0.0
  0
LINE
  5
2E105
  8
0
 10
5905.0013058262811683
 20
407.7363154471448752
 30
0.0
 11
5905.0013058262811683
 21
407.6770004865450119
 31
0.0
  0
LINE
  5
2E106
  8
0
 10
5904.9941667414814219
 20
407.7363154471448752
 30
0.0
 11
5904.9941667414814219
 21
407.6770004865450119
 31
0.0
  0
LINE
  5
2E107
  8
0
 10
5904.9914941942797668
 20
407.7363154471448752
 30
0.0
 11
5904.9914941942797668
 21
407.6770004865450119
 31
0.0
  0
LINE
  5
2E108
  8
0
 10
5904.9862687533795906
 20
407.7363154471448752
 30
0.0
 11
5904.9862687533795906
 21
407.6770004865450119
 31
0.0
  0
LINE
  5
2E109
  8
0
 10
5904.9844320562797293
 20
407.7363154471448752
 30
0.0
 11
5904.9844320562797293
 21
407.6770004865450119
 31
0.0
  0
LINE
  5
2E10A
  8
0
 10
5904.9811600279799677
 20
407.7363154471448752
 30
0.0
 11
5904.9811600279799677
 21
407.6770004865450119
 31
0.0
  0
LINE
  5
2E10B
  8
0
 10
5904.9801731595798628
 20
407.7363154471448752
 30
0.0
 11
5904.9801731595798628
 21
407.6770004865450119
 31
0.0
  0
LINE
  5
2E10C
  8
0
 10
5904.9788794459800556
 20
407.7363154471448752
 30
0.0
 11
5904.9788794459800556
 21
407.6770004865450119
 31
0.0
  0
LINE
  5
2E10D
  8
0
 10
5904.9787499166795897
 20
407.7363154471448752
 30
0.0
 11
5904.9787499166795897
 21
407.6770004865450119
 31
0.0
  0
LINE
  5
2E10E
  8
0
 10
5905.7070963733804092
 20
407.6770004865450119
 30
0.0
 11
5905.7070963733804092
 21
407.6573154471449243
 31
0.0
  0
LINE
  5
2E10F
  8
0
 10
5904.9756536908798807
 20
407.7363154471448752
 30
0.0
 11
5904.9756536908798807
 21
407.6770004865450119
 31
0.0
  0
LINE
  5
2E110
  8
0
 10
5904.9665236013797767
 20
407.7363154471448752
 30
0.0
 11
5904.9665236013797767
 21
407.6770004865450119
 31
0.0
  0
LINE
  5
2E111
  8
0
 10
5904.9658373356796801
 20
407.7363154471448752
 30
0.0
 11
5904.9658373356796801
 21
407.6770004865450119
 31
0.0
  0
LINE
  5
2E112
  8
0
 10
5904.9432032851800614
 20
407.7363154471448752
 30
0.0
 11
5904.9432032851800614
 21
407.6770004865450119
 31
0.0
  0
LINE
  5
2E113
  8
0
 10
5904.9348551114808288
 20
407.7363154471448752
 30
0.0
 11
5904.9348551114808288
 21
407.6770004865450119
 31
0.0
  0
LINE
  5
2E114
  8
0
 10
5904.9334878029803804
 20
407.7363154471448752
 30
0.0
 11
5904.9334878029803804
 21
407.6770004865450119
 31
0.0
  0
LINE
  5
2E115
  8
0
 10
5904.9111732258797929
 20
407.7363154471448752
 30
0.0
 11
5904.9111732258797929
 21
407.6770004865450119
 31
0.0
  0
LINE
  5
2E116
  8
0
 10
5904.9036705024809635
 20
407.7363154471448752
 30
0.0
 11
5904.9036705024809635
 21
407.6770004865450119
 31
0.0
  0
LINE
  5
2E117
  8
0
 10
5904.9016325572802089
 20
407.7363154471448752
 30
0.0
 11
5904.9016325572802089
 21
407.6770004865450119
 31
0.0
  0
LINE
  5
2E118
  8
0
 10
5904.8798072809795485
 20
407.7363154471448752
 30
0.0
 11
5904.8798072809795485
 21
407.6770004865450119
 31
0.0
  0
LINE
  5
2E119
  8
0
 10
5904.8732071082813491
 20
407.7363154471448752
 30
0.0
 11
5904.8732071082813491
 21
407.6770004865450119
 31
0.0
  0
LINE
  5
2E11A
  8
0
 10
5904.8705140362799284
 20
407.7363154471448752
 30
0.0
 11
5904.8705140362799284
 21
407.6770004865450119
 31
0.0
  0
LINE
  5
2E11B
  8
0
 10
5904.849344164381364
 20
407.7363154471448752
 30
0.0
 11
5904.849344164381364
 21
407.6770004865450119
 31
0.0
  0
LINE
  5
2E11C
  8
0
 10
5904.843696773578813
 20
407.7363154471448752
 30
0.0
 11
5904.843696773578813
 21
407.6770004865450119
 31
0.0
  0
LINE
  5
2E11D
  8
0
 10
5904.8403690706791167
 20
407.7363154471448752
 30
0.0
 11
5904.8403690706791167
 21
407.6770004865450119
 31
0.0
  0
LINE
  5
2E11E
  8
0
 10
5904.8200157186802244
 20
407.7363154471448752
 30
0.0
 11
5904.8200157186802244
 21
407.6770004865450119
 31
0.0
  0
LINE
  5
2E11F
  8
0
 10
5904.815364089880859
 20
407.7363154471448752
 30
0.0
 11
5904.815364089880859
 21
407.6770004865450119
 31
0.0
  0
LINE
  5
2E120
  8
0
 10
5904.8114270819796729
 20
407.7363154471448752
 30
0.0
 11
5904.8114270819796729
 21
407.6770004865450119
 31
0.0
  0
LINE
  5
2E121
  8
0
 10
5904.7920451511799911
 20
407.7363154471448752
 30
0.0
 11
5904.7920451511799911
 21
407.6770004865450119
 31
0.0
  0
LINE
  5
2E122
  8
0
 10
5904.788424685980317
 20
407.7363154471448752
 30
0.0
 11
5904.788424685980317
 21
407.6770004865450119
 31
0.0
  0
LINE
  5
2E123
  8
0
 10
5904.7839083360813675
 20
407.7363154471448752
 30
0.0
 11
5904.7839083360813675
 21
407.6770004865450119
 31
0.0
  0
LINE
  5
2E124
  8
0
 10
5904.7656453346808121
 20
407.7363154471448752
 30
0.0
 11
5904.7656453346808121
 21
407.6770004865450119
 31
0.0
  0
LINE
  5
2E125
  8
0
 10
5904.7630835870813826
 20
407.7363154471448752
 30
0.0
 11
5904.7630835870813826
 21
407.6770004865450119
 31
0.0
  0
LINE
  5
2E126
  8
0
 10
5904.7580222673814205
 20
407.7363154471448752
 30
0.0
 11
5904.7580222673814205
 21
407.6770004865450119
 31
0.0
  0
LINE
  5
2E127
  8
0
 10
5904.7410171877800167
 20
407.7363154471448752
 30
0.0
 11
5904.7410171877800167
 21
407.6770004865450119
 31
0.0
  0
LINE
  5
2E128
  8
0
 10
5904.7395336542804216
 20
407.7363154471448752
 30
0.0
 11
5904.7395336542804216
 21
407.6770004865450119
 31
0.0
  0
LINE
  5
2E129
  8
0
 10
5904.7339658842802237
 20
407.7363154471448752
 30
0.0
 11
5904.7339658842802237
 21
407.6770004865450119
 31
0.0
  0
LINE
  5
2E12A
  8
0
 10
5904.7183481454803768
 20
407.7363154471448752
 30
0.0
 11
5904.7183481454803768
 21
407.6770004865450119
 31
0.0
  0
LINE
  5
2E12B
  8
0
 10
5904.7179541165805858
 20
407.7363154471448752
 30
0.0
 11
5904.7179541165805858
 21
407.6770004865450119
 31
0.0
  0
LINE
  5
2E12C
  8
0
 10
5904.7119222705814536
 20
407.7363154471448752
 30
0.0
 11
5904.7119222705814536
 21
407.6770004865450119
 31
0.0
  0
LINE
  5
2E12D
  8
0
 10
5904.697810732979633
 20
407.7363154471448752
 30
0.0
 11
5904.697810732979633
 21
407.6770004865450119
 31
0.0
  0
LINE
  5
2E12E
  8
0
 10
5904.6920591913803946
 20
407.7363154471448752
 30
0.0
 11
5904.6920591913803946
 21
407.6770004865450119
 31
0.0
  0
LINE
  5
2E12F
  8
0
 10
5904.6795612522791998
 20
407.7363154471448752
 30
0.0
 11
5904.6795612522791998
 21
407.6770004865450119
 31
0.0
  0
LINE
  5
2E130
  8
0
 10
5904.6745278167800279
 20
407.7363154471448752
 30
0.0
 11
5904.6745278167800279
 21
407.6770004865450119
 31
0.0
  0
LINE
  5
2E131
  8
0
 10
5904.66373859307987
 20
407.7363154471448752
 30
0.0
 11
5904.66373859307987
 21
407.6770004865450119
 31
0.0
  0
LINE
  5
2E132
  8
0
 10
5904.6594615710801008
 20
407.7363154471448752
 30
0.0
 11
5904.6594615710801008
 21
407.6770004865450119
 31
0.0
  0
LINE
  5
2E133
  8
0
 10
5904.6504631752795831
 20
407.7363154471448752
 30
0.0
 11
5904.6504631752795831
 21
407.6770004865450119
 31
0.0
  0
LINE
  5
2E134
  8
0
 10
5904.6469751175800411
 20
407.7363154471448752
 30
0.0
 11
5904.6469751175800411
 21
407.6770004865450119
 31
0.0
  0
LINE
  5
2E135
  8
0
 10
5904.6398360327812043
 20
407.7363154471448752
 30
0.0
 11
5904.6398360327812043
 21
407.6770004865450119
 31
0.0
  0
LINE
  5
2E136
  8
0
 10
5904.6371634855795492
 20
407.7363154471448752
 30
0.0
 11
5904.6371634855795492
 21
407.6770004865450119
 31
0.0
  0
LINE
  5
2E137
  8
0
 10
5904.6319380446802825
 20
407.7363154471448752
 30
0.0
 11
5904.6319380446802825
 21
407.6770004865450119
 31
0.0
  0
LINE
  5
2E138
  8
0
 10
5904.6301013475813306
 20
407.7363154471448752
 30
0.0
 11
5904.6301013475813306
 21
407.6770004865450119
 31
0.0
  0
LINE
  5
2E139
  8
0
 10
5904.6268293192797501
 20
407.7363154471448752
 30
0.0
 11
5904.6268293192797501
 21
407.6770004865450119
 31
0.0
  0
LINE
  5
2E13A
  8
0
 10
5904.6258424508796452
 20
407.7363154471448752
 30
0.0
 11
5904.6258424508796452
 21
407.6770004865450119
 31
0.0
  0
LINE
  5
2E13B
  8
0
 10
5904.624548737279838
 20
407.7363154471448752
 30
0.0
 11
5904.624548737279838
 21
407.6770004865450119
 31
0.0
  0
LINE
  5
2E13C
  8
0
 10
5904.6244192079802815
 20
407.7363154471448752
 30
0.0
 11
5904.6244192079802815
 21
407.6770004865450119
 31
0.0
  0
LINE
  5
2E13D
  8
0
 10
5904.6441042473798007
 20
407.6770004865450119
 30
0.0
 11
5904.6441042473798007
 21
407.6573154471449243
 31
0.0
  0
LINE
  5
2E13E
  8
0
 10
5871.9866239323800983
 20
412.9134808014450186
 30
0.0
 11
5871.9866239323800983
 21
412.8150556046450106
 31
0.0
  0
LINE
  5
2E13F
  8
0
 10
5876.0614270819805824
 20
440.6497012739449133
 30
0.0
 11
5876.0614270819805824
 21
440.5512760770449745
 31
0.0
  0
LINE
  5
2E140
  8
0
 10
5876.7700884993801083
 20
440.6497012739449133
 30
0.0
 11
5876.7700884993801083
 21
440.5512760770449745
 31
0.0
  0
LINE
  5
2E141
  8
0
 10
5876.789773538679583
 20
440.6497012739449133
 30
0.0
 11
5876.789773538679583
 21
440.5512760770449745
 31
0.0
  0
LINE
  5
2E142
  8
0
 10
5877.5378050347799217
 20
440.6497012739449133
 30
0.0
 11
5877.5378050347799217
 21
440.5512760770449745
 31
0.0
  0
LINE
  5
2E143
  8
0
 10
5881.0892746134150002
 20
440.6497012739449133
 30
0.0
 11
5881.12186468830987
 21
440.5512760770449745
 31
0.0
  0
LINE
  5
2E144
  8
0
 10
5881.6726557297370164
 20
440.6497012739449133
 30
0.0
 11
5881.7384634207746785
 21
440.5512760770449745
 31
0.0
  0
LINE
  5
2E145
  8
0
 10
5882.6706320102211976
 20
440.6497012739449133
 30
0.0
 11
5882.743019018124869
 21
440.5512760770449745
 31
0.0
  0
LINE
  5
2E146
  8
0
 10
5887.7740255071803404
 20
440.6497012739449133
 30
0.0
 11
5887.7740255071803404
 21
440.5512760770449745
 31
0.0
  0
LINE
  5
2E147
  8
0
 10
5888.6899407895944023
 20
440.6497012739449133
 30
0.0
 11
5888.6952110826987337
 21
440.5512760770449745
 31
0.0
  0
LINE
  5
2E148
  8
0
 10
5888.9974835035800425
 20
440.6497012739449133
 30
0.0
 11
5889.0026417495846545
 21
440.5512760770449745
 31
0.0
  0
LINE
  5
2E149
  8
0
 10
5891.0904865578586396
 20
440.6497012739449133
 30
0.0
 11
5891.0856204152096325
 21
440.5512760770449745
 31
0.0
  0
LINE
  5
2E14A
  8
0
 10
5891.6686777470804373
 20
440.6497012739449133
 30
0.0
 11
5891.6635195010749158
 21
440.5512760770449745
 31
0.0
  0
LINE
  5
2E14B
  8
0
 10
5891.9762204613552967
 20
440.6497012739449133
 30
0.0
 11
5891.9709501670067766
 21
440.5512760770449745
 31
0.0
  0
LINE
  5
2E14C
  8
0
 10
5897.9955749719965752
 20
440.6497012739449133
 30
0.0
 11
5897.9231030359787837
 21
440.5512760770449745
 31
0.0
  0
LINE
  5
2E14D
  8
0
 10
5898.9935568297041755
 20
440.6497012739449133
 30
0.0
 11
5898.9276511040243349
 21
440.5512760770449745
 31
0.0
  0
LINE
  5
2E14E
  8
0
 10
5899.5767977890436669
 20
440.6497012739449133
 30
0.0
 11
5899.5443213615799323
 21
440.5512760770449745
 31
0.0
  0
LINE
  5
2E14F
  8
0
 10
5833.955127869379794
 20
442.2245044235950218
 30
0.0
 11
5906.8685136961803437
 21
442.2245044235950218
 31
0.0
  0
LINE
  5
2E150
  8
0
 10
5906.9078837749802915
 20
442.8937957621949977
 30
0.0
 11
5906.9078837749802915
 21
442.263874502294982
 31
0.0
  0
LINE
  5
2E151
  8
0
 10
5906.8685136961803437
 20
446.9089138723949191
 30
0.0
 11
5906.8685136961803437
 21
442.9331658408949011
 31
0.0
  0
LINE
  5
2E152
  8
0
 10
5906.8285136961803801
 20
446.9489138723449173
 30
0.0
 11
5906.8685136961803437
 21
446.9089138723448968
 31
0.0
  0
LINE
  5
2E153
  8
0
 10
5906.9078837749802915
 20
442.8937957621949977
 30
0.0
 11
5906.8685136961803437
 21
442.9331658408949011
 31
0.0
  0
LINE
  5
2E154
  8
0
 10
5906.8291436174804403
 20
442.8937957621949977
 30
0.0
 11
5906.8291436174804403
 21
442.263874502294982
 31
0.0
  0
LINE
  5
2E155
  8
0
 10
5906.9078837749802915
 20
442.263874502294982
 30
0.0
 11
5906.8685136961803437
 21
442.2245044235950218
 31
0.0
  0
LINE
  5
2E156
  8
0
 10
5906.8685136961803437
 20
442.2245044235950218
 30
0.0
 11
5906.8291436174804403
 21
442.263874502294982
 31
0.0
  0
LINE
  5
2E157
  8
0
 10
5906.8685136961803437
 20
442.9331658408949011
 30
0.0
 11
5906.8291436174804403
 21
442.8937957621949977
 31
0.0
  0
ENDSEC
  0
EOF
