  0
SECTION
  2
HEADER
  9
$ACADVER
  1
AC1009
  9
$INSBASE
 10
353.2281053444220902
 20
146.2172497783217864
 30
0.0
  9
$EXTMIN
 10
349.2239960214827192
 20
144.0381750488394061
 30
-0.0000000349181948
  9
$EXTMAX
 10
357.5715882911279095
 20
152.4223580979812027
 30
0.0000000814935746
  9
$LIMMIN
 10
0.0
 20
0.0
  9
$LIMMAX
 10
11.6929133858000007
 20
8.2677165353999982
  9
$ORTHOMODE
 70
     0
  9
$REGENMODE
 70
     1
  9
$FILLMODE
 70
     1
  9
$QTEXTMODE
 70
     0
  9
$MIRRTEXT
 70
     0
  9
$DRAGMODE
 70
     2
  9
$LTSCALE
 40
0.6431102362
  9
$OSMODE
 70
  4095
  9
$ATTMODE
 70
     1
  9
$TEXTSIZE
 40
0.2
  9
$TRACEWID
 40
0.05
  9
$TEXTSTYLE
  7
STANDARD
  9
$CLAYER
  8
0
  9
$CELTYPE
  6
BYLAYER
  9
$CECOLOR
 62
   256
  9
$DIMSCALE
 40
1.0
  9
$DIMASZ
 40
0.1875
  9
$DIMEXO
 40
0.0625
  9
$DIMDLI
 40
0.4443307087
  9
$DIMRND
 40
0.0
  9
$DIMDLE
 40
0.0
  9
$DIMEXE
 40
0.125
  9
$DIMTP
 40
0.01
  9
$DIMTM
 40
0.01
  9
$DIMTXT
 40
0.15625
  9
$DIMCEN
 40
0.1052362205
  9
$DIMTSZ
 40
0.0
  9
$DIMTOL
 70
     1
  9
$DIMLIM
 70
     0
  9
$DIMTIH
 70
     1
  9
$DIMTOH
 70
     1
  9
$DIMSE1
 70
     0
  9
$DIMSE2
 70
     0
  9
$DIMTAD
 70
     0
  9
$DIMZIN
 70
     0
  9
$DIMBLK
  1
_FILLED
  9
$DIMASO
 70
     1
  9
$DIMSHO
 70
     1
  9
$DIMPOST
  1

  9
$DIMAPOST
  1

  9
$DIMALT
 70
     1
  9
$DIMALTD
 70
     2
  9
$DIMALTF
 40
25.3999999999999986
  9
$DIMLFAC
 40
1.0
  9
$DIMTOFL
 70
     0
  9
$DIMTVP
 40
0.0
  9
$DIMTIX
 70
     0
  9
$DIMSOXD
 70
     0
  9
$DIMSAH
 70
     0
  9
$DIMBLK1
  1

  9
$DIMBLK2
  1

  9
$DIMSTYLE
  2
STANDARD
  9
$DIMCLRD
 70
     0
  9
$DIMCLRE
 70
     0
  9
$DIMCLRT
 70
     0
  9
$DIMTFAC
 40
1.0
  9
$DIMGAP
 40
0.09
  9
$LUNITS
 70
     2
  9
$LUPREC
 70
     4
  9
$SKETCHINC
 40
0.1
  9
$FILLETRAD
 40
0.0
  9
$AUNITS
 70
     0
  9
$AUPREC
 70
     0
  9
$MENU
  1
.
  9
$ELEVATION
 40
0.0
  9
$PELEVATION
 40
0.0
  9
$THICKNESS
 40
0.0
  9
$LIMCHECK
 70
     0
  9
$BLIPMODE
 70
     0
  9
$CHAMFERA
 40
0.0
  9
$CHAMFERB
 40
0.0
  9
$SKPOLY
 70
     0
  9
$TDCREATE
 40
2459868.5124768521636724
  9
$TDUPDATE
 40
2460319.485636574216187
  9
$TDINDWG
 40
0.4044212963
  9
$TDUSRTIMER
 40
0.4044212963
  9
$USRTIMER
 70
     1
  9
$ANGBASE
 50
0.0
  9
$ANGDIR
 70
     0
  9
$PDMODE
 70
     0
  9
$PDSIZE
 40
0.3125
  9
$PLINEWID
 40
0.0
  9
$COORDS
 70
     1
  9
$SPLFRAME
 70
     0
  9
$SPLINETYPE
 70
     6
  9
$SPLINESEGS
 70
     8
  9
$ATTDIA
 70
     1
  9
$ATTREQ
 70
     1
  9
$HANDLING
 70
     1
  9
$HANDSEED
  5
6D87
  9
$SURFTAB1
 70
     6
  9
$SURFTAB2
 70
     6
  9
$SURFTYPE
 70
     6
  9
$SURFU
 70
     6
  9
$SURFV
 70
     6
  9
$UCSNAME
  2

  9
$UCSORG
 10
0.0
 20
0.0
 30
0.0
  9
$UCSXDIR
 10
1.0
 20
0.0
 30
0.0
  9
$UCSYDIR
 10
0.0
 20
1.0
 30
0.0
  9
$PUCSNAME
  2

  9
$PUCSORG
 10
0.0
 20
0.0
 30
0.0
  9
$PUCSXDIR
 10
1.0
 20
0.0
 30
0.0
  9
$PUCSYDIR
 10
0.0
 20
1.0
 30
0.0
  9
$USERI1
 70
     0
  9
$USERI2
 70
     0
  9
$USERI3
 70
     0
  9
$USERI4
 70
     0
  9
$USERI5
 70
     0
  9
$USERR1
 40
0.0
  9
$USERR2
 40
0.0
  9
$USERR3
 40
0.0
  9
$USERR4
 40
0.0
  9
$USERR5
 40
0.0
  9
$WORLDVIEW
 70
     1
  9
$SHADEDGE
 70
     3
  9
$SHADEDIF
 70
    70
  9
$TILEMODE
 70
     1
  9
$MAXACTVP
 70
    64
  9
$PLIMCHECK
 70
     0
  9
$PEXTMIN
 10
1.0000000000000000E+20
 20
1.0000000000000000E+20
 30
1.0000000000000000E+20
  9
$PEXTMAX
 10
-1.0000000000000000E+20
 20
-1.0000000000000000E+20
 30
-1.0000000000000000E+20
  9
$PLIMMIN
 10
0.0
 20
0.0
  9
$PLIMMAX
 10
12.0
 20
9.0
  9
$UNITMODE
 70
     0
  9
$VISRETAIN
 70
     1
  9
$PLINEGEN
 70
     0
  9
$PSLTSCALE
 70
     1
  0
ENDSEC
  0
SECTION
  2
TABLES
  0
TABLE
  2
VPORT
 70
     1
  0
VPORT
  2
*ACTIVE
 70
     0
 10
0.0
 20
0.0
 11
1.0
 21
1.0
 12
353.397792156305286
 22
148.2302665734102902
 13
0.0
 23
0.0
 14
1.0
 24
1.0
 15
0.0
 25
0.0
 16
0.0
 26
0.0
 36
1.0
 17
0.0
 27
0.0
 37
0.0
 40
8.4538067680073627
 41
2.4474358974358972
 42
50.0
 43
0.0
 44
0.0
 50
0.0
 51
0.0
 71
     0
 72
   100
 73
     1
 74
     1
 75
     0
 76
     0
 77
     0
 78
     0
  0
ENDTAB
  0
TABLE
  2
LTYPE
 70
     1
  0
LTYPE
  2
CONTINUOUS
 70
     0
  3
Solid line
 72
    65
 73
     0
 40
0.0
  0
ENDTAB
  0
TABLE
  2
LAYER
 70
     2
  0
LAYER
  2
0
 70
     0
 62
     7
  6
CONTINUOUS
  0
LAYER
  2
DEFPOINTS
 70
     0
 62
     7
  6
CONTINUOUS
  0
ENDTAB
  0
TABLE
  2
STYLE
 70
     1
  0
STYLE
  2
STANDARD
 70
     0
 40
0.0
 41
0.8
 50
0.0
 71
     0
 42
0.2
  3
txt
  4

  0
ENDTAB
  0
TABLE
  2
VIEW
 70
     0
  0
ENDTAB
  0
TABLE
  2
UCS
 70
     0
  0
ENDTAB
  0
TABLE
  2
APPID
 70
    12
  0
APPID
  2
ACAD
 70
     0
  0
APPID
  2
ACAD_DSTYLE_DIMRADIAL_EXTENSION
 70
     0
  0
APPID
  2
ACAD_NAV_VCDISPLAY
 70
     0
  0
APPID
  2
ACAD_MLEADERVER
 70
     0
  0
APPID
  2
ACAD_EXEMPT_FROM_CAD_STANDARDS
 70
     0
  0
APPID
  2
ACAECLAYERSTANDARD
 70
     0
  0
APPID
  2
ACCMTRANSPARENCY
 70
     0
  0
APPID
  2
ACAD_DSTYLE_DIMJAG
 70
     0
  0
APPID
  2
ACAD_DSTYLE_DIMTALN
 70
     0
  0
APPID
  2
ACDBATTR
 70
     0
  0
APPID
  2
ACADANNOTATIVE
 70
     0
  0
APPID
  2
DCO15
 70
     0
  0
ENDTAB
  0
TABLE
  2
DIMSTYLE
 70
     1
  0
DIMSTYLE
  2
STANDARD
 70
     0
  3

  4

  5
_FILLED
  6
_FILLED
  7
_FILLED
 40
1.0
 41
0.1875
 42
0.0625
 43
0.38
 44
0.125
 45
0.0
 46
0.0
 47
0.01
 48
0.01
140
0.15625
141
0.09
142
0.0
143
25.3999999999999986
144
1.0
145
0.0
146
1.0
147
0.09
 71
     1
 72
     0
 73
     1
 74
     1
 75
     0
 76
     0
 77
     0
 78
     4
170
     1
171
     2
172
     0
173
     0
174
     0
175
     0
176
     0
177
     0
178
     0
  0
ENDTAB
  0
ENDSEC
  0
SECTION
  2
BLOCKS
  0
BLOCK
  8
0
  2
$MODEL_SPACE
 70
     0
 10
0.0
 20
0.0
 30
0.0
  3
$MODEL_SPACE
  1

  0
ENDBLK
  5
21
  8
0
  0
BLOCK
 67
     1
  8
0
  2
$PAPER_SPACE
 70
     0
 10
0.0
 20
0.0
 30
0.0
  3
$PAPER_SPACE
  1

  0
ENDBLK
  5
1D
 67
     1
  8
0
  0
BLOCK
  8
0
  2
_FILLED
 70
     0
 10
0.0
 20
0.0
 30
0.0
  3
_FILLED
  1

  0
SOLID
  5
212
  8
0
  6
BYBLOCK
 62
     0
 10
0.0
 20
0.0
 30
0.0
 11
-1.0
 21
0.1666666667
 31
0.0
 12
-1.0
 22
-0.1666666667
 32
0.0
 13
-1.0
 23
-0.1666666667
 33
0.0
  0
ENDBLK
  5
213
  8
0
  6
BYBLOCK
 62
     0
  0
ENDSEC
  0
SECTION
  2
ENTITIES
  0
LINE
  5
D45
  8
0
 10
-1.607698385787991
 20
273788.254113320785109
 30
0.0
 11
-1.607698385787991
 21
273788.2541133213089779
 31
0.0
  0
ATTDEF
  5
44DA
  8
DEFPOINTS
 10
353.224511775452072
 20
146.221533504889095
 30
0.0
 40
0.001
  1
K-33462T
  3

  2
MODELNUMBER
 70
     0
1001
ACDBATTR
1070
     0
1070
     1
  0
ATTDEF
  5
44DB
  8
DEFPOINTS
 10
353.2243859657958183
 20
146.2198666645099081
 30
0.0
 40
0.001
  1
BELAY
  3

  2
TRADENAME
 70
     0
1001
ACDBATTR
1070
     0
1070
     1
  0
ATTDEF
  5
44DC
  8
DEFPOINTS
 10
353.224511775452072
 20
146.2182001715557931
 30
0.0
 40
0.001
  1
TOILET PAPER HOLDER
  3

  2
PRODUCT
 70
     0
1001
ACDBATTR
1070
     0
1070
     1
  0
LINE
  5
6C0A
  8
0
 10
349.7094711468998867
 20
144.1369448843034888
 30
0.0
 11
349.7094711468998867
 21
145.5260448843035022
 31
0.0
  0
LINE
  5
6C0B
  8
0
 10
349.228157334999878
 20
146.7172521946137067
 30
0.0
 11
349.228157334999878
 21
145.7148521064229101
 31
0.0
  0
LINE
  5
6C0C
  8
0
 10
350.978157334999878
 20
146.7172498515218138
 30
0.0
 11
350.978157334999878
 21
145.7171582956171108
 31
0.0
  0
LINE
  5
6C0D
  8
0
 10
350.4968585383999198
 20
148.8984884612200972
 30
0.0
 11
350.4968585383999198
 21
146.8922503535220017
 31
0.0
  0
LINE
  5
6C0E
  8
0
 10
350.4968585383999198
 20
146.8725653668217888
 30
0.0
 11
350.4968585383999198
 21
145.5660748056035061
 31
0.0
  0
ARC
  5
6C0F
  8
0
 10
350.1031573350056192
 20
146.7172498515149073
 30
0.0
 40
0.8750000000088242
 50
116.7390050697997026
 51
179.9998465499895133
  0
ARC
  5
6C10
  8
0
 10
350.1027946418740271
 20
145.7170281385353974
 30
0.0
 40
0.87464001377242
 50
180.1425473140805877
 51
243.2757175361248017
  0
ARC
  5
6C11
  8
0
 10
350.1032357579661038
 20
145.7172029018778971
 30
0.0
 40
0.8749215781708766
 50
309.8746058682681905
 51
0.0029211183961901
  0
ARC
  5
6C12
  8
0
 10
350.103157334999878
 20
146.717249851521899
 30
0.0
 40
0.874999999999992
 50
359.9999999999984084
 51
63.2547720990987514
  0
LINE
  5
6C13
  8
0
 10
349.7094711468998867
 20
146.8922524624217942
 30
0.0
 11
350.4968585383999198
 21
146.8922524624217942
 31
0.0
  0
ARC
  5
6C14
  8
0
 10
349.7290942993905105
 20
146.8726292597094982
 30
0.0
 40
0.01962330276722
 50
89.8170338159713566
 51
179.7757680373356095
  0
ARC
  5
6C15
  8
0
 10
350.4771585383999195
 20
146.872552462421794
 30
0.0
 40
0.0197
 50
359.9999999999885745
 51
90.0000000000065086
  0
LINE
  5
6C16
  8
0
 10
349.7094711468998867
 20
148.8968811842877074
 30
0.0
 11
349.7094711468998867
 21
146.8922524624217942
 31
0.0
  0
LINE
  5
6C17
  8
0
 10
349.7094711468998867
 20
146.8727060569972025
 30
0.0
 11
349.7094711468998867
 21
145.5660748056035061
 31
0.0
  0
ARC
  5
6C18
  8
0
 10
353.2281762093592761
 20
148.8964262066035928
 30
0.0
 40
3.5187050918742711
 50
0.076887338930129
 51
179.9925915072558098
  0
ARC
  5
6C19
  8
0
 10
353.2281671367467766
 20
148.8958524056897943
 30
0.0
 40
2.7313098704088019
 50
0.0552975997083895
 51
179.9447024002915896
  0
LINE
  5
6C1A
  8
0
 10
349.8006711468997878
 20
144.0457448843035024
 30
0.0
 11
350.4056585383997913
 21
144.0457448843035024
 31
0.0
  0
LINE
  5
6C1B
  8
0
 10
349.7291711468998869
 20
145.0654299237035048
 30
0.0
 11
350.4771585383999195
 21
145.0654299237035048
 31
0.0
  0
LINE
  5
6C1C
  8
0
 10
349.7291711468998869
 20
145.0457448843035024
 30
0.0
 11
357.5368931056999031
 21
145.0457448843035024
 31
0.0
  0
LINE
  5
6C1D
  8
0
 10
349.7291711468998869
 20
144.5457448843035024
 30
0.0
 11
357.5368931056999031
 21
144.5457448843035024
 31
0.0
  0
LINE
  5
6C1E
  8
0
 10
349.7291711468998869
 20
144.5260598450034877
 30
0.0
 11
350.4771585383999195
 21
144.5260598450034877
 31
0.0
  0
ARC
  5
6C1F
  8
0
 10
349.7291711468998869
 20
145.085129923703505
 30
0.0
 40
0.0197
 50
180.0
 51
270.0
  0
ARC
  5
6C20
  8
0
 10
349.7291711468998869
 20
145.0260448843035022
 30
0.0
 40
0.0197
 50
90.0
 51
180.0
  0
ARC
  5
6C21
  8
0
 10
349.7291711468998869
 20
144.5654448843035027
 30
0.0
 40
0.0197
 50
180.0
 51
269.9999999999968168
  0
ARC
  5
6C22
  8
0
 10
349.8006711468999015
 20
144.1369448843034888
 30
0.0
 40
0.0912
 50
180.0
 51
269.9999999999968168
  0
ARC
  5
6C23
  8
0
 10
349.7291711468998869
 20
144.5063598450034874
 30
0.0
 40
0.0197
 50
90.0000000000032543
 51
180.0
  0
LINE
  5
6C24
  8
0
 10
349.9063215405998903
 20
144.5457448843035024
 30
0.0
 11
349.9063215405998903
 21
144.5339338607035131
 31
0.0
  0
ARC
  5
6C25
  8
0
 10
349.9142144678147019
 20
144.5339338607035131
 30
0.0
 40
0.0078929272148027
 50
180.0000000000015916
 51
266.0329425277769815
  0
LINE
  5
6C26
  8
0
 10
349.9063215405998903
 20
145.0457448843035024
 30
0.0
 11
349.9063215405998903
 21
145.057555908003593
 31
0.0
  0
ARC
  5
6C27
  8
0
 10
349.9142432885622043
 20
145.057555908003593
 30
0.0
 40
0.0079217479623512
 50
96.2929088276235348
 51
179.9999999999951115
  0
ARC
  5
6C28
  8
0
 10
350.0827480745999196
 20
145.0654299237035048
 30
0.0
 40
0.0196850394000094
 50
180.0000000000015916
 51
203.5781782876474892
  0
ARC
  5
6C29
  8
0
 10
350.082898454942324
 20
145.0654955550650129
 30
0.0
 40
0.0198491178049957
 50
203.5781782876460966
 51
264.2911579382443961
  0
LINE
  5
6C2A
  8
0
 10
349.7291711468998869
 20
145.5463748056035058
 30
0.0
 11
350.4771585383999195
 21
145.5463748056035058
 31
0.0
  0
LINE
  5
6C2B
  8
0
 10
349.7291711468998869
 20
145.5457448843035024
 30
0.0
 11
350.4771585383999195
 21
145.5457448843035024
 31
0.0
  0
LINE
  5
6C2C
  8
0
 10
349.9449858116998939
 20
145.5463748056035058
 30
0.0
 11
349.9449527989999069
 21
145.5457448843035024
 31
0.0
  0
LINE
  5
6C2D
  8
0
 10
349.9646438733998934
 20
145.5463748056035058
 30
0.0
 11
349.9646108606999064
 21
145.5457448843035024
 31
0.0
  0
ARC
  5
6C2E
  8
0
 10
349.7291711468998869
 20
145.5260448843035022
 30
0.0
 40
0.0197
 50
90.0
 51
179.9999999999984084
  0
ARC
  5
6C2F
  8
0
 10
349.7291711468998869
 20
145.5660748056035061
 30
0.0
 40
0.0197
 50
180.0
 51
269.9999999999968168
  0
LINE
  5
6C30
  8
0
 10
350.4968585383999198
 20
144.1369448843034888
 30
0.0
 11
350.4968585383999198
 21
144.5457448843035024
 31
0.0
  0
LINE
  5
6C31
  8
0
 10
350.4968585383999198
 20
145.0457448843035024
 30
0.0
 11
350.4968585383999198
 21
145.5260448843035022
 31
0.0
  0
ARC
  5
6C32
  8
0
 10
350.4771585383999195
 20
145.085129923703505
 30
0.0
 40
0.0197
 50
270.0
 51
0.0
  0
ARC
  5
6C33
  8
0
 10
350.4056585383997913
 20
144.1369448843034888
 30
0.0
 40
0.0912
 50
270.0000000000032969
 51
359.9999999999984084
  0
ARC
  5
6C34
  8
0
 10
350.4771585383999195
 20
144.5063598450034874
 30
0.0
 40
0.0197
 50
0.0
 51
89.9999999999967457
  0
LINE
  5
6C35
  8
0
 10
350.3000081446999161
 20
144.5457448843035024
 30
0.0
 11
350.3000081446999161
 21
144.5339338607035131
 31
0.0
  0
ARC
  5
6C36
  8
0
 10
350.2921152174851045
 20
144.5339338607035131
 30
0.0
 40
0.0078929272148027
 50
273.9670574722229048
 51
359.9999999999968168
  0
LINE
  5
6C37
  8
0
 10
350.3000081446999161
 20
145.0457448843035024
 30
0.0
 11
350.3000081446999161
 21
145.057555908003593
 31
0.0
  0
ARC
  5
6C38
  8
0
 10
350.2920863967374885
 20
145.057555908003593
 30
0.0
 40
0.0079217479623512
 50
0.0000000000048853
 51
83.7070911723764794
  0
ARC
  5
6C39
  8
0
 10
350.1235816106997731
 20
145.0654299237035048
 30
0.0
 40
0.0196850394000094
 50
336.4218217123524823
 51
359.9999999999984084
  0
ARC
  5
6C3A
  8
0
 10
350.1234312303574825
 20
145.0654955550650129
 30
0.0
 40
0.0198491178049957
 50
275.7088420617554902
 51
336.4218217123540171
  0
LINE
  5
6C3B
  8
0
 10
350.2613438735999125
 20
145.5463748056035058
 30
0.0
 11
350.2613768862997858
 21
145.5457448843035024
 31
0.0
  0
LINE
  5
6C3C
  8
0
 10
350.241685811899913
 20
145.5463748056035058
 30
0.0
 11
350.2417188245999
 21
145.5457448843035024
 31
0.0
  0
ARC
  5
6C3D
  8
0
 10
350.4771585383999195
 20
145.5260448843035022
 30
0.0
 40
0.0197
 50
0.0000000000016284
 51
90.0
  0
ARC
  5
6C3E
  8
0
 10
350.4771585383999195
 20
145.5660748056035061
 30
0.0
 40
0.0197
 50
270.0000000000032969
 51
0.0
  0
LINE
  5
6C3F
  8
0
 10
356.7468631265937233
 20
144.1369448843034888
 30
0.0
 11
356.7468631265937233
 21
144.5457448843035024
 31
0.0
  0
LINE
  5
6C40
  8
0
 10
356.7468631265937233
 20
145.0457448843035024
 30
0.0
 11
356.7468631265937233
 21
145.5260448843035022
 31
0.0
  0
LINE
  5
6C41
  8
0
 10
357.2281769384936752
 20
146.7172521946137067
 30
0.0
 11
357.2281769384936752
 21
145.7148521064229101
 31
0.0
  0
LINE
  5
6C42
  8
0
 10
355.4781769384936752
 20
146.7172498515218138
 30
0.0
 11
355.4781769384936752
 21
145.7171582956171108
 31
0.0
  0
LINE
  5
6C43
  8
0
 10
355.9594757350936902
 20
148.8984884612200972
 30
0.0
 11
355.9594757350936902
 21
146.8922503535220017
 31
0.0
  0
LINE
  5
6C44
  8
0
 10
355.9594757350936902
 20
146.8725653668217888
 30
0.0
 11
355.9594757350936902
 21
145.5660748056035061
 31
0.0
  0
ARC
  5
6C45
  8
0
 10
356.3531769384879908
 20
146.7172498515149073
 30
0.0
 40
0.8750000000088242
 50
0.0001534500104934
 51
63.2609949302002832
  0
ARC
  5
6C46
  8
0
 10
356.3535396316195829
 20
145.7170281385353974
 30
0.0
 40
0.87464001377242
 50
309.8703833370148004
 51
359.8574526859194975
  0
ARC
  5
6C47
  8
0
 10
356.3530985155275062
 20
145.7172029018778971
 30
0.0
 40
0.8749215781708766
 50
179.9970788816038123
 51
230.1253941317318095
  0
ARC
  5
6C48
  8
0
 10
356.3531769384936752
 20
146.717249851521899
 30
0.0
 40
0.874999999999992
 50
116.7452279009011988
 51
180.0
  0
LINE
  5
6C49
  8
0
 10
356.7468631265937233
 20
146.8922524624217942
 30
0.0
 11
355.9594757350938039
 21
146.8922524624217942
 31
0.0
  0
ARC
  5
6C4A
  8
0
 10
356.7272399741030995
 20
146.8726292597094982
 30
0.0
 40
0.01962330276722
 50
0.2242319626627863
 51
90.1829661840286576
  0
ARC
  5
6C4B
  8
0
 10
355.9791757350936905
 20
146.872552462421794
 30
0.0
 40
0.0197
 50
89.9999999999934914
 51
180.0000000000098055
  0
LINE
  5
6C4C
  8
0
 10
356.7468781329998819
 20
148.9011480865063959
 30
0.0
 11
356.7468631265937233
 21
146.8922524624217942
 31
0.0
  0
LINE
  5
6C4D
  8
0
 10
356.7468631265937233
 20
146.8727060569972025
 30
0.0
 11
356.7468631265937233
 21
145.5660748056035061
 31
0.0
  0
LINE
  5
6C4E
  8
0
 10
356.6556631265937085
 20
144.0457448843035024
 30
0.0
 11
356.050675735093705
 21
144.0457448843035024
 31
0.0
  0
ARC
  5
6C4F
  8
0
 10
356.6556631265937085
 20
144.1369448843034888
 30
0.0
 40
0.0912
 50
270.0000000000032969
 51
359.9999999999984084
  0
LINE
  5
6C50
  8
0
 10
356.7271631265937231
 20
145.5463748056035058
 30
0.0
 11
355.9791757350938042
 21
145.5463748056035058
 31
0.0
  0
LINE
  5
6C51
  8
0
 10
356.7271631265937231
 20
145.5457448843035024
 30
0.0
 11
355.9791757350938042
 21
145.5457448843035024
 31
0.0
  0
LINE
  5
6C52
  8
0
 10
356.5113484617937161
 20
145.5463748056035058
 30
0.0
 11
356.5113814744937031
 21
145.5457448843035024
 31
0.0
  0
LINE
  5
6C53
  8
0
 10
356.4916904000937166
 20
145.5463748056035058
 30
0.0
 11
356.4917234127937036
 21
145.5457448843035024
 31
0.0
  0
ARC
  5
6C54
  8
0
 10
356.7271631265937231
 20
145.5260448843035022
 30
0.0
 40
0.0197
 50
0.0000000000016284
 51
90.0
  0
ARC
  5
6C55
  8
0
 10
356.7271631265937231
 20
145.5660748056035061
 30
0.0
 40
0.0197
 50
270.0000000000032969
 51
0.0
  0
LINE
  5
6C56
  8
0
 10
355.9594757350938039
 20
144.1369448843034888
 30
0.0
 11
355.9594757350938039
 21
144.5457448843035024
 31
0.0
  0
LINE
  5
6C57
  8
0
 10
355.9594757350938039
 20
145.0457448843035024
 30
0.0
 11
355.9594757350938039
 21
145.5260448843035022
 31
0.0
  0
ARC
  5
6C58
  8
0
 10
356.050675735093705
 20
144.1369448843034888
 30
0.0
 40
0.0912
 50
180.0
 51
269.9999999999968168
  0
LINE
  5
6C59
  8
0
 10
356.1949903998936975
 20
145.5463748056035058
 30
0.0
 11
356.1949573871937105
 21
145.5457448843035024
 31
0.0
  0
LINE
  5
6C5A
  8
0
 10
356.214648461593697
 20
145.5463748056035058
 30
0.0
 11
356.21461544889371
 21
145.5457448843035024
 31
0.0
  0
ARC
  5
6C5B
  8
0
 10
355.9791757350938042
 20
145.5260448843035022
 30
0.0
 40
0.0197
 50
90.0
 51
179.9999999999984084
  0
ARC
  5
6C5C
  8
0
 10
355.9791757350938042
 20
145.5660748056035061
 30
0.0
 40
0.0197
 50
180.0
 51
269.9999999999968168
  0
LINE
  5
6C5D
  8
0
 10
357.5565931056999034
 20
145.0260448843035022
 30
0.0
 11
357.5565931056999034
 21
144.5654448843035027
 31
0.0
  0
ARC
  5
6C5E
  8
0
 10
357.5368931056999031
 20
145.0260448843035022
 30
0.0
 40
0.0197
 50
0.0
 51
90.0
  0
ARC
  5
6C5F
  8
0
 10
357.5368931056999031
 20
144.5654448843035027
 30
0.0
 40
0.0197
 50
270.0
 51
0.0
  0
LINE
  5
6C60
  8
0
 10
355.9791757350936905
 20
145.1441700812034981
 30
0.0
 11
356.7271631265937231
 21
145.1441700812034981
 31
0.0
  0
LINE
  5
6C61
  8
0
 10
355.9791757350938042
 20
144.4591307111035121
 30
0.0
 11
356.7271631265937231
 21
144.4591307111035121
 31
0.0
  0
ARC
  5
6C62
  8
0
 10
355.9791757350938042
 20
144.4394307111035118
 30
0.0
 40
0.0197
 50
90.0
 51
180.0
  0
ARC
  5
6C63
  8
0
 10
356.7271631265937231
 20
144.4394307111035118
 30
0.0
 40
0.0197
 50
0.0
 51
89.9999999999967457
  0
ARC
  5
6C64
  8
0
 10
355.9791757350936905
 20
145.1638700812034983
 30
0.0
 40
0.0197
 50
180.0
 51
270.0
  0
ARC
  5
6C65
  8
0
 10
356.7271631265937231
 20
145.1638700812034983
 30
0.0
 40
0.0197
 50
270.0000000000032969
 51
359.9999999999984084
  0
LINE
  5
6C66
  8
0
 10
355.9919035094824835
 20
145.1306839376277082
 30
0.0
 11
356.0548436669823786
 21
145.067743780227687
 31
0.0
  0
LINE
  5
6C67
  8
0
 10
356.0604298105494081
 20
145.065429923803606
 30
0.0
 11
356.6444364174572002
 21
145.065429923803606
 31
0.0
  0
LINE
  5
6C68
  8
0
 10
356.7129627184285141
 20
145.1306839376321989
 30
0.0
 11
356.6500225610284929
 21
145.0677437802322061
 31
0.0
  0
ARC
  5
6C69
  8
0
 10
356.7073765748571077
 20
145.1362700812034916
 30
0.0
 40
0.0079
 50
315.0
 51
90.0000000000032543
  0
ARC
  5
6C6A
  8
0
 10
355.9974896530493993
 20
145.1362700812034916
 30
0.0
 40
0.0079
 50
90.0
 51
225.0000000454789983
  0
ARC
  5
6C6B
  8
0
 10
356.0604298105494081
 20
145.0733299238034988
 30
0.0
 40
0.0079
 50
225.0000000454789983
 51
270.0
  0
ARC
  5
6C6C
  8
0
 10
356.6444364174572002
 20
145.0733299238034988
 30
0.0
 40
0.0079
 50
270.0000000000032969
 51
314.9999999999964757
  0
LINE
  5
6C6D
  8
0
 10
356.0542807322660224
 20
144.5355568092018927
 30
0.0
 11
355.991345148389712
 21
144.4726166517019124
 31
0.0
  0
LINE
  5
6C6E
  8
0
 10
356.0598670788031086
 20
144.5378708686035054
 30
0.0
 11
356.6438736849503925
 21
144.5378708686035054
 31
0.0
  0
ARC
  5
6C6F
  8
0
 10
356.0598670788031086
 20
144.529970868603499
 30
0.0
 40
0.0079
 50
89.9999999999967457
 51
135.0020818096411119
  0
LINE
  5
6C70
  8
0
 10
356.649459828517422
 20
144.5355570121793107
 30
0.0
 11
356.7123999861173047
 21
144.4726168546793872
 31
0.0
  0
ARC
  5
6C71
  8
0
 10
356.6438736849503925
 20
144.529970868603499
 30
0.0
 40
0.0079
 50
45.0000000454790126
 51
90.0000000000065086
  0
ARC
  5
6C72
  8
0
 10
356.7068138425502752
 20
144.4670307111036038
 30
0.0
 40
0.0079
 50
269.9999999999968168
 51
45.0000000454824587
  0
ARC
  5
6C73
  8
0
 10
355.9969314949266845
 20
144.4670307111036038
 30
0.0
 40
0.0079
 50
135.0020818096411119
 51
270.0
  0
LINE
  5
6C74
  8
0
 10
356.1511215819999165
 20
144.5378708686035054
 30
0.0
 11
356.1585567230342235
 21
144.5393290197690987
 31
0.0
  0
LINE
  5
6C75
  8
0
 10
356.1585567230342235
 20
144.5393290197690987
 30
0.0
 11
356.175099166559221
 21
144.5457448843035024
 31
0.0
  0
LINE
  5
6C76
  8
0
 10
356.5286415968404867
 20
144.5457448843035024
 30
0.0
 11
356.5451840412097795
 21
144.5393290196035991
 31
0.0
  0
LINE
  5
6C77
  8
0
 10
356.5451840412097795
 20
144.5393290196035991
 30
0.0
 11
356.5526191813999048
 21
144.5378708686035054
 31
0.0
  0
LINE
  5
6C78
  8
0
 10
356.5451840412097795
 20
144.5393290196035991
 30
0.0
 11
356.1585567230342235
 21
144.5393290197690987
 31
0.0
  0
ENDSEC
  0
EOF
