  0
SECTION
  2
HEADER
  9
$ACADVER
  1
AC1009
  9
$INSBASE
 10
4355.1873188820745781
 20
159.4777095317571138
 30
0.0
  9
$EXTMIN
 10
4339.8072828881031455
 20
156.338822673772512
 30
-0.0015258207003583
  9
$EXTMAX
 10
4370.4853062518086517
 20
159.4781074027303873
 30
0.0000000349246037
  9
$LIMMIN
 10
0.0
 20
0.0
  9
$LIMMAX
 10
11.6929133858000007
 20
8.2677165353999982
  9
$ORTHOMODE
 70
     0
  9
$REGENMODE
 70
     1
  9
$FILLMODE
 70
     1
  9
$QTEXTMODE
 70
     0
  9
$MIRRTEXT
 70
     0
  9
$DRAGMODE
 70
     2
  9
$LTSCALE
 40
0.6431102362
  9
$OSMODE
 70
  4095
  9
$ATTMODE
 70
     1
  9
$TEXTSIZE
 40
0.2
  9
$TRACEWID
 40
0.05
  9
$TEXTSTYLE
  7
STANDARD
  9
$CLAYER
  8
0
  9
$CELTYPE
  6
BYLAYER
  9
$CECOLOR
 62
   256
  9
$DIMSCALE
 40
1.0
  9
$DIMASZ
 40
0.1875
  9
$DIMEXO
 40
0.0625
  9
$DIMDLI
 40
0.4443307087
  9
$DIMRND
 40
0.0
  9
$DIMDLE
 40
0.0
  9
$DIMEXE
 40
0.125
  9
$DIMTP
 40
0.01
  9
$DIMTM
 40
0.01
  9
$DIMTXT
 40
2.0
  9
$DIMCEN
 40
0.1052362205
  9
$DIMTSZ
 40
0.0
  9
$DIMTOL
 70
     1
  9
$DIMLIM
 70
     0
  9
$DIMTIH
 70
     1
  9
$DIMTOH
 70
     1
  9
$DIMSE1
 70
     0
  9
$DIMSE2
 70
     0
  9
$DIMTAD
 70
     0
  9
$DIMZIN
 70
     0
  9
$DIMBLK
  1

  9
$DIMASO
 70
     1
  9
$DIMSHO
 70
     1
  9
$DIMPOST
  1
\X
  9
$DIMAPOST
  1

  9
$DIMALT
 70
     1
  9
$DIMALTD
 70
     2
  9
$DIMALTF
 40
25.3999999999999986
  9
$DIMLFAC
 40
1.0
  9
$DIMTOFL
 70
     0
  9
$DIMTVP
 40
0.0
  9
$DIMTIX
 70
     0
  9
$DIMSOXD
 70
     0
  9
$DIMSAH
 70
     0
  9
$DIMBLK1
  1

  9
$DIMBLK2
  1

  9
$DIMSTYLE
  2
STANDARD
  9
$DIMCLRD
 70
     0
  9
$DIMCLRE
 70
     0
  9
$DIMCLRT
 70
     0
  9
$DIMTFAC
 40
1.0
  9
$DIMGAP
 40
0.09
  9
$LUNITS
 70
     2
  9
$LUPREC
 70
     4
  9
$SKETCHINC
 40
0.1
  9
$FILLETRAD
 40
0.0
  9
$AUNITS
 70
     0
  9
$AUPREC
 70
     0
  9
$MENU
  1
.
  9
$ELEVATION
 40
0.0
  9
$PELEVATION
 40
0.0
  9
$THICKNESS
 40
0.0
  9
$LIMCHECK
 70
     0
  9
$BLIPMODE
 70
     0
  9
$CHAMFERA
 40
0.0
  9
$CHAMFERB
 40
0.0
  9
$SKPOLY
 70
     0
  9
$TDCREATE
 40
2458060.468368056230247
  9
$TDUPDATE
 40
2460306.7912037041969597
  9
$TDINDWG
 40
0.3878774306
  9
$TDUSRTIMER
 40
0.3878774306
  9
$USRTIMER
 70
     1
  9
$ANGBASE
 50
0.0
  9
$ANGDIR
 70
     0
  9
$PDMODE
 70
     0
  9
$PDSIZE
 40
0.3125
  9
$PLINEWID
 40
0.0
  9
$COORDS
 70
     1
  9
$SPLFRAME
 70
     0
  9
$SPLINETYPE
 70
     6
  9
$SPLINESEGS
 70
     8
  9
$ATTDIA
 70
     1
  9
$ATTREQ
 70
     1
  9
$HANDLING
 70
     1
  9
$HANDSEED
  5
C300
  9
$SURFTAB1
 70
     6
  9
$SURFTAB2
 70
     6
  9
$SURFTYPE
 70
     6
  9
$SURFU
 70
     6
  9
$SURFV
 70
     6
  9
$UCSNAME
  2

  9
$UCSORG
 10
0.0
 20
0.0
 30
0.0
  9
$UCSXDIR
 10
1.0
 20
0.0
 30
0.0
  9
$UCSYDIR
 10
0.0
 20
1.0
 30
0.0
  9
$PUCSNAME
  2

  9
$PUCSORG
 10
0.0
 20
0.0
 30
0.0
  9
$PUCSXDIR
 10
1.0
 20
0.0
 30
0.0
  9
$PUCSYDIR
 10
0.0
 20
1.0
 30
0.0
  9
$USERI1
 70
     0
  9
$USERI2
 70
     0
  9
$USERI3
 70
     0
  9
$USERI4
 70
     0
  9
$USERI5
 70
     0
  9
$USERR1
 40
0.0
  9
$USERR2
 40
0.0
  9
$USERR3
 40
0.0
  9
$USERR4
 40
0.0
  9
$USERR5
 40
0.0
  9
$WORLDVIEW
 70
     1
  9
$SHADEDGE
 70
     3
  9
$SHADEDIF
 70
    70
  9
$TILEMODE
 70
     1
  9
$MAXACTVP
 70
    64
  9
$PLIMCHECK
 70
     0
  9
$PEXTMIN
 10
1.0000000000000000E+20
 20
1.0000000000000000E+20
 30
1.0000000000000000E+20
  9
$PEXTMAX
 10
-1.0000000000000000E+20
 20
-1.0000000000000000E+20
 30
-1.0000000000000000E+20
  9
$PLIMMIN
 10
0.0
 20
0.0
  9
$PLIMMAX
 10
12.0
 20
9.0
  9
$UNITMODE
 70
     0
  9
$VISRETAIN
 70
     1
  9
$PLINEGEN
 70
     0
  9
$PSLTSCALE
 70
     1
  0
ENDSEC
  0
SECTION
  2
TABLES
  0
TABLE
  2
VPORT
 70
     1
  0
VPORT
  2
*ACTIVE
 70
     0
 10
0.0
 20
0.0
 11
1.0
 21
1.0
 12
90.1399469137058844
 22
53.6044527396675008
 13
0.0
 23
0.0
 14
1.0
 24
1.0
 15
0.0
 25
0.0
 16
0.0
 26
0.0
 36
122.0237731519760018
 17
4265.00634765625
 27
104.3040122985839986
 37
0.0
 40
14.5106072102974206
 41
2.1211111111111101
 42
50.0
 43
0.0
 44
0.0
 50
0.0
 51
0.0
 71
     0
 72
   100
 73
     1
 74
     1
 75
     0
 76
     0
 77
     0
 78
     0
  0
ENDTAB
  0
TABLE
  2
LTYPE
 70
     2
  0
LTYPE
  2
CONTINUOUS
 70
     0
  3
Solid line
 72
    65
 73
     0
 40
0.0
  0
LTYPE
  2
PHANTOM2
 70
     0
  3
___ _ _ ___ _ _ ___ _ _ ___ _ _
 72
    65
 73
     6
 40
1.25
 49
0.625
 49
-0.125
 49
0.125
 49
-0.125
 49
0.125
 49
-0.125
  0
ENDTAB
  0
TABLE
  2
LAYER
 70
     2
  0
LAYER
  2
0
 70
     0
 62
   255
  6
CONTINUOUS
  0
LAYER
  2
DEFPOINTS
 70
     0
 62
     7
  6
CONTINUOUS
  0
ENDTAB
  0
TABLE
  2
STYLE
 70
     1
  0
STYLE
  2
STANDARD
 70
     0
 40
0.0
 41
0.8
 50
0.0
 71
     0
 42
0.2
  3
txt
  4

  0
ENDTAB
  0
TABLE
  2
VIEW
 70
     0
  0
ENDTAB
  0
TABLE
  2
UCS
 70
     0
  0
ENDTAB
  0
TABLE
  2
APPID
 70
    10
  0
APPID
  2
ACAD
 70
     0
  0
APPID
  2
ACAD_MLEADERVER
 70
     0
  0
APPID
  2
ACAD_EXEMPT_FROM_CAD_STANDARDS
 70
     0
  0
APPID
  2
ACAD_NAV_VCDISPLAY
 70
     0
  0
APPID
  2
ACAECLAYERSTANDARD
 70
     0
  0
APPID
  2
ACCMTRANSPARENCY
 70
     0
  0
APPID
  2
ACAD_DSTYLE_DIMJAG
 70
     0
  0
APPID
  2
ACAD_DSTYLE_DIMTALN
 70
     0
  0
APPID
  2
ACDBATTR
 70
     0
  0
APPID
  2
DCO15
 70
     0
  0
ENDTAB
  0
TABLE
  2
DIMSTYLE
 70
     1
  0
DIMSTYLE
  2
STANDARD
 70
     0
  3

  4

  5

  6

  7

 40
1.0
 41
0.1875
 42
0.0625
 43
0.38
 44
0.125
 45
0.0
 46
0.0
 47
0.01
 48
0.01
140
0.15625
141
0.09
142
0.0
143
25.3999999999999986
144
1.0
145
0.0
146
1.0
147
0.09
 71
     1
 72
     0
 73
     1
 74
     1
 75
     0
 76
     0
 77
     0
 78
     4
170
     0
171
     2
172
     0
173
     0
174
     0
175
     0
176
     0
177
     0
178
     0
  0
ENDTAB
  0
ENDSEC
  0
SECTION
  2
BLOCKS
  0
BLOCK
  8
0
  2
$MODEL_SPACE
 70
     0
 10
0.0
 20
0.0
 30
0.0
  3
$MODEL_SPACE
  1

  0
ENDBLK
  5
21
  8
0
  0
BLOCK
 67
     1
  8
0
  2
$PAPER_SPACE
 70
     0
 10
0.0
 20
0.0
 30
0.0
  3
$PAPER_SPACE
  1

  0
ENDBLK
  5
1D
 67
     1
  8
0
  0
ENDSEC
  0
SECTION
  2
ENTITIES
  0
ATTDEF
  5
9852
  8
DEFPOINTS
 10
4355.1820945753415799
 20
159.4764121362798051
 30
0.0
 40
0.001
  1
K-33463T
  3

  2
MODELNUMBER
 70
     0
1001
ACDBATTR
1070
     0
1070
     1
  0
ATTDEF
  5
9853
  8
DEFPOINTS
 10
4355.1820945753415799
 20
159.4747454696131115
 30
0.0
 40
0.001
  1
BELAY
  3

  2
TRADENAME
 70
     0
1001
ACDBATTR
1070
     0
1070
     1
  0
ATTDEF
  5
9854
  8
DEFPOINTS
 10
4355.1820945753415799
 20
159.4730788029463895
 30
0.0
 40
0.001
  1
GRAB BAR
  3

  2
PRODUCT
 70
     0
1001
ACDBATTR
1070
     0
1070
     1
  0
LINE
  5
C149
  8
0
 10
4370.3851988964561315
 20
157.5840488656571097
 30
0.0
 11
4370.3851988964561315
 21
156.7375905980570963
 31
0.0
  0
LINE
  5
C14A
  8
0
 10
4369.991498896455596
 20
157.9777488656571052
 30
0.0
 11
4364.862320707174149
 21
157.9777488656571052
 31
0.0
  0
LINE
  5
C14B
  8
0
 10
4363.5123207070746503
 20
157.9777488656571052
 30
0.0
 11
4346.8623170570735965
 21
157.9777488656571052
 31
0.0
  0
LINE
  5
C14C
  8
0
 10
4369.991498896455596
 20
156.343889265906995
 30
0.0
 11
4364.862320707174149
 21
156.343889265906995
 31
0.0
  0
LINE
  5
C14D
  8
0
 10
4364.8426207071743193
 20
156.3438892659071087
 30
0.0
 11
4363.5320207070753895
 21
156.343889265906995
 31
0.0
  0
LINE
  5
C14E
  8
0
 10
4363.5123207070746503
 20
156.343889265906995
 30
0.0
 11
4346.8623170570735965
 21
156.343889265906995
 31
0.0
  0
LINE
  5
C14F
  8
0
 10
4365.5623180230741127
 20
159.4777095317571138
 30
0.0
 11
4362.8123180230741127
 21
159.4777095317571138
 31
0.0
  0
LINE
  5
C150
  8
0
 10
4362.8517180230737722
 20
159.2027095317571082
 30
0.0
 11
4365.5229180230744532
 21
159.2027095317571082
 31
0.0
  0
LINE
  5
C151
  8
0
 10
4362.8123180230741127
 20
159.2421095317571087
 30
0.0
 11
4362.8123180230741127
 21
159.4777095317571138
 31
0.0
  0
ARC
  5
C152
  8
0
 10
4362.8517180230737722
 20
159.2421095317571087
 30
0.0
 40
0.0394
 50
179.9999999999951115
 51
270.0
  0
LINE
  5
C153
  8
0
 10
4365.5623180230741127
 20
159.2421095317571087
 30
0.0
 11
4365.5623180230741127
 21
159.4777103862570868
 31
0.0
  0
ARC
  5
C154
  8
0
 10
4365.5229180230744532
 20
159.2421095317571087
 30
0.0
 40
0.0394
 50
270.0
 51
0.0000000000097707
  0
ARC
  5
C155
  8
0
 10
4369.991498896455596
 20
157.5840488656571097
 30
0.0
 40
0.3937
 50
0.0
 51
90.0
  0
ARC
  5
C156
  8
0
 10
4369.9914966223241208
 20
156.7375915400332076
 30
0.0
 40
0.3937022741327256
 50
270.0003309560470939
 51
359.9998629135213832
  0
LINE
  5
C157
  8
0
 10
4363.5123207070746503
 20
156.343889265906995
 30
0.0
 11
4363.5123207070746503
 21
159.2027095317571082
 31
0.0
  0
LINE
  5
C158
  8
0
 10
4364.862320707174149
 20
156.343889265906995
 30
0.0
 11
4364.862320707174149
 21
159.2027095317571082
 31
0.0
  0
ARC
  5
C159
  8
0
 10
4364.8426184328664021
 20
156.363591540106313
 30
0.0
 40
0.0197022743304614
 50
270.0066138682474275
 51
359.9972604460813272
  0
ARC
  5
C15A
  8
0
 10
4363.5319588688880685
 20
156.3635274319470057
 30
0.0
 40
0.0196382634001376
 50
179.8157088698540065
 51
270.1804168158043922
  0
LINE
  5
C15B
  8
0
 10
4339.9894388676930248
 20
157.5840488656571097
 30
0.0
 11
4339.9894388676930248
 21
156.7375905980570963
 31
0.0
  0
LINE
  5
C15C
  8
0
 10
4340.3831388676917413
 20
157.9777488656571052
 30
0.0
 11
4345.5123170569740978
 21
157.9777488656571052
 31
0.0
  0
LINE
  5
C15D
  8
0
 10
4340.3831388676917413
 20
156.343889265906995
 30
0.0
 11
4345.5123170569740978
 21
156.343889265906995
 31
0.0
  0
LINE
  5
C15E
  8
0
 10
4345.5320170569739275
 20
156.343889265906995
 30
0.0
 11
4346.8426170570737668
 21
156.3438892659071087
 31
0.0
  0
LINE
  5
C15F
  8
0
 10
4344.8123197410741341
 20
159.4777095317571138
 30
0.0
 11
4347.5623197410741341
 21
159.4777095317571138
 31
0.0
  0
LINE
  5
C160
  8
0
 10
4347.5229197410735651
 20
159.2027095317571082
 30
0.0
 11
4344.8517197410737936
 21
159.2027095317571082
 31
0.0
  0
LINE
  5
C161
  8
0
 10
4347.5623197410741341
 20
159.2421095317571087
 30
0.0
 11
4347.5623197410741341
 21
159.4777095317571138
 31
0.0
  0
ARC
  5
C162
  8
0
 10
4347.5229197410735651
 20
159.2421095317571087
 30
0.0
 40
0.0394
 50
270.0
 51
0.0000000000048853
  0
LINE
  5
C163
  8
0
 10
4344.8123197410741341
 20
159.2421095317571087
 30
0.0
 11
4344.8123197410741341
 21
159.4777103862570868
 31
0.0
  0
ARC
  5
C164
  8
0
 10
4344.8517197410737936
 20
159.2421095317571087
 30
0.0
 40
0.0394
 50
179.9999999999901945
 51
270.0
  0
ARC
  5
C165
  8
0
 10
4340.3831388676917413
 20
157.5840488656571097
 30
0.0
 40
0.3937
 50
90.0
 51
180.0
  0
ARC
  5
C166
  8
0
 10
4340.38272359160419
 20
156.7371739912254895
 30
0.0
 40
0.3932849445669941
 50
179.9393065563388916
 51
270.0604995740818026
  0
LINE
  5
C167
  8
0
 10
4346.8623170570735965
 20
156.3438892659071087
 30
0.0
 11
4346.8623170570735965
 21
159.2027095317571082
 31
0.0
  0
LINE
  5
C168
  8
0
 10
4345.5123170569740978
 20
156.343889265906995
 30
0.0
 11
4345.5123170569740978
 21
159.2027095317571082
 31
0.0
  0
ARC
  5
C169
  8
0
 10
4345.5319521439569144
 20
156.3635243573245077
 30
0.0
 40
0.0196351987173744
 50
179.8067082660246001
 51
270.1894174196635277
  0
ARC
  5
C16A
  8
0
 10
4346.8426147827667592
 20
156.363591540106313
 30
0.0
 40
0.0197022743304614
 50
270.0066138682474275
 51
359.9972604460813272
  0
ENDSEC
  0
EOF
