  0
SECTION
  2
HEADER
  9
$ACADVER
  1
AC1009
  9
$INSBASE
 10
6259.9660507480757587
 20
15.0252288787322197
 30
0.0
  9
$EXTMIN
 10
6257.9471889563292279
 20
15.0194091284745301
 30
0.0
  9
$EXTMAX
 10
6261.984912539823199
 20
19.5019991686322207
 30
0.0
  9
$LIMMIN
 10
0.0
 20
0.0
  9
$LIMMAX
 10
11.6929133858000007
 20
8.2677165353999982
  9
$ORTHOMODE
 70
     0
  9
$REGENMODE
 70
     1
  9
$FILLMODE
 70
     1
  9
$QTEXTMODE
 70
     0
  9
$MIRRTEXT
 70
     0
  9
$DRAGMODE
 70
     2
  9
$LTSCALE
 40
0.6431102362
  9
$OSMODE
 70
  4095
  9
$ATTMODE
 70
     1
  9
$TEXTSIZE
 40
0.2
  9
$TRACEWID
 40
0.05
  9
$TEXTSTYLE
  7
STANDARD
  9
$CLAYER
  8
0
  9
$CELTYPE
  6
BYLAYER
  9
$CECOLOR
 62
   256
  9
$DIMSCALE
 40
1.0
  9
$DIMASZ
 40
0.1875
  9
$DIMEXO
 40
0.0625
  9
$DIMDLI
 40
0.4443307087
  9
$DIMRND
 40
0.0
  9
$DIMDLE
 40
0.0
  9
$DIMEXE
 40
0.125
  9
$DIMTP
 40
0.01
  9
$DIMTM
 40
0.01
  9
$DIMTXT
 40
2.0
  9
$DIMCEN
 40
0.1052362205
  9
$DIMTSZ
 40
0.0
  9
$DIMTOL
 70
     1
  9
$DIMLIM
 70
     0
  9
$DIMTIH
 70
     1
  9
$DIMTOH
 70
     1
  9
$DIMSE1
 70
     0
  9
$DIMSE2
 70
     0
  9
$DIMTAD
 70
     0
  9
$DIMZIN
 70
     0
  9
$DIMBLK
  1

  9
$DIMASO
 70
     1
  9
$DIMSHO
 70
     1
  9
$DIMPOST
  1
\X
  9
$DIMAPOST
  1

  9
$DIMALT
 70
     1
  9
$DIMALTD
 70
     2
  9
$DIMALTF
 40
25.3999999999999986
  9
$DIMLFAC
 40
1.0
  9
$DIMTOFL
 70
     0
  9
$DIMTVP
 40
0.0
  9
$DIMTIX
 70
     0
  9
$DIMSOXD
 70
     0
  9
$DIMSAH
 70
     0
  9
$DIMBLK1
  1

  9
$DIMBLK2
  1

  9
$DIMSTYLE
  2
STANDARD
  9
$DIMCLRD
 70
     0
  9
$DIMCLRE
 70
     0
  9
$DIMCLRT
 70
     0
  9
$DIMTFAC
 40
1.0
  9
$DIMGAP
 40
0.09
  9
$LUNITS
 70
     2
  9
$LUPREC
 70
     4
  9
$SKETCHINC
 40
0.1
  9
$FILLETRAD
 40
0.0
  9
$AUNITS
 70
     0
  9
$AUPREC
 70
     0
  9
$MENU
  1
.
  9
$ELEVATION
 40
0.0
  9
$PELEVATION
 40
0.0
  9
$THICKNESS
 40
0.0
  9
$LIMCHECK
 70
     0
  9
$BLIPMODE
 70
     0
  9
$CHAMFERA
 40
0.0
  9
$CHAMFERB
 40
0.0
  9
$SKPOLY
 70
     0
  9
$TDCREATE
 40
2458060.468368056230247
  9
$TDUPDATE
 40
2460483.6762731480412185
  9
$TDINDWG
 40
0.6349491898
  9
$TDUSRTIMER
 40
0.6349491898
  9
$USRTIMER
 70
     1
  9
$ANGBASE
 50
0.0
  9
$ANGDIR
 70
     0
  9
$PDMODE
 70
     0
  9
$PDSIZE
 40
0.3125
  9
$PLINEWID
 40
0.0
  9
$COORDS
 70
     1
  9
$SPLFRAME
 70
     0
  9
$SPLINETYPE
 70
     6
  9
$SPLINESEGS
 70
     8
  9
$ATTDIA
 70
     1
  9
$ATTREQ
 70
     1
  9
$HANDLING
 70
     1
  9
$HANDSEED
  5
26515
  9
$SURFTAB1
 70
     6
  9
$SURFTAB2
 70
     6
  9
$SURFTYPE
 70
     6
  9
$SURFU
 70
     6
  9
$SURFV
 70
     6
  9
$UCSNAME
  2

  9
$UCSORG
 10
0.0
 20
0.0
 30
0.0
  9
$UCSXDIR
 10
1.0
 20
0.0
 30
0.0
  9
$UCSYDIR
 10
0.0
 20
1.0
 30
0.0
  9
$PUCSNAME
  2

  9
$PUCSORG
 10
0.0
 20
0.0
 30
0.0
  9
$PUCSXDIR
 10
1.0
 20
0.0
 30
0.0
  9
$PUCSYDIR
 10
0.0
 20
1.0
 30
0.0
  9
$USERI1
 70
     0
  9
$USERI2
 70
     0
  9
$USERI3
 70
     0
  9
$USERI4
 70
     0
  9
$USERI5
 70
     0
  9
$USERR1
 40
0.0
  9
$USERR2
 40
0.0
  9
$USERR3
 40
0.0
  9
$USERR4
 40
0.0
  9
$USERR5
 40
0.0
  9
$WORLDVIEW
 70
     1
  9
$SHADEDGE
 70
     3
  9
$SHADEDIF
 70
    70
  9
$TILEMODE
 70
     1
  9
$MAXACTVP
 70
    64
  9
$PLIMCHECK
 70
     0
  9
$PEXTMIN
 10
1.0000000000000000E+20
 20
1.0000000000000000E+20
 30
1.0000000000000000E+20
  9
$PEXTMAX
 10
-1.0000000000000000E+20
 20
-1.0000000000000000E+20
 30
-1.0000000000000000E+20
  9
$PLIMMIN
 10
0.0
 20
0.0
  9
$PLIMMAX
 10
12.0
 20
9.0
  9
$UNITMODE
 70
     0
  9
$VISRETAIN
 70
     1
  9
$PLINEGEN
 70
     0
  9
$PSLTSCALE
 70
     1
  0
ENDSEC
  0
SECTION
  2
TABLES
  0
TABLE
  2
VPORT
 70
     1
  0
VPORT
  2
*ACTIVE
 70
     0
 10
0.0
 20
0.0
 11
1.0
 21
1.0
 12
2467.6081405918262135
 22
-102.919952284552096
 13
0.0
 23
0.0
 14
1.0
 24
1.0
 15
0.0
 25
0.0
 16
0.0
 26
0.0
 36
5.1040778033513332
 17
3792.35791015625
 27
120.1806564331053977
 37
0.0
 40
4.5211776158261889
 41
2.7227011494252871
 42
50.0
 43
0.0
 44
0.0
 50
0.0
 51
0.0
 71
     0
 72
   100
 73
     1
 74
     1
 75
     0
 76
     0
 77
     0
 78
     0
  0
ENDTAB
  0
TABLE
  2
LTYPE
 70
     2
  0
LTYPE
  2
CONTINUOUS
 70
     0
  3
Solid line
 72
    65
 73
     0
 40
0.0
  0
LTYPE
  2
PHANTOM2
 70
     0
  3
___ _ _ ___ _ _ ___ _ _ ___ _ _
 72
    65
 73
     6
 40
1.25
 49
0.625
 49
-0.125
 49
0.125
 49
-0.125
 49
0.125
 49
-0.125
  0
ENDTAB
  0
TABLE
  2
LAYER
 70
     2
  0
LAYER
  2
0
 70
     0
 62
   255
  6
CONTINUOUS
  0
LAYER
  2
DEFPOINTS
 70
     0
 62
     7
  6
CONTINUOUS
  0
ENDTAB
  0
TABLE
  2
STYLE
 70
     1
  0
STYLE
  2
STANDARD
 70
     0
 40
0.0
 41
0.8
 50
0.0
 71
     0
 42
0.2
  3
txt
  4

  0
ENDTAB
  0
TABLE
  2
VIEW
 70
     0
  0
ENDTAB
  0
TABLE
  2
UCS
 70
     0
  0
ENDTAB
  0
TABLE
  2
APPID
 70
    11
  0
APPID
  2
ACAD
 70
     0
  0
APPID
  2
ACAD_MLEADERVER
 70
     0
  0
APPID
  2
ACAD_EXEMPT_FROM_CAD_STANDARDS
 70
     0
  0
APPID
  2
ACAD_NAV_VCDISPLAY
 70
     0
  0
APPID
  2
ACAECLAYERSTANDARD
 70
     0
  0
APPID
  2
ACCMTRANSPARENCY
 70
     0
  0
APPID
  2
ACAD_DSTYLE_DIMJAG
 70
     0
  0
APPID
  2
ACAD_DSTYLE_DIMTALN
 70
     0
  0
APPID
  2
ACDBATTR
 70
     0
  0
APPID
  2
GRADIENTCOLOR1ACI
 70
     0
  0
APPID
  2
GRADIENTCOLOR2ACI
 70
     0
  0
ENDTAB
  0
TABLE
  2
DIMSTYLE
 70
     1
  0
DIMSTYLE
  2
STANDARD
 70
     0
  3

  4

  5

  6

  7

 40
1.0
 41
0.1875
 42
0.0625
 43
0.38
 44
0.125
 45
0.0
 46
0.0
 47
0.01
 48
0.01
140
0.15625
141
0.09
142
0.0
143
25.3999999999999986
144
1.0
145
0.0
146
1.0
147
0.09
 71
     1
 72
     0
 73
     1
 74
     1
 75
     0
 76
     0
 77
     0
 78
     4
170
     0
171
     2
172
     0
173
     0
174
     0
175
     0
176
     0
177
     0
178
     0
  0
ENDTAB
  0
ENDSEC
  0
SECTION
  2
BLOCKS
  0
BLOCK
  8
0
  2
$MODEL_SPACE
 70
     0
 10
0.0
 20
0.0
 30
0.0
  3
$MODEL_SPACE
  1

  0
ENDBLK
  5
21
  8
0
  0
BLOCK
 67
     1
  8
0
  2
$PAPER_SPACE
 70
     0
 10
0.0
 20
0.0
 30
0.0
  3
$PAPER_SPACE
  1

  0
ENDBLK
  5
1D
 67
     1
  8
0
  0
BLOCK
  8
0
  2
_FILLED
 70
     0
 10
0.0
 20
0.0
 30
0.0
  3
_FILLED
  1

  0
SOLID
  5
21F57
  8
0
  6
BYBLOCK
 62
     0
 10
0.0
 20
0.0
 30
0.0
 11
-1.0
 21
0.1666666667
 31
0.0
 12
-1.0
 22
-0.1666666667
 32
0.0
 13
-1.0
 23
-0.1666666667
 33
0.0
  0
ENDBLK
  5
21F58
  8
0
  6
BYBLOCK
 62
     0
  0
ENDSEC
  0
SECTION
  2
ENTITIES
  0
ATTDEF
  5
3930
  8
DEFPOINTS
 10
6259.9546521136217052
 20
15.0227424618078604
 30
0.0
 40
0.001
  1
K-33464
  3

  2
MODELNUMBER
 70
     0
1001
ACDBATTR
1070
     0
1070
     1
  0
ATTDEF
  5
3931
  8
DEFPOINTS
 10
6259.9546521136217052
 20
15.0210757951412006
 30
0.0
 40
0.001
  1
BELAY
  3

  2
TRADENAME
 70
     0
1001
ACDBATTR
1070
     0
1070
     1
  0
ATTDEF
  5
3932
  8
DEFPOINTS
 10
6259.9546521136217052
 20
15.0194091284745301
 30
0.0
 40
0.001
  1
TRAY
  3

  2
PRODUCT
 70
     0
1001
ACDBATTR
1070
     0
1070
     1
  0
LINE
  5
262F1
  8
0
 10
6257.9668889563290577
 20
19.5019991686322207
 30
0.0
 11
6261.9652125398233693
 21
19.5019991686322207
 31
0.0
  0
LINE
  5
262F2
  8
0
 10
6258.7085063168160559
 20
16.0128565556329185
 30
0.0
 11
6261.2235951793363711
 21
16.0128565556329185
 31
0.0
  0
LINE
  5
262F3
  8
0
 10
6257.9814600885092659
 20
16.6771880659720715
 30
0.0
 11
6257.9471904265474222
 21
19.4820584937154315
 31
0.0
  0
ARC
  5
262F4
  8
0
 10
6259.1667670161714341
 20
16.7225530241088016
 30
0.0
 40
1.1861747308843369
 50
182.191797395900096
 51
195.4852596869588979
  0
ARC
  5
262F5
  8
0
 10
6258.5361950824699306
 20
16.5502691866862008
 30
0.0
 40
0.5325000234432542
 50
195.7356292641742073
 51
224.7343344016082085
  0
ARC
  5
262F6
  8
0
 10
6258.5099571278969961
 20
16.5595562399672787
 30
0.0
 40
0.5210008181173413
 50
227.4917643128353006
 51
253.980736760379699
  0
ARC
  5
262F7
  8
0
 10
6258.6427734886092367
 20
16.9754436561155089
 30
0.0
 40
0.95747774566707
 50
253.2093443936871893
 51
263.3897655300070824
  0
ARC
  5
262F8
  8
0
 10
6258.7271360661798099
 20
17.6533194437543912
 30
0.0
 40
1.6405686681346821
 50
263.1883089356205119
 51
269.3493542973831723
  0
ARC
  5
262F9
  8
0
 10
6257.9668889563290577
 20
19.4822991686322204
 30
0.0
 40
0.0197
 50
90.0
 51
180.7000000009726932
  0
LINE
  5
262FA
  8
0
 10
6259.4735654483229155
 20
16.0062970227266206
 30
0.0
 11
6258.7085063168160559
 21
16.0128565556329185
 31
0.0
  0
LINE
  5
262FB
  8
0
 10
6259.473565448323825
 20
16.0062970227266312
 30
0.0
 11
6259.9660507480757587
 21
16.0019991686322207
 31
0.0
  0
ARC
  5
262FC
  8
0
 10
6259.3527513450972037
 20
16.00597142171112
 30
0.0
 40
0.187316448891871
 50
290.0784969074239257
 51
353.2251568737707998
  0
ARC
  5
262FD
  8
0
 10
6259.5191973953806155
 20
15.9861980486139199
 30
0.0
 40
0.0197
 50
353.2251568737701746
 51
89.5000000006077272
  0
ARC
  5
262FE
  8
0
 10
6259.5476877215378408
 20
15.3566347407140604
 30
0.0
 40
0.4910967848783829
 50
105.4260837797527017
 51
179.8068612950324905
  0
ARC
  5
262FF
  8
0
 10
6259.5428224016259264
 20
15.3582901788322204
 30
0.0
 40
0.4862286747999925
 50
180.0
 51
223.2347430990132011
  0
ARC
  5
26300
  8
0
 10
6259.3484780558856073
 20
16.0118772330402983
 30
0.0
 40
0.2850478351609999
 50
289.8901921702016011
 51
354.9475358759057144
  0
ARC
  5
26301
  8
0
 10
6259.6520417855390406
 20
15.9850387331857409
 30
0.0
 40
0.0197
 50
89.5000000006598526
 51
174.9475358759054018
  0
ARC
  5
26302
  8
0
 10
6259.5428268907498932
 20
15.3582885037670192
 30
0.0
 40
0.3976505224159767
 50
104.1737915596261956
 51
178.7419510351406871
  0
ARC
  5
26303
  8
0
 10
6259.5428224016259264
 20
15.3582901788322097
 30
0.0
 40
0.3976459975999786
 50
178.7421781314704958
 51
220.4691945793638865
  0
ARC
  5
26304
  8
0
 10
6259.2103374582820834
 20
15.0746302301829491
 30
0.0
 40
0.0394
 50
289.3520564434061271
 51
40.4691945793631689
  0
LINE
  5
26305
  8
0
 10
6259.1885788490053528
 20
15.0252288787322197
 30
0.0
 11
6259.2233935053300229
 21
15.0374563195001301
 31
0.0
  0
LINE
  5
26306
  8
0
 10
6261.9506414076431611
 20
16.6771880659720715
 30
0.0
 11
6261.9849110696050047
 21
19.4820584937154315
 31
0.0
  0
ARC
  5
26307
  8
0
 10
6260.7653344799809929
 20
16.7225530241088016
 30
0.0
 40
1.1861747308843369
 50
344.5147403130409884
 51
357.808202604099904
  0
ARC
  5
26308
  8
0
 10
6261.3959064136815869
 20
16.5502691866862008
 30
0.0
 40
0.5325000234432542
 50
315.2656655983918768
 51
344.2643707358258212
  0
ARC
  5
26309
  8
0
 10
6261.4221443682536119
 20
16.5595562399672787
 30
0.0
 40
0.5210008181173413
 50
286.0192632396202157
 51
312.5082356871645857
  0
ARC
  5
2630A
  8
0
 10
6261.2893280075431903
 20
16.9754436561155089
 30
0.0
 40
0.95747774566707
 50
276.610234469992804
 51
286.790655606312896
  0
ARC
  5
2630B
  8
0
 10
6261.2049654299707981
 20
17.6533194437543912
 30
0.0
 40
1.6405686681346821
 50
270.6506457026168277
 51
276.8116910643793744
  0
ARC
  5
2630C
  8
0
 10
6261.9652125398233693
 20
19.4822991686322204
 30
0.0
 40
0.0197
 50
359.2999999990271931
 51
90.0
  0
LINE
  5
2630D
  8
0
 10
6260.458536047828602
 20
16.0062970227266206
 30
0.0
 11
6261.2235951793363711
 21
16.0128565556329185
 31
0.0
  0
LINE
  5
2630E
  8
0
 10
6260.4585360478276925
 20
16.0062970227266312
 30
0.0
 11
6259.9660507480757587
 21
16.0019991686322207
 31
0.0
  0
ARC
  5
2630F
  8
0
 10
6260.5793501510552233
 20
16.00597142171112
 30
0.0
 40
0.187316448891871
 50
186.7748431262290865
 51
249.9215030925761027
  0
ARC
  5
26310
  8
0
 10
6260.4129041007699925
 20
15.9861980486139199
 30
0.0
 40
0.0197
 50
90.4999999993922728
 51
186.7748431262297117
  0
ARC
  5
26311
  8
0
 10
6260.3844137746127672
 20
15.3566347407140604
 30
0.0
 40
0.4910967848783829
 50
0.1931387049674771
 51
74.5739162202472414
  0
ARC
  5
26312
  8
0
 10
6260.3892790945255911
 20
15.3582901788322204
 30
0.0
 40
0.4862286747999925
 50
316.7652569009867989
 51
359.9999999999998863
  0
ARC
  5
26313
  8
0
 10
6260.5836234402659102
 20
16.0118772330402983
 30
0.0
 40
0.2850478351609999
 50
185.052464124094314
 51
250.1098078297983989
  0
ARC
  5
26314
  8
0
 10
6260.2800597106133864
 20
15.9850387331857409
 30
0.0
 40
0.0197
 50
5.0524641240946107
 51
90.4999999993401758
  0
ARC
  5
26315
  8
0
 10
6260.3892746054007148
 20
15.3582885037670192
 30
0.0
 40
0.3976505224159767
 50
1.258048964859384
 51
75.8262084403737049
  0
ARC
  5
26316
  8
0
 10
6260.3892790945255911
 20
15.3582901788322097
 30
0.0
 40
0.3976459975999786
 50
319.5308054206359998
 51
1.2578218685294691
  0
ARC
  5
26317
  8
0
 10
6260.7217640378694341
 20
15.0746302301829491
 30
0.0
 40
0.0394
 50
139.5308054206367956
 51
250.6479435565939013
  0
LINE
  5
26318
  8
0
 10
6260.7435226471470742
 20
15.0252288787322197
 30
0.0
 11
6260.7087079908196756
 21
15.0374563195001301
 31
0.0
  0
LINE
  5
26319
  8
0
 10
6259.3876980951617952
 20
15.7244319111322195
 30
0.0
 11
6260.5444034009897223
 21
15.7244319111322195
 31
0.0
  0
ENDSEC
  0
EOF
