  0
SECTION
  2
HEADER
  9
$ACADVER
  1
AC1009
  9
$INSBASE
 10
325.14412245718961
 20
55.9106041020846618
 30
0.0
  9
$EXTMIN
 10
321.0573912897581863
 20
55.1590517436468133
 30
-0.0000000000112498
  9
$EXTMAX
 10
326.8893224421619266
 20
56.6614653556208268
 30
0.0000000000002956
  9
$LIMMIN
 10
0.0
 20
0.0
  9
$LIMMAX
 10
12.0
 20
9.0
  9
$ORTHOMODE
 70
     0
  9
$REGENMODE
 70
     1
  9
$FILLMODE
 70
     1
  9
$QTEXTMODE
 70
     0
  9
$MIRRTEXT
 70
     0
  9
$DRAGMODE
 70
     2
  9
$LTSCALE
 40
1.0
  9
$OSMODE
 70
  2807
  9
$ATTMODE
 70
     1
  9
$TEXTSIZE
 40
0.2
  9
$TRACEWID
 40
0.05
  9
$TEXTSTYLE
  7
STANDARD
  9
$CLAYER
  8
0
  9
$CELTYPE
  6
BYLAYER
  9
$CECOLOR
 62
   256
  9
$DIMSCALE
 40
1.0
  9
$DIMASZ
 40
0.18
  9
$DIMEXO
 40
0.0625
  9
$DIMDLI
 40
0.38
  9
$DIMRND
 40
0.0
  9
$DIMDLE
 40
0.0
  9
$DIMEXE
 40
0.18
  9
$DIMTP
 40
0.0
  9
$DIMTM
 40
0.0
  9
$DIMTXT
 40
0.18
  9
$DIMCEN
 40
0.09
  9
$DIMTSZ
 40
0.0
  9
$DIMTOL
 70
     0
  9
$DIMLIM
 70
     0
  9
$DIMTIH
 70
     1
  9
$DIMTOH
 70
     1
  9
$DIMSE1
 70
     0
  9
$DIMSE2
 70
     0
  9
$DIMTAD
 70
     0
  9
$DIMZIN
 70
     0
  9
$DIMBLK
  1

  9
$DIMASO
 70
     1
  9
$DIMSHO
 70
     1
  9
$DIMPOST
  1

  9
$DIMAPOST
  1

  9
$DIMALT
 70
     0
  9
$DIMALTD
 70
     2
  9
$DIMALTF
 40
25.3999999999999986
  9
$DIMLFAC
 40
1.0
  9
$DIMTOFL
 70
     0
  9
$DIMTVP
 40
0.0
  9
$DIMTIX
 70
     0
  9
$DIMSOXD
 70
     0
  9
$DIMSAH
 70
     0
  9
$DIMBLK1
  1

  9
$DIMBLK2
  1

  9
$DIMSTYLE
  2
STANDARD
  9
$DIMCLRD
 70
     0
  9
$DIMCLRE
 70
     0
  9
$DIMCLRT
 70
     0
  9
$DIMTFAC
 40
1.0
  9
$DIMGAP
 40
0.09
  9
$LUNITS
 70
     2
  9
$LUPREC
 70
     4
  9
$SKETCHINC
 40
0.1
  9
$FILLETRAD
 40
0.0
  9
$AUNITS
 70
     0
  9
$AUPREC
 70
     0
  9
$MENU
  1
.
  9
$ELEVATION
 40
0.0
  9
$PELEVATION
 40
0.0
  9
$THICKNESS
 40
0.0
  9
$LIMCHECK
 70
     0
  9
$BLIPMODE
 70
     0
  9
$CHAMFERA
 40
0.0
  9
$CHAMFERB
 40
0.0
  9
$SKPOLY
 70
     0
  9
$TDCREATE
 40
2460598.4644097220152617
  9
$TDUPDATE
 40
2460675.4782986110076308
  9
$TDINDWG
 40
0.1765393519
  9
$TDUSRTIMER
 40
0.1765393519
  9
$USRTIMER
 70
     1
  9
$ANGBASE
 50
0.0
  9
$ANGDIR
 70
     0
  9
$PDMODE
 70
     0
  9
$PDSIZE
 40
0.0
  9
$PLINEWID
 40
0.0
  9
$COORDS
 70
     1
  9
$SPLFRAME
 70
     0
  9
$SPLINETYPE
 70
     6
  9
$SPLINESEGS
 70
     8
  9
$ATTDIA
 70
     1
  9
$ATTREQ
 70
     1
  9
$HANDLING
 70
     1
  9
$HANDSEED
  5
13F2B
  9
$SURFTAB1
 70
     6
  9
$SURFTAB2
 70
     6
  9
$SURFTYPE
 70
     6
  9
$SURFU
 70
     6
  9
$SURFV
 70
     6
  9
$UCSNAME
  2

  9
$UCSORG
 10
0.0
 20
0.0
 30
0.0
  9
$UCSXDIR
 10
1.0
 20
0.0
 30
0.0
  9
$UCSYDIR
 10
0.0
 20
1.0
 30
0.0
  9
$PUCSNAME
  2

  9
$PUCSORG
 10
0.0
 20
0.0
 30
0.0
  9
$PUCSXDIR
 10
1.0
 20
0.0
 30
0.0
  9
$PUCSYDIR
 10
0.0
 20
1.0
 30
0.0
  9
$USERI1
 70
     0
  9
$USERI2
 70
     0
  9
$USERI3
 70
     0
  9
$USERI4
 70
     0
  9
$USERI5
 70
     0
  9
$USERR1
 40
0.0
  9
$USERR2
 40
0.0
  9
$USERR3
 40
0.0
  9
$USERR4
 40
0.0
  9
$USERR5
 40
0.0
  9
$WORLDVIEW
 70
     1
  9
$SHADEDGE
 70
     3
  9
$SHADEDIF
 70
    70
  9
$TILEMODE
 70
     1
  9
$MAXACTVP
 70
    64
  9
$PLIMCHECK
 70
     0
  9
$PEXTMIN
 10
0.0
 20
0.0
 30
0.0
  9
$PEXTMAX
 10
0.0
 20
0.0
 30
0.0
  9
$PLIMMIN
 10
0.0
 20
0.0
  9
$PLIMMAX
 10
12.0
 20
9.0
  9
$UNITMODE
 70
     0
  9
$VISRETAIN
 70
     1
  9
$PLINEGEN
 70
     0
  9
$PSLTSCALE
 70
     1
  0
ENDSEC
  0
SECTION
  2
TABLES
  0
TABLE
  2
VPORT
 70
     1
  0
VPORT
  2
*ACTIVE
 70
     0
 10
0.0
 20
0.0
 11
1.0
 21
1.0
 12
323.9733568659599996
 22
55.9102585496338165
 13
0.0
 23
0.0
 14
0.5
 24
0.5
 15
0.5
 25
0.5
 16
0.0
 26
0.0
 36
1.0
 17
0.0
 27
0.0
 37
0.0
 40
2.3427342699003302
 41
2.4973333333333332
 42
50.0
 43
0.0
 44
0.0
 50
0.0
 51
0.0
 71
     0
 72
  1000
 73
     1
 74
     3
 75
     0
 76
     1
 77
     0
 78
     0
  0
ENDTAB
  0
TABLE
  2
LTYPE
 70
     1
  0
LTYPE
  2
CONTINUOUS
 70
     0
  3
Solid line
 72
    65
 73
     0
 40
0.0
  0
ENDTAB
  0
TABLE
  2
LAYER
 70
     2
  0
LAYER
  2
0
 70
     0
 62
     7
  6
CONTINUOUS
  0
LAYER
  2
DEFPOINTS
 70
     0
 62
     7
  6
CONTINUOUS
  0
ENDTAB
  0
TABLE
  2
STYLE
 70
     1
  0
STYLE
  2
STANDARD
 70
     0
 40
0.0
 41
1.0
 50
0.0
 71
     0
 42
0.2
  3
txt
  4

  0
ENDTAB
  0
TABLE
  2
VIEW
 70
     0
  0
ENDTAB
  0
TABLE
  2
UCS
 70
     0
  0
ENDTAB
  0
TABLE
  2
APPID
 70
     8
  0
APPID
  2
ACAD
 70
     0
  0
APPID
  2
ACADANNOPO
 70
     0
  0
APPID
  2
ACADANNOTATIVE
 70
     0
  0
APPID
  2
ACAD_DSTYLE_DIMJAG
 70
     0
  0
APPID
  2
ACAD_DSTYLE_DIMTALN
 70
     0
  0
APPID
  2
ACAD_MLEADERVER
 70
     0
  0
APPID
  2
ACAD_NAV_VCDISPLAY
 70
     0
  0
APPID
  2
ACDBATTR
 70
     0
  0
ENDTAB
  0
TABLE
  2
DIMSTYLE
 70
     1
  0
DIMSTYLE
  2
STANDARD
 70
     0
  3

  4

  5

  6

  7

 40
1.0
 41
0.18
 42
0.0625
 43
0.38
 44
0.18
 45
0.0
 46
0.0
 47
0.0
 48
0.0
140
0.18
141
0.09
142
0.0
143
25.3999999999999986
144
1.0
145
0.0
146
1.0
147
0.09
 71
     0
 72
     0
 73
     1
 74
     1
 75
     0
 76
     0
 77
     0
 78
     0
170
     0
171
     2
172
     0
173
     0
174
     0
175
     0
176
     0
177
     0
178
     0
  0
ENDTAB
  0
ENDSEC
  0
SECTION
  2
BLOCKS
  0
BLOCK
  8
0
  2
$MODEL_SPACE
 70
     0
 10
0.0
 20
0.0
 30
0.0
  3
$MODEL_SPACE
  1

  0
ENDBLK
  5
21
  8
0
  0
BLOCK
 67
     1
  8
0
  2
$PAPER_SPACE
 70
     0
 10
0.0
 20
0.0
 30
0.0
  3
$PAPER_SPACE
  1

  0
ENDBLK
  5
5B
 67
     1
  8
0
  0
ENDSEC
  0
SECTION
  2
ENTITIES
  0
ATTDEF
  5
117F3
  8
DEFPOINTS
 10
325.1373152334975885
 20
55.9123342329453124
 30
0.0
 40
0.001
  1
K-33465
  3

  2
MODELNUMBER
 70
     0
1001
ACDBATTR
1070
     0
1070
     1
  0
ATTDEF
  5
117F4
  8
DEFPOINTS
 10
325.1373152334975885
 20
55.9106675662786401
 30
0.0
 40
0.001
  1

  3

  2
TRADENAME
 70
     0
1001
ACDBATTR
1070
     0
1070
     1
  0
ATTDEF
  5
117F5
  8
DEFPOINTS
 10
325.1373152334975885
 20
55.909000899611982
 30
0.0
 40
0.001
  1
HANDSHOWER HOLDER
  3

  2
PRODUCT
 70
     0
1001
ACDBATTR
1070
     0
1070
     1
  0
LINE
  5
13A75
  8
0
 10
323.3232437281508851
 20
56.636178161566697
 30
0.0
 11
323.3232503199058101
 21
55.1856041020846533
 31
0.0
  0
LINE
  5
13A76
  8
0
 10
323.3370298474056881
 20
55.1881631571846469
 30
0.0
 11
323.3370298474056881
 21
56.6330450469846625
 31
0.0
  0
LINE
  5
13A77
  8
0
 10
323.2982503199057192
 20
55.1606041020846476
 30
0.0
 11
321.8291558317371823
 21
55.1606041020846476
 31
0.0
  0
LINE
  5
13A78
  8
0
 10
323.3370298474056881
 20
55.2235962280846522
 30
0.0
 11
323.3232503199058101
 21
55.2235962280846522
 31
0.0
  0
LINE
  5
13A79
  8
0
 10
324.7674549734056768
 20
55.5356003947301033
 30
0.0
 11
324.7674549734056768
 21
56.2861401511846466
 31
0.0
  0
LINE
  5
13A7A
  8
0
 10
323.3232439010329244
 20
56.5976119760846501
 30
0.0
 11
323.3369890873415216
 21
56.5976119760846501
 31
0.0
  0
LINE
  5
13A7B
  8
0
 10
321.8291558130478052
 20
56.6606008583718719
 30
0.0
 11
323.2982503199057192
 21
56.6606041020846618
 31
0.0
  0
LINE
  5
13A7C
  8
0
 10
325.5174549734057905
 20
56.2861401511846466
 30
0.0
 11
325.5174549734057905
 21
55.5356003947301033
 31
0.0
  0
ARC
  5
13A7D
  8
0
 10
321.8274682162332283
 20
55.9106024802072668
 30
0.0
 40
0.7500002768217044
 50
89.8710770367065237
 51
270.1289243889639806
  0
ARC
  5
13A7E
  8
0
 10
323.3645889025057159
 20
55.1881631571846469
 30
0.0
 40
0.027559055099994
 50
179.9999999999955094
 51
270.0000000000097771
  0
ARC
  5
13A7F
  8
0
 10
323.298227408723676
 20
55.185627013266739
 30
0.0
 40
0.0250229216709172
 50
270.0524604695477819
 51
359.9475395304382914
  0
ARC
  5
13A80
  8
0
 10
323.2982498096533845
 20
56.6356035799780102
 30
0.0
 40
0.0250005221118472
 50
1.316932452835252
 51
89.9988306121347676
  0
ARC
  5
13A81
  8
0
 10
323.3645886806621093
 20
56.6330452688283117
 30
0.0
 40
0.0275588332572368
 50
89.9995387792688177
 51
180.0004612207306991
  0
ARC
  5
13A82
  8
0
 10
325.1424549734056768
 20
55.5356003947301033
 30
0.0
 40
0.375
 50
180.0
 51
269.7452264051569273
  0
ARC
  5
13A83
  8
0
 10
325.1424549734056768
 20
55.5356003947301033
 30
0.0
 40
0.375
 50
270.2547735948430727
 51
0.0
  0
ARC
  5
13A84
  8
0
 10
325.1424549734056768
 20
56.2861401511846466
 30
0.0
 40
0.375
 50
0.0
 51
86.9469660397434865
  0
ARC
  5
13A85
  8
0
 10
325.1424549734056768
 20
56.2861401511846466
 30
0.0
 40
0.375
 50
93.05327604316129
 51
180.0
  0
LINE
  5
13A86
  8
0
 10
323.3645889025057159
 20
55.1606041020846476
 30
0.0
 11
326.8445196630057126
 21
55.1606041020846476
 31
0.0
  0
LINE
  5
13A87
  8
0
 10
323.3645889025057159
 20
56.6606041020846618
 30
0.0
 11
326.8401629263057089
 21
56.6606114444846583
 31
0.0
  0
ARC
  5
13A88
  8
0
 10
326.8436444465410773
 20
57.4338548800131505
 30
0.0
 40
0.7732512732424472
 50
269.7420281134347988
 51
270.0648511392809041
  0
ARC
  5
13A89
  8
0
 10
326.8445460504053131
 20
56.6372910150609172
 30
0.0
 40
0.0233131019571788
 50
80.1719432946280932
 51
90.0648511392840874
  0
ARC
  5
13A8A
  8
0
 10
326.8444520073891795
 20
56.6367481491199172
 30
0.0
 40
0.023864053423987
 50
67.5637209270580428
 51
80.1719432946280932
  0
ARC
  5
13A8B
  8
0
 10
326.8445972712415255
 20
56.6370999532104804
 30
0.0
 40
0.0234834385202921
 50
45.7253967544815794
 51
67.5637209270550301
  0
ARC
  5
13A8C
  8
0
 10
326.8444561821361845
 20
56.6369552455596619
 30
0.0
 40
0.023685543542125
 50
0.0648522800057735
 51
45.7253967624726769
  0
LINE
  5
13A8D
  8
0
 10
326.8681417105057108
 20
56.6369820548846477
 30
0.0
 11
326.8681417105057108
 21
55.1842261492846475
 31
0.0
  0
ARC
  5
13A8E
  8
0
 10
326.8445196627935729
 20
55.1842261497967783
 30
0.0
 40
0.023622047712129
 50
270.0000005145230944
 51
359.9999987578167975
  0
ARC
  5
13A8F
  8
0
 10
326.2788274910112136
 20
55.9061530765793293
 30
0.0
 40
0.2545618701546543
 50
102.8080830819502012
 51
129.029175384666587
  0
ARC
  5
13A90
  8
0
 10
326.2796079587653253
 20
55.9027200767564167
 30
0.0
 40
0.2580824692087021
 50
78.3785110488502994
 51
102.8080830819502012
  0
ARC
  5
13A91
  8
0
 10
326.2804849255782074
 20
55.9069842059750073
 30
0.0
 40
0.2537290947952419
 50
55.7986221298993783
 51
78.3785110488502994
  0
ARC
  5
13A92
  8
0
 10
326.2812238860453249
 20
55.9080714970365875
 30
0.0
 40
0.2524144600838435
 50
31.5251764095350318
 51
55.7986221298993783
  0
ARC
  5
13A93
  8
0
 10
326.2850723582546948
 20
55.910432170563972
 30
0.0
 40
0.2478996491410238
 50
22.1297306359838899
 51
31.5251764095350318
  0
ARC
  5
13A94
  8
0
 10
326.2779881768997257
 20
55.9105939351961609
 30
0.0
 40
0.2505927447932054
 50
129.5194973078178862
 51
148.3423686153207939
  0
ARC
  5
13A95
  8
0
 10
326.2779590850954037
 20
55.9106118729558332
 30
0.0
 40
0.2505585673693699
 50
148.3423686153207939
 51
158.8281473936775114
  0
ARC
  5
13A96
  8
0
 10
326.2779894095265263
 20
55.9106001280195031
 30
0.0
 40
0.2505910868196654
 50
158.8281473936775114
 51
170.8770106473251076
  0
ARC
  5
13A97
  8
0
 10
326.2779680625226888
 20
55.910603556041103
 30
0.0
 40
0.2505694663224681
 50
170.8770106473251076
 51
198.4877193417291892
  0
ARC
  5
13A98
  8
0
 10
326.2779815616644896
 20
55.9106080695736907
 30
0.0
 40
0.2505837000432073
 50
198.4877193417291892
 51
221.7989770388620911
  0
ARC
  5
13A99
  8
0
 10
326.2779849275074753
 20
55.9106110788764781
 30
0.0
 40
0.2505882149963666
 50
221.7989770388620911
 51
230.4806072612877017
  0
ARC
  5
13A9A
  8
0
 10
326.2756190988857838
 20
55.9077430776012392
 30
0.0
 40
0.2468703424350785
 50
230.4806072612877017
 51
261.1844623964126981
  0
ARC
  5
13A9B
  8
0
 10
326.2781410370810136
 20
55.9240046374715831
 30
0.0
 40
0.2633262988544689
 50
261.1844623964126981
 51
300.7664533684107937
  0
ARC
  5
13A9C
  8
0
 10
326.2882739413599893
 20
55.9069838820827769
 30
0.0
 40
0.2435176678282631
 50
300.7664533684107937
 51
338.41325187920188
  0
ARC
  5
13A9D
  8
0
 10
326.2558652145515907
 20
31.7059352637490193
 30
0.0
 40
24.2992606359375287
 50
89.2579429657982075
 51
89.3896528238493886
  0
ARC
  5
13A9E
  8
0
 10
326.5702670465063875
 20
55.9802026052157089
 30
0.0
 40
0.0229573037385951
 50
75.8285276246220832
 51
89.2579429657982075
  0
ARC
  5
13A9F
  8
0
 10
326.5698030285635127
 20
55.9783649772508198
 30
0.0
 40
0.0248526108875041
 50
45.2763672901601311
 51
75.8285276246253517
  0
ARC
  5
13AA0
  8
0
 10
326.5708000053925844
 20
55.9793716186457431
 30
0.0
 40
0.0234358223727043
 50
359.6276979926228137
 51
45.2763672901598468
  0
ARC
  5
13AA1
  8
0
 10
326.2800747300698845
 20
55.905598310028239
 30
0.0
 40
0.2221666215835231
 50
88.3606465719980463
 51
133.5101081664863898
  0
ARC
  5
13AA2
  8
0
 10
326.2799723669282912
 20
55.9020216710065512
 30
0.0
 40
0.2257447251181043
 50
67.9835812872827461
 51
88.3606465719980463
  0
ARC
  5
13AA3
  8
0
 10
326.2833553232470081
 20
55.9103878784584296
 30
0.0
 40
0.2167204345320091
 50
53.2189654510787875
 51
67.9835812872827461
  0
ARC
  5
13AA4
  8
0
 10
326.2781479297526062
 20
55.9034222061090773
 30
0.0
 40
0.2254174189682176
 50
20.6528807731717485
 51
53.2189654510787875
  0
ARC
  5
13AA5
  8
0
 10
326.3039888407574267
 20
55.9131623946944387
 30
0.0
 40
0.1978017720406173
 50
359.2587578286824055
 51
20.6528807731717485
  0
ARC
  5
13AA6
  8
0
 10
326.2758906829212719
 20
55.9135259241156319
 30
0.0
 40
0.2259022814206935
 50
336.1587012817828963
 51
359.2587578286824055
  0
ARC
  5
13AA7
  8
0
 10
326.2872381970045126
 20
55.9085113005986614
 30
0.0
 40
0.2134961327481983
 50
285.5304325662261249
 51
336.1587012817828963
  0
ARC
  5
13AA8
  8
0
 10
326.2806900335808109
 20
55.9320746072013009
 30
0.0
 40
0.2379523765782207
 50
252.021836302239592
 51
285.5304325662261249
  0
ARC
  5
13AA9
  8
0
 10
326.2700165278071722
 20
55.8991822852275106
 30
0.0
 40
0.2033716222439711
 50
225.3585176104602965
 51
252.021836302239592
  0
ARC
  5
13AAA
  8
0
 10
326.2882947548351922
 20
55.9176907007867072
 30
0.0
 40
0.2293842159208602
 50
201.6315919834534043
 51
225.3585176104600976
  0
ARC
  5
13AAB
  8
0
 10
326.2671072701423896
 20
55.9092884654379674
 30
0.0
 40
0.2065915182643061
 50
172.1739115889234881
 51
201.6315919834538022
  0
ARC
  5
13AAC
  8
0
 10
326.2899201929672017
 20
55.9061529007777835
 30
0.0
 40
0.229618919627663
 50
146.9525927012012971
 51
172.1739115889234881
  0
ARC
  5
13AAD
  8
0
 10
326.2571901488115031
 20
55.9274465629590907
 30
0.0
 40
0.1905718219182907
 50
133.0425940800832905
 51
146.9525927012012971
  0
ARC
  5
13AAE
  8
0
 10
326.2503461544829975
 20
80.5990715820619954
 30
0.0
 40
24.7830902188665796
 50
270.6111955960033129
 51
270.7403299047057885
  0
ARC
  5
13AAF
  8
0
 10
326.5702558149445167
 20
55.8419286347631001
 30
0.0
 40
0.0238804353567968
 50
270.7403299047057885
 51
310.6486707594236236
  0
ARC
  5
13AB0
  8
0
 10
326.5700697042885281
 20
55.8421454008625204
 30
0.0
 40
0.0241661357560799
 50
310.6486707594232826
 51
359.628844945695505
  0
LINE
  5
13AB1
  8
0
 10
326.5942352905057078
 20
55.8419888801846582
 30
0.0
 11
326.5942353330057131
 21
55.9792193361846486
 31
0.0
  0
ARC
  5
13AB2
  8
0
 10
326.2761219812808235
 20
55.9109703555299404
 30
0.0
 40
0.2384112416848319
 50
21.7700574955060588
 51
46.8514551658960201
  0
ARC
  5
13AB3
  8
0
 10
326.2768622942771799
 20
55.911760128937658
 30
0.0
 40
0.2373287420920729
 50
46.8514551658960201
 51
76.1348779202325119
  0
ARC
  5
13AB4
  8
0
 10
326.277016157741798
 20
55.9123834893445988
 30
0.0
 40
0.2366866734332359
 50
76.1348779202325119
 51
98.5417921344673005
  0
ARC
  5
13AB5
  8
0
 10
326.277122905123008
 20
55.91167277252584
 30
0.0
 40
0.2374053621000729
 50
98.5417921344705405
 51
120.100418140418995
  0
ARC
  5
13AB6
  8
0
 10
326.2773779448336882
 20
55.9112328133377332
 30
0.0
 40
0.2379138985699993
 50
120.100418140418995
 51
143.8419482744307913
  0
ARC
  5
13AB7
  8
0
 10
326.2786412415691757
 20
55.9103096394767434
 30
0.0
 40
0.2394785610318438
 50
143.8419482744307913
 51
168.4867295486704108
  0
ARC
  5
13AB8
  8
0
 10
326.2769416579528183
 20
55.9106558336307913
 30
0.0
 40
0.2377440769986256
 50
168.4867295486704108
 51
185.7798319809191128
  0
ARC
  5
13AB9
  8
0
 10
326.2786300604822145
 20
55.9108267348801391
 30
0.0
 40
0.239441106856487
 50
185.7798319809191128
 51
211.7480493251906921
  0
ARC
  5
13ABA
  8
0
 10
326.2773789563897822
 20
55.9100525870806493
 30
0.0
 40
0.2379698603558482
 50
211.7480493251906921
 51
257.305497494112501
  0
ARC
  5
13ABB
  8
0
 10
326.2770403367293852
 20
55.9085493406337477
 30
0.0
 40
0.236428947264693
 50
257.305497494112501
 51
289.938012848455628
  0
ARC
  5
13ABC
  8
0
 10
326.2765274348126923
 20
55.9099632848335304
 30
0.0
 40
0.2379330438627476
 50
289.938012848455628
 51
338.2554169429596982
  0
ARC
  5
13ABD
  8
0
 10
326.5084773449411273
 20
56.0038311338211585
 30
0.0
 40
0.0118234637373211
 50
202.067594225154096
 51
269.9701342871254042
  0
ARC
  5
13ABE
  8
0
 10
326.2953852970671846
 20
35.7262918564927432
 30
0.0
 40
20.2668299593225285
 50
89.2421522155213438
 51
89.3975798488500288
  0
ARC
  5
13ABF
  8
0
 10
326.5628967231286879
 20
55.9793230423776222
 30
0.0
 40
0.0120383454818574
 50
359.5064105219581734
 51
87.3861571039158349
  0
ARC
  5
13AC0
  8
0
 10
326.5084762328921784
 20
55.8173791420921077
 30
0.0
 40
0.011821410426733
 50
90.0178658190746148
 51
157.9342908489379056
  0
ARC
  5
13AC1
  8
0
 10
326.2547658679417282
 20
79.2979792432537636
 30
0.0
 40
23.4701499854730784
 50
270.6193656645968986
 51
270.7535764120858062
  0
ARC
  5
13AC2
  8
0
 10
326.5628964270006804
 20
55.8418855543317889
 30
0.0
 40
0.0120388585209798
 50
272.6141886877329057
 51
0.4916464013223128
  0
LINE
  5
13AC3
  8
0
 10
326.574934842308096
 20
55.841988856684651
 30
0.0
 11
326.5749346219056974
 21
55.9792193361843928
 31
0.0
  0
ENDSEC
  0
EOF
