  0
SECTION
  2
HEADER
  9
$ACADVER
  1
AC1009
  9
$INSBASE
 10
4436.8089809347648043
 20
384.4062917838285784
 30
0.0
  9
$EXTMIN
 10
4427.3413260921806796
 20
376.1956234161651196
 30
-0.0015258207003583
  9
$EXTMAX
 10
4446.3390002317237304
 20
386.7925941463436175
 30
0.0000000349246037
  9
$LIMMIN
 10
0.0
 20
0.0
  9
$LIMMAX
 10
11.6929133858000007
 20
8.2677165353999982
  9
$ORTHOMODE
 70
     0
  9
$REGENMODE
 70
     1
  9
$FILLMODE
 70
     1
  9
$QTEXTMODE
 70
     0
  9
$MIRRTEXT
 70
     0
  9
$DRAGMODE
 70
     2
  9
$LTSCALE
 40
0.6431102362
  9
$OSMODE
 70
     3
  9
$ATTMODE
 70
     1
  9
$TEXTSIZE
 40
0.2
  9
$TRACEWID
 40
0.05
  9
$TEXTSTYLE
  7
STANDARD
  9
$CLAYER
  8
0
  9
$CELTYPE
  6
BYLAYER
  9
$CECOLOR
 62
   256
  9
$DIMSCALE
 40
1.0
  9
$DIMASZ
 40
0.1875
  9
$DIMEXO
 40
0.0625
  9
$DIMDLI
 40
0.4443307087
  9
$DIMRND
 40
0.0
  9
$DIMDLE
 40
0.0
  9
$DIMEXE
 40
0.125
  9
$DIMTP
 40
0.01
  9
$DIMTM
 40
0.01
  9
$DIMTXT
 40
2.0
  9
$DIMCEN
 40
0.1052362205
  9
$DIMTSZ
 40
0.0
  9
$DIMTOL
 70
     1
  9
$DIMLIM
 70
     0
  9
$DIMTIH
 70
     1
  9
$DIMTOH
 70
     1
  9
$DIMSE1
 70
     0
  9
$DIMSE2
 70
     0
  9
$DIMTAD
 70
     0
  9
$DIMZIN
 70
     0
  9
$DIMBLK
  1

  9
$DIMASO
 70
     1
  9
$DIMSHO
 70
     1
  9
$DIMPOST
  1
\X
  9
$DIMAPOST
  1

  9
$DIMALT
 70
     1
  9
$DIMALTD
 70
     2
  9
$DIMALTF
 40
25.3999999999999986
  9
$DIMLFAC
 40
1.0
  9
$DIMTOFL
 70
     0
  9
$DIMTVP
 40
0.0
  9
$DIMTIX
 70
     0
  9
$DIMSOXD
 70
     0
  9
$DIMSAH
 70
     0
  9
$DIMBLK1
  1

  9
$DIMBLK2
  1

  9
$DIMSTYLE
  2
STANDARD
  9
$DIMCLRD
 70
     0
  9
$DIMCLRE
 70
     0
  9
$DIMCLRT
 70
     0
  9
$DIMTFAC
 40
1.0
  9
$DIMGAP
 40
0.09
  9
$LUNITS
 70
     2
  9
$LUPREC
 70
     4
  9
$SKETCHINC
 40
0.1
  9
$FILLETRAD
 40
0.0
  9
$AUNITS
 70
     0
  9
$AUPREC
 70
     0
  9
$MENU
  1
.
  9
$ELEVATION
 40
0.0
  9
$PELEVATION
 40
0.0
  9
$THICKNESS
 40
0.0
  9
$LIMCHECK
 70
     0
  9
$BLIPMODE
 70
     0
  9
$CHAMFERA
 40
0.0
  9
$CHAMFERB
 40
0.0
  9
$SKPOLY
 70
     0
  9
$TDCREATE
 40
2458060.468368056230247
  9
$TDUPDATE
 40
2459167.6311921291053295
  9
$TDINDWG
 40
1.3406552083000001
  9
$TDUSRTIMER
 40
1.3406552083000001
  9
$USRTIMER
 70
     1
  9
$ANGBASE
 50
0.0
  9
$ANGDIR
 70
     0
  9
$PDMODE
 70
     0
  9
$PDSIZE
 40
0.3125
  9
$PLINEWID
 40
0.0
  9
$COORDS
 70
     1
  9
$SPLFRAME
 70
     0
  9
$SPLINETYPE
 70
     6
  9
$SPLINESEGS
 70
     8
  9
$ATTDIA
 70
     1
  9
$ATTREQ
 70
     1
  9
$HANDLING
 70
     1
  9
$HANDSEED
  5
1781E
  9
$SURFTAB1
 70
     6
  9
$SURFTAB2
 70
     6
  9
$SURFTYPE
 70
     6
  9
$SURFU
 70
     6
  9
$SURFV
 70
     6
  9
$UCSNAME
  2

  9
$UCSORG
 10
0.0
 20
0.0
 30
0.0
  9
$UCSXDIR
 10
1.0
 20
0.0
 30
0.0
  9
$UCSYDIR
 10
0.0
 20
1.0
 30
0.0
  9
$PUCSNAME
  2

  9
$PUCSORG
 10
0.0
 20
0.0
 30
0.0
  9
$PUCSXDIR
 10
1.0
 20
0.0
 30
0.0
  9
$PUCSYDIR
 10
0.0
 20
1.0
 30
0.0
  9
$USERI1
 70
     0
  9
$USERI2
 70
     0
  9
$USERI3
 70
     0
  9
$USERI4
 70
     0
  9
$USERI5
 70
     0
  9
$USERR1
 40
0.0
  9
$USERR2
 40
0.0
  9
$USERR3
 40
0.0
  9
$USERR4
 40
0.0
  9
$USERR5
 40
0.0
  9
$WORLDVIEW
 70
     1
  9
$SHADEDGE
 70
     3
  9
$SHADEDIF
 70
    70
  9
$TILEMODE
 70
     1
  9
$MAXACTVP
 70
    64
  9
$PLIMCHECK
 70
     0
  9
$PEXTMIN
 10
1.0000000000000000E+20
 20
1.0000000000000000E+20
 30
1.0000000000000000E+20
  9
$PEXTMAX
 10
-1.0000000000000000E+20
 20
-1.0000000000000000E+20
 30
-1.0000000000000000E+20
  9
$PLIMMIN
 10
0.0
 20
0.0
  9
$PLIMMAX
 10
12.0
 20
9.0
  9
$UNITMODE
 70
     0
  9
$VISRETAIN
 70
     1
  9
$PLINEGEN
 70
     0
  9
$PSLTSCALE
 70
     1
  0
ENDSEC
  0
SECTION
  2
TABLES
  0
TABLE
  2
VPORT
 70
     1
  0
VPORT
  2
*ACTIVE
 70
     0
 10
0.0
 20
0.0
 11
1.0
 21
1.0
 12
525.474806716640046
 22
248.914503678715306
 13
0.0
 23
0.0
 14
1.0
 24
1.0
 15
0.0
 25
0.0
 16
0.0
 26
0.0
 36
60.4960186965801583
 17
3911.3653564453120453
 27
132.5796051025390057
 37
0.0
 40
11.2963432139523494
 41
1.6877510040160639
 42
50.0
 43
0.0
 44
0.0
 50
0.0
 51
0.0
 71
     0
 72
   100
 73
     1
 74
     1
 75
     0
 76
     0
 77
     0
 78
     0
  0
ENDTAB
  0
TABLE
  2
LTYPE
 70
     2
  0
LTYPE
  2
CONTINUOUS
 70
     0
  3
Solid line
 72
    65
 73
     0
 40
0.0
  0
LTYPE
  2
PHANTOM2
 70
     0
  3
___ _ _ ___ _ _ ___ _ _ ___ _ _
 72
    65
 73
     6
 40
1.25
 49
0.625
 49
-0.125
 49
0.125
 49
-0.125
 49
0.125
 49
-0.125
  0
ENDTAB
  0
TABLE
  2
LAYER
 70
     2
  0
LAYER
  2
0
 70
     0
 62
   255
  6
CONTINUOUS
  0
LAYER
  2
DEFPOINTS
 70
     0
 62
     7
  6
CONTINUOUS
  0
ENDTAB
  0
TABLE
  2
STYLE
 70
     1
  0
STYLE
  2
STANDARD
 70
     0
 40
0.0
 41
0.8
 50
0.0
 71
     0
 42
0.2
  3
txt
  4

  0
ENDTAB
  0
TABLE
  2
VIEW
 70
     0
  0
ENDTAB
  0
TABLE
  2
UCS
 70
     0
  0
ENDTAB
  0
TABLE
  2
APPID
 70
    11
  0
APPID
  2
ACAD
 70
     0
  0
APPID
  2
ACAD_MLEADERVER
 70
     0
  0
APPID
  2
ACAD_EXEMPT_FROM_CAD_STANDARDS
 70
     0
  0
APPID
  2
ACAD_NAV_VCDISPLAY
 70
     0
  0
APPID
  2
ACAECLAYERSTANDARD
 70
     0
  0
APPID
  2
ACCMTRANSPARENCY
 70
     0
  0
APPID
  2
ACAD_DSTYLE_DIMJAG
 70
     0
  0
APPID
  2
ACAD_DSTYLE_DIMTALN
 70
     0
  0
APPID
  2
ACDBATTR
 70
     0
  0
APPID
  2
ACADANNOTATIVE
 70
     0
  0
APPID
  2
DCO15
 70
     0
  0
ENDTAB
  0
TABLE
  2
DIMSTYLE
 70
     1
  0
DIMSTYLE
  2
STANDARD
 70
     0
  3

  4

  5

  6

  7

 40
1.0
 41
0.1875
 42
0.0625
 43
0.38
 44
0.125
 45
0.0
 46
0.0
 47
0.01
 48
0.01
140
0.15625
141
0.09
142
0.0
143
25.3999999999999986
144
1.0
145
0.0
146
1.0
147
0.09
 71
     1
 72
     0
 73
     1
 74
     1
 75
     0
 76
     0
 77
     0
 78
     4
170
     0
171
     2
172
     0
173
     0
174
     0
175
     0
176
     0
177
     0
178
     0
  0
ENDTAB
  0
ENDSEC
  0
SECTION
  2
BLOCKS
  0
BLOCK
  8
0
  2
$MODEL_SPACE
 70
     0
 10
0.0
 20
0.0
 30
0.0
  3
$MODEL_SPACE
  1

  0
ENDBLK
  5
21
  8
0
  0
BLOCK
 67
     1
  8
0
  2
$PAPER_SPACE
 70
     0
 10
0.0
 20
0.0
 30
0.0
  3
$PAPER_SPACE
  1

  0
ENDBLK
  5
1D
 67
     1
  8
0
  0
ENDSEC
  0
SECTION
  2
ENTITIES
  0
ATTDEF
  5
159BF
  8
0
 10
4436.8099426866292561
 20
384.4101537041240135
 30
0.0
 40
0.001
  1
K-3348T-2KD
  3

  2
MODELNUMBER
 70
     0
1001
ACDBATTR
1070
     0
1070
     1
  0
ATTDEF
  5
159C0
  8
0
 10
4436.809816876972036
 20
384.4084868637448267
 30
0.0
 40
0.001
  1
TOCCATA
  3

  2
TRADENAME
 70
     0
1001
ACDBATTR
1070
     0
1070
     1
  0
ATTDEF
  5
159C1
  8
0
 10
4436.8099426866292561
 20
384.4068203707906832
 30
0.0
 40
0.001
  1
KITCHEN SINK
  3

  2
PRODUCT
 70
     0
1001
ACDBATTR
1070
     0
1070
     1
  0
LINE
  5
17734
  8
0
 10
4445.7577998324140935
 20
384.6562917838285784
 30
0.0
 11
4427.8601620371146055
 21
384.6562917838285784
 31
0.0
  0
LINE
  5
17735
  8
0
 10
4446.2577998324140935
 20
384.4062917838285784
 30
0.0
 11
4427.360162037113696
 21
384.4062917838285784
 31
0.0
  0
LINE
  5
17736
  8
0
 10
4443.5018943205141113
 20
384.3069217050286284
 30
0.0
 11
4445.0079050143349377
 21
384.3069217050286284
 31
0.0
  0
LINE
  5
17737
  8
0
 10
4443.0097683363146643
 20
384.3069217050286284
 30
0.0
 11
4442.419217155214028
 21
384.3069217050286284
 31
0.0
  0
LINE
  5
17738
  8
0
 10
4441.9270911709136271
 20
384.3069217050286284
 30
0.0
 11
4431.6908706985132085
 21
384.3069217050286284
 31
0.0
  0
LINE
  5
17739
  8
0
 10
4431.1987447143137615
 20
384.3069217050286284
 30
0.0
 11
4430.6081935332149442
 21
384.3069217050286284
 31
0.0
  0
LINE
  5
1773A
  8
0
 10
4430.1160675489136338
 20
384.3069217050286284
 30
0.0
 11
4428.6100568551928518
 21
384.3069217050286284
 31
0.0
  0
LINE
  5
1773B
  8
0
 10
4434.8679573126137257
 20
376.2159644294285954
 30
0.0
 11
4438.7655951079141232
 21
376.2159644294285954
 31
0.0
  0
LINE
  5
1773D
  8
0
 10
4430.1160675489136338
 20
384.4062917838285784
 30
0.0
 11
4430.1160675489136338
 21
384.2232209176286233
 31
0.0
  0
LINE
  5
1773E
  8
0
 10
4430.3129179426141491
 20
384.0263705239286764
 30
0.0
 11
4431.4940203048136027
 21
384.0263705239286764
 31
0.0
  0
LINE
  5
1773F
  8
0
 10
4431.6908706985132085
 20
384.4062917838285784
 30
0.0
 11
4431.6908706985132085
 21
384.2232209176286233
 31
0.0
  0
LINE
  5
17740
  8
0
 10
4430.6081935332149442
 20
384.3807012326287236
 30
0.0
 11
4431.1987447143137615
 21
384.3807012326287236
 31
0.0
  0
LINE
  5
17741
  8
0
 10
4431.1987447143137615
 20
384.3807012326287236
 30
0.0
 11
4431.1987447143137615
 21
384.1838508389287199
 31
0.0
  0
LINE
  5
17742
  8
0
 10
4431.1987447143137615
 20
384.1838508389287199
 30
0.0
 11
4430.6081935332149442
 21
384.1838508389287199
 31
0.0
  0
LINE
  5
17743
  8
0
 10
4430.6081935332149442
 20
384.1838508389287199
 30
0.0
 11
4430.6081935332149442
 21
384.3807012326287236
 31
0.0
  0
ARC
  5
17744
  8
0
 10
4430.3129179426141491
 20
384.2232209176286233
 30
0.0
 40
0.196850393700001
 50
180.0
 51
270.0
  0
ARC
  5
17745
  8
0
 10
4431.4940203048136027
 20
384.2232209176286233
 30
0.0
 40
0.1968503937000001
 50
270.0
 51
0.0
  0
LINE
  5
17746
  8
0
 10
4441.9270911709136271
 20
384.4062917838285784
 30
0.0
 11
4441.9270911709136271
 21
384.2232209176286233
 31
0.0
  0
LINE
  5
17747
  8
0
 10
4442.1239415646141424
 20
384.0263705239286764
 30
0.0
 11
4443.305043926813596
 21
384.0263705239286764
 31
0.0
  0
LINE
  5
17748
  8
0
 10
4443.5018943205141113
 20
384.4062917838285784
 30
0.0
 11
4443.5018943205141113
 21
384.2232209176286233
 31
0.0
  0
LINE
  5
17749
  8
0
 10
4442.419217155214028
 20
384.3807012326287236
 30
0.0
 11
4443.0097683363146643
 21
384.3807012326287236
 31
0.0
  0
LINE
  5
1774A
  8
0
 10
4443.0097683363146643
 20
384.3807012326287236
 30
0.0
 11
4443.0097683363146643
 21
384.1838508389287199
 31
0.0
  0
LINE
  5
1774B
  8
0
 10
4443.0097683363146643
 20
384.1838508389287199
 30
0.0
 11
4442.419217155214028
 21
384.1838508389287199
 31
0.0
  0
LINE
  5
1774C
  8
0
 10
4442.419217155214028
 20
384.1838508389287199
 30
0.0
 11
4442.419217155214028
 21
384.3807012326287236
 31
0.0
  0
ARC
  5
1774D
  8
0
 10
4442.1239415646141424
 20
384.2232209176286233
 30
0.0
 40
0.196850393700001
 50
180.0
 51
270.0
  0
ARC
  5
1774E
  8
0
 10
4443.305043926813596
 20
384.2232209176286233
 30
0.0
 40
0.1968503937000001
 50
270.0
 51
0.0
  0
ARC
  5
1774F
  8
0
 10
4439.2313792382437896
 20
376.328497970554281
 30
0.0
 40
0.1185526806612696
 50
100.4472436550528016
 51
144.441842719228589
  0
ARC
  5
17750
  8
0
 10
4438.9445207787139225
 20
376.4008344185360215
 30
0.0
 40
0.157480314200479
 50
278.1942631974611118
 51
324.7579635299741199
  0
LINE
  5
17751
  8
0
 10
4439.1349335899139987
 20
376.3974397939286973
 30
0.0
 11
4439.0731383788142921
 21
376.3099632883286176
 31
0.0
  0
LINE
  5
17752
  8
0
 10
4438.9669664213006399
 20
376.2449618984836093
 30
0.0
 11
4438.7655951079141232
 21
376.2159644294285954
 31
0.0
  0
ARC
  5
17753
  8
0
 10
4434.4080982263940314
 20
376.3208656655560844
 30
0.0
 40
0.1181196049031929
 50
35.6909242338370234
 51
85.643087528465685
  0
ARC
  5
17754
  8
0
 10
4434.6890316418148359
 20
376.4008344185360215
 30
0.0
 40
0.157480314200479
 50
215.2420364700259086
 51
261.8057368025388882
  0
LINE
  5
17755
  8
0
 10
4434.5040321288142877
 20
376.3897781276285741
 30
0.0
 11
4434.5604140417135568
 21
376.3099632883286176
 31
0.0
  0
LINE
  5
17756
  8
0
 10
4434.6665859992281185
 20
376.2449618984836093
 30
0.0
 11
4434.8679573126137257
 21
376.2159644294285954
 31
0.0
  0
LINE
  5
17757
  8
0
 10
4434.4170716787148194
 20
376.438643924228586
 30
0.0
 11
4430.8272003543143001
 21
376.7119305297287042
 31
0.0
  0
LINE
  5
17758
  8
0
 10
4429.4085631027137424
 20
378.1350636208287028
 30
0.0
 11
4428.9872360830149773
 21
384.1604266615286178
 31
0.0
  0
ARC
  5
17759
  8
0
 10
4428.6100568555930295
 20
384.8462917847887752
 30
0.0
 40
0.5393700797601447
 50
234.6661338804887009
 51
269.9999999491403742
  0
ARC
  5
1775A
  8
0
 10
4428.8301393826131971
 20
384.149441390633001
 30
0.0
 40
0.1574803144955705
 50
3.9999998075165699
 51
90.0000000721726536
  0
ARC
  5
1775B
  8
0
 10
4427.8601620371146055
 20
384.0312917838286921
 30
0.0
 40
0.6249999999999912
 50
90.0
 51
143.1301023541898019
  0
ARC
  5
1775C
  8
0
 10
4445.7577998324140935
 20
384.0312917838286921
 30
0.0
 40
0.6249999999999947
 50
36.8698976458101484
 51
90.0
  0
ARC
  5
1775D
  8
0
 10
4445.0079050143349377
 20
384.8462917847887184
 30
0.0
 40
0.5393700797600669
 50
269.9999990841631075
 51
305.3367852500340973
  0
LINE
  5
1775E
  8
0
 10
4445.4772880213140525
 20
384.4062917838285784
 30
0.0
 11
4445.4772880213140525
 21
384.0263705239286764
 31
0.0
  0
LINE
  5
1775F
  8
0
 10
4445.4772880213140525
 20
384.0263705239286764
 30
0.0
 11
4445.5087840843143567
 21
384.0263705239286764
 31
0.0
  0
LINE
  5
17760
  8
0
 10
4445.5087840843143567
 20
384.0263705239286764
 30
0.0
 11
4445.5087840843143567
 21
384.4062917838285784
 31
0.0
  0
LINE
  5
17761
  8
0
 10
4428.1406738482137371
 20
384.4062917838285784
 30
0.0
 11
4428.1406738482137371
 21
384.0263705239286764
 31
0.0
  0
LINE
  5
17762
  8
0
 10
4428.1406738482137371
 20
384.0263705239286764
 30
0.0
 11
4428.1091777852152518
 21
384.0263705239286764
 31
0.0
  0
LINE
  5
17763
  8
0
 10
4428.1091777852152518
 20
384.0263705239286764
 30
0.0
 11
4428.1091777852152518
 21
384.4062917838285784
 31
0.0
  0
ARC
  5
17764
  8
0
 10
4430.944250291940989
 20
378.247255046307373
 30
0.0
 40
1.539779873587801
 50
184.1783871654830023
 51
265.6403227352330987
  0
LINE
  5
17765
  8
0
 10
4441.326655754114654
 20
378.0103638701285718
 30
0.0
 11
4441.7567100384139849
 21
384.1604266615286178
 31
0.0
  0
ARC
  5
17766
  8
0
 10
4441.9138067388157651
 20
384.149441390633001
 30
0.0
 40
0.1574803144955705
 50
89.9999999278273606
 51
176.0000001924834123
  0
ARC
  5
17767
  8
0
 10
4439.7908587095025723
 20
378.1160138861936844
 30
0.0
 40
1.5394266751389341
 50
280.0417687927156862
 51
356.0647284690044785
  0
LINE
  5
17768
  8
0
 10
4439.2098820694136521
 20
376.4450853190285784
 30
0.0
 11
4440.0592824723144076
 21
376.6001698402287161
 31
0.0
  0
ARC
  5
17769
  8
0
 10
4442.1995970673142438
 20
378.4053469019286808
 30
0.0
 40
7.9842519684999216
 50
90.0
 51
114.1733610074035994
  0
LINE
  5
1776A
  8
0
 10
4442.1995970673142438
 20
386.3895988704285855
 30
0.0
 11
4442.2276946192341711
 21
386.3895988704285855
 31
0.0
  0
ARC
  5
1776B
  8
0
 10
4441.6697508429206209
 20
386.2827831992025835
 30
0.0
 40
0.5680764430488721
 50
348.0702742897585722
 51
11.2241431000178302
  0
LINE
  5
1776C
  8
0
 10
4442.1995970673142438
 20
386.1691264295286032
 30
0.0
 11
4442.2263413421478617
 21
386.1691264294286157
 31
0.0
  0
ARC
  5
1776D
  8
0
 10
4442.1995970673142438
 20
378.4053469019286808
 30
0.0
 40
7.7637795275999393
 50
90.0
 51
113.2660189207806951
  0
ARC
  5
1776E
  8
0
 10
4438.9332836948578915
 20
385.6822810241961861
 30
0.0
 40
0.0078760214595956
 50
114.2043406521039941
 51
227.7905040867262016
  0
ARC
  5
1776F
  8
0
 10
4439.1297947636612662
 20
385.5450433179000811
 30
0.0
 40
0.0078966990339211
 50
242.3840163558720917
 51
293.1444793178230839
  0
ARC
  5
17770
  8
0
 10
4439.5716154664596615
 20
386.386855692026586
 30
0.0
 40
0.9586088496760335
 50
227.8237223266928027
 51
242.3081365433367864
  0
LINE
  5
17771
  8
0
 10
4442.232193744614051
 20
386.60613430352862
 30
0.0
 11
4443.3542720619143438
 21
386.60613430352862
 31
0.0
  0
LINE
  5
17772
  8
0
 10
4443.3570096894136441
 20
386.6455043822285802
 30
0.0
 11
4442.2294508491140732
 21
386.6455043822285802
 31
0.0
  0
LINE
  5
17773
  8
0
 10
4443.3460389321153343
 20
386.6455043822285802
 30
0.0
 11
4443.3463484516150857
 21
386.6100369549286029
 31
0.0
  0
LINE
  5
17774
  8
0
 10
4443.3582179257136886
 20
386.6022215370286972
 30
0.0
 11
4443.3679140969143191
 21
385.0275153533286243
 31
0.0
  0
LINE
  5
17775
  8
0
 10
4443.3482270504146072
 20
385.0077091066286243
 30
0.0
 11
4442.238238756114697
 21
385.0077091066286243
 31
0.0
  0
LINE
  5
17776
  8
0
 10
4443.2534022656136585
 20
385.0077091066286243
 30
0.0
 11
4443.2564690381132095
 21
384.6562917838285784
 31
0.0
  0
LINE
  5
17777
  8
0
 10
4443.2584192458143661
 20
386.7625637790287101
 30
0.0
 11
4443.3544251557141251
 21
386.7456353467287045
 31
0.0
  0
LINE
  5
17778
  8
0
 10
4443.3641847668141054
 20
386.7341068284287076
 30
0.0
 11
4443.364888673515452
 21
386.6534471108287221
 31
0.0
  0
ARC
  5
17779
  8
0
 10
4443.224236527848916
 20
386.5687039325367209
 30
0.0
 40
0.1968504465053626
 50
80.0000009882713954
 51
87.3758640065296106
  0
ARC
  5
1777A
  8
0
 10
4443.3523741928811432
 20
386.7340037590731185
 30
0.0
 40
0.0118110236615291
 50
0.500000185693441
 51
79.9999995153021644
  0
ARC
  5
1777B
  8
0
 10
4443.3570149544493688
 20
386.6533783993407951
 30
0.0
 40
0.007874018872402
 50
269.9616886573921875
 51
0.4999896861551475
  0
ARC
  5
1777C
  8
0
 10
4443.3502853096242688
 20
386.610071311346303
 30
0.0
 40
0.0039370079191294
 50
180.4999996838627965
 51
270.0
  0
ARC
  5
1777D
  8
0
 10
4443.354280975085203
 20
386.6021972883111175
 30
0.0
 40
0.0039370253069939
 50
0.35289535905988
 51
90.1297140318656744
  0
ARC
  5
1777E
  8
0
 10
4443.3482294304976676
 20
385.0273941460612264
 30
0.0
 40
0.0196850395764719
 50
269.9930724678504248
 51
0.3527912008818597
  0
LINE
  5
1777F
  8
0
 10
4442.2404268744148794
 20
386.6455043822285802
 30
0.0
 11
4442.2401173549142186
 21
386.6100369549286029
 31
0.0
  0
LINE
  5
17780
  8
0
 10
4442.2282478808147061
 20
386.6022215370286972
 30
0.0
 11
4442.2269618142554464
 21
386.3933579638224955
 31
0.0
  0
LINE
  5
17781
  8
0
 10
4442.2255578984149906
 20
386.1653550841302263
 30
0.0
 11
4442.2185517096149852
 21
385.0275153533286243
 31
0.0
  0
LINE
  5
17782
  8
0
 10
4442.3330635409147362
 20
385.0077091066286243
 30
0.0
 11
4442.3299967684142757
 21
384.6562917838285784
 31
0.0
  0
LINE
  5
17783
  8
0
 10
4442.3280465607149381
 20
386.7625637790287101
 30
0.0
 11
4442.2320406508142696
 21
386.7456353467287045
 31
0.0
  0
LINE
  5
17784
  8
0
 10
4442.2222810397142894
 20
386.7341068284287076
 30
0.0
 11
4442.2215771330147618
 21
386.6534471108287221
 31
0.0
  0
ARC
  5
17785
  8
0
 10
4442.3622292785221362
 20
386.5687039336327189
 30
0.0
 40
0.1968504453986419
 50
92.6241359333241832
 51
99.9999990220998001
  0
ARC
  5
17786
  8
0
 10
4442.234091613648161
 20
386.7340037590731185
 30
0.0
 40
0.0118110236615291
 50
100.000000484697793
 51
179.4999998143065909
  0
ARC
  5
17787
  8
0
 10
4442.2294508490958833
 20
386.653378398126506
 30
0.0
 40
0.0078740158978745
 50
179.5000012888372964
 51
270.0000001380919912
  0
ARC
  5
17788
  8
0
 10
4442.2361804969041259
 20
386.610071311346303
 30
0.0
 40
0.0039370079191294
 50
270.0
 51
359.5000003161371751
  0
ARC
  5
17789
  8
0
 10
4442.2321848314450108
 20
386.6021972883111175
 30
0.0
 40
0.0039370253069939
 50
89.8702859681343398
 51
179.647104640940114
  0
ARC
  5
1778A
  8
0
 10
4442.2382363760298176
 20
385.0273941460612264
 30
0.0
 40
0.0196850395764719
 50
179.6472087991180899
 51
270.0069275321495752
  0
ARC
  5
1778B
  8
0
 10
4442.7932329033146743
 20
377.1646832198160268
 30
0.0
 40
9.6107428237126502
 50
87.3758650180073744
 51
92.6241349819926256
  0
ENDSEC
  0
EOF
