  0
SECTION
  2
HEADER
  9
$ACADVER
  1
AC1009
  9
$INSBASE
 10
5643.1732838018133407
 20
401.1359901948449078
 30
0.0
  9
$EXTMIN
 10
5635.883946346925768
 20
401.1080212670406127
 30
-0.0000000349181948
  9
$EXTMAX
 10
5650.5029435495343932
 20
407.9135520103204158
 30
0.0000000814935746
  9
$LIMMIN
 10
0.0
 20
0.0
  9
$LIMMAX
 10
11.6929133858000007
 20
8.2677165353999982
  9
$ORTHOMODE
 70
     0
  9
$REGENMODE
 70
     1
  9
$FILLMODE
 70
     1
  9
$QTEXTMODE
 70
     0
  9
$MIRRTEXT
 70
     0
  9
$DRAGMODE
 70
     2
  9
$LTSCALE
 40
0.6431102362
  9
$OSMODE
 70
  4095
  9
$ATTMODE
 70
     1
  9
$TEXTSIZE
 40
0.2
  9
$TRACEWID
 40
0.05
  9
$TEXTSTYLE
  7
STANDARD
  9
$CLAYER
  8
0
  9
$CELTYPE
  6
BYLAYER
  9
$CECOLOR
 62
   256
  9
$DIMSCALE
 40
1.0
  9
$DIMASZ
 40
0.1875
  9
$DIMEXO
 40
0.0625
  9
$DIMDLI
 40
0.4443307087
  9
$DIMRND
 40
0.0
  9
$DIMDLE
 40
0.0
  9
$DIMEXE
 40
0.125
  9
$DIMTP
 40
0.01
  9
$DIMTM
 40
0.01
  9
$DIMTXT
 40
2.0
  9
$DIMCEN
 40
0.1052362205
  9
$DIMTSZ
 40
0.0
  9
$DIMTOL
 70
     1
  9
$DIMLIM
 70
     0
  9
$DIMTIH
 70
     1
  9
$DIMTOH
 70
     1
  9
$DIMSE1
 70
     0
  9
$DIMSE2
 70
     0
  9
$DIMTAD
 70
     0
  9
$DIMZIN
 70
     0
  9
$DIMBLK
  1

  9
$DIMASO
 70
     1
  9
$DIMSHO
 70
     1
  9
$DIMPOST
  1
\X
  9
$DIMAPOST
  1

  9
$DIMALT
 70
     1
  9
$DIMALTD
 70
     2
  9
$DIMALTF
 40
25.3999999999999986
  9
$DIMLFAC
 40
1.0
  9
$DIMTOFL
 70
     0
  9
$DIMTVP
 40
0.0
  9
$DIMTIX
 70
     0
  9
$DIMSOXD
 70
     0
  9
$DIMSAH
 70
     0
  9
$DIMBLK1
  1

  9
$DIMBLK2
  1

  9
$DIMSTYLE
  2
STANDARD
  9
$DIMCLRD
 70
     0
  9
$DIMCLRE
 70
     0
  9
$DIMCLRT
 70
     0
  9
$DIMTFAC
 40
1.0
  9
$DIMGAP
 40
0.09
  9
$LUNITS
 70
     2
  9
$LUPREC
 70
     4
  9
$SKETCHINC
 40
0.1
  9
$FILLETRAD
 40
0.0
  9
$AUNITS
 70
     0
  9
$AUPREC
 70
     0
  9
$MENU
  1
.
  9
$ELEVATION
 40
0.0
  9
$PELEVATION
 40
0.0
  9
$THICKNESS
 40
0.0
  9
$LIMCHECK
 70
     0
  9
$BLIPMODE
 70
     0
  9
$CHAMFERA
 40
0.0
  9
$CHAMFERB
 40
0.0
  9
$SKPOLY
 70
     0
  9
$TDCREATE
 40
2458060.468368056230247
  9
$TDUPDATE
 40
2460426.4491898152045906
  9
$TDINDWG
 40
0.6485950230999999
  9
$TDUSRTIMER
 40
0.6485950230999999
  9
$USRTIMER
 70
     1
  9
$ANGBASE
 50
0.0
  9
$ANGDIR
 70
     0
  9
$PDMODE
 70
     0
  9
$PDSIZE
 40
0.3125
  9
$PLINEWID
 40
0.0
  9
$COORDS
 70
     1
  9
$SPLFRAME
 70
     0
  9
$SPLINETYPE
 70
     6
  9
$SPLINESEGS
 70
     8
  9
$ATTDIA
 70
     1
  9
$ATTREQ
 70
     1
  9
$HANDLING
 70
     1
  9
$HANDSEED
  5
2ABF1
  9
$SURFTAB1
 70
     6
  9
$SURFTAB2
 70
     6
  9
$SURFTYPE
 70
     6
  9
$SURFU
 70
     6
  9
$SURFV
 70
     6
  9
$UCSNAME
  2

  9
$UCSORG
 10
0.0
 20
0.0
 30
0.0
  9
$UCSXDIR
 10
1.0
 20
0.0
 30
0.0
  9
$UCSYDIR
 10
0.0
 20
1.0
 30
0.0
  9
$PUCSNAME
  2

  9
$PUCSORG
 10
0.0
 20
0.0
 30
0.0
  9
$PUCSXDIR
 10
1.0
 20
0.0
 30
0.0
  9
$PUCSYDIR
 10
0.0
 20
1.0
 30
0.0
  9
$USERI1
 70
     0
  9
$USERI2
 70
     0
  9
$USERI3
 70
     0
  9
$USERI4
 70
     0
  9
$USERI5
 70
     0
  9
$USERR1
 40
0.0
  9
$USERR2
 40
0.0
  9
$USERR3
 40
0.0
  9
$USERR4
 40
0.0
  9
$USERR5
 40
0.0
  9
$WORLDVIEW
 70
     1
  9
$SHADEDGE
 70
     3
  9
$SHADEDIF
 70
    70
  9
$TILEMODE
 70
     1
  9
$MAXACTVP
 70
    64
  9
$PLIMCHECK
 70
     0
  9
$PEXTMIN
 10
1.0000000000000000E+20
 20
1.0000000000000000E+20
 30
1.0000000000000000E+20
  9
$PEXTMAX
 10
-1.0000000000000000E+20
 20
-1.0000000000000000E+20
 30
-1.0000000000000000E+20
  9
$PLIMMIN
 10
0.0
 20
0.0
  9
$PLIMMAX
 10
12.0
 20
9.0
  9
$UNITMODE
 70
     0
  9
$VISRETAIN
 70
     1
  9
$PLINEGEN
 70
     0
  9
$PSLTSCALE
 70
     1
  0
ENDSEC
  0
SECTION
  2
TABLES
  0
TABLE
  2
VPORT
 70
     1
  0
VPORT
  2
*ACTIVE
 70
     0
 10
0.0
 20
0.0
 11
1.0
 21
1.0
 12
1731.8280885029180354
 22
271.9311815361414801
 13
0.0
 23
0.0
 14
1.0
 24
1.0
 15
0.0
 25
0.0
 16
0.0
 26
0.0
 36
60.4960186965801583
 17
3911.3653564453120453
 27
132.5796051025390057
 37
0.0
 40
6.851879420305635
 41
2.1579545454545448
 42
50.0
 43
0.0
 44
0.0
 50
0.0
 51
0.0
 71
     0
 72
   100
 73
     1
 74
     1
 75
     0
 76
     0
 77
     0
 78
     0
  0
ENDTAB
  0
TABLE
  2
LTYPE
 70
     2
  0
LTYPE
  2
CONTINUOUS
 70
     0
  3
Solid line
 72
    65
 73
     0
 40
0.0
  0
LTYPE
  2
PHANTOM2
 70
     0
  3
___ _ _ ___ _ _ ___ _ _ ___ _ _
 72
    65
 73
     6
 40
1.25
 49
0.625
 49
-0.125
 49
0.125
 49
-0.125
 49
0.125
 49
-0.125
  0
ENDTAB
  0
TABLE
  2
LAYER
 70
     2
  0
LAYER
  2
0
 70
     0
 62
   255
  6
CONTINUOUS
  0
LAYER
  2
DEFPOINTS
 70
     0
 62
     7
  6
CONTINUOUS
  0
ENDTAB
  0
TABLE
  2
STYLE
 70
     1
  0
STYLE
  2
STANDARD
 70
     0
 40
0.0
 41
0.8
 50
0.0
 71
     0
 42
0.2
  3
txt
  4

  0
ENDTAB
  0
TABLE
  2
VIEW
 70
     0
  0
ENDTAB
  0
TABLE
  2
UCS
 70
     0
  0
ENDTAB
  0
TABLE
  2
APPID
 70
    11
  0
APPID
  2
ACAD
 70
     0
  0
APPID
  2
ACAD_MLEADERVER
 70
     0
  0
APPID
  2
ACAD_EXEMPT_FROM_CAD_STANDARDS
 70
     0
  0
APPID
  2
ACAD_NAV_VCDISPLAY
 70
     0
  0
APPID
  2
ACAECLAYERSTANDARD
 70
     0
  0
APPID
  2
ACCMTRANSPARENCY
 70
     0
  0
APPID
  2
ACAD_DSTYLE_DIMJAG
 70
     0
  0
APPID
  2
ACAD_DSTYLE_DIMTALN
 70
     0
  0
APPID
  2
ACDBATTR
 70
     0
  0
APPID
  2
ACADANNOTATIVE
 70
     0
  0
APPID
  2
DCO15
 70
     0
  0
ENDTAB
  0
TABLE
  2
DIMSTYLE
 70
     1
  0
DIMSTYLE
  2
STANDARD
 70
     0
  3

  4

  5

  6

  7

 40
1.0
 41
0.1875
 42
0.0625
 43
0.38
 44
0.125
 45
0.0
 46
0.0
 47
0.01
 48
0.01
140
0.15625
141
0.09
142
0.0
143
25.3999999999999986
144
1.0
145
0.0
146
1.0
147
0.09
 71
     1
 72
     0
 73
     1
 74
     1
 75
     0
 76
     0
 77
     0
 78
     4
170
     0
171
     2
172
     0
173
     0
174
     0
175
     0
176
     0
177
     0
178
     0
  0
ENDTAB
  0
ENDSEC
  0
SECTION
  2
BLOCKS
  0
BLOCK
  8
0
  2
$MODEL_SPACE
 70
     0
 10
0.0
 20
0.0
 30
0.0
  3
$MODEL_SPACE
  1

  0
ENDBLK
  5
21
  8
0
  0
BLOCK
 67
     1
  8
0
  2
$PAPER_SPACE
 70
     0
 10
0.0
 20
0.0
 30
0.0
  3
$PAPER_SPACE
  1

  0
ENDBLK
  5
1D
 67
     1
  8
0
  0
ENDSEC
  0
SECTION
  2
ENTITIES
  0
ATTDEF
  5
26A5B
  8
DEFPOINTS
 10
5643.1704676408344312
 20
401.139663024933725
 30
0.0
 40
0.001
  1
K-33592-4
  3

  2
MODELNUMBER
 70
     0
1001
ACDBATTR
1070
     0
1070
     1
  0
ATTDEF
  5
26A5C
  8
DEFPOINTS
 10
5643.1703418311772111
 20
401.1379961845547086
 30
0.0
 40
0.001
  1
ELATE
  3

  2
TRADENAME
 70
     0
1001
ACDBATTR
1070
     0
1070
     1
  0
ATTDEF
  5
26A5D
  8
DEFPOINTS
 10
5643.1704676408344312
 20
401.1363296916003947
 30
0.0
 40
0.001
  1
BATHROOM SINK FAUCET
  3

  2
PRODUCT
 70
     0
1001
ACDBATTR
1070
     0
1070
     1
  0
LINE
  5
2AADF
  8
0
 10
5650.1441905211622725
 20
403.5509931831448966
 30
0.0
 11
5646.4620740135178494
 21
403.5509931831448966
 31
0.0
  0
LINE
  5
2AAE0
  8
0
 10
5650.1441905211622725
 20
403.2009901948449055
 30
0.0
 11
5646.4593494592845673
 21
403.2009901948449055
 31
0.0
  0
LINE
  5
2AAE1
  8
0
 10
5646.12219510216255
 20
401.1359901948449078
 30
0.0
 11
5648.2243725014614029
 21
401.1359901948449078
 31
0.0
  0
LINE
  5
2AAE2
  8
0
 10
5646.1402699255868356
 20
401.4359901948449192
 30
0.0
 11
5648.2062976780380268
 21
401.4359901948449192
 31
0.0
  0
LINE
  5
2AAE3
  8
0
 10
5646.4676439912145725
 20
403.185990194844976
 30
0.0
 11
5647.8789236124102899
 21
403.185990194844976
 31
0.0
  0
LINE
  5
2AAE4
  8
0
 10
5646.4431747331718725
 20
403.5322581146676839
 30
0.0
 11
5646.4404501789385904
 21
403.2200551263675834
 31
0.0
  0
ARC
  5
2AAE5
  8
0
 10
5646.4620740135178494
 20
403.5320931831449229
 30
0.0
 40
0.0189
 50
90.0
 51
179.4999999945266893
  0
ARC
  5
2AAE6
  8
0
 10
5646.4593494592845673
 20
403.2198901948448793
 30
0.0
 40
0.0189
 50
179.4999999945364948
 51
270.0
  0
LINE
  5
2AAE7
  8
0
 10
5646.4400450421389905
 20
403.158631047223821
 30
0.0
 11
5646.4251156588998128
 21
401.4478931679634002
 31
0.0
  0
ARC
  5
2AAE8
  8
0
 10
5646.436915209590552
 20
401.447790194844913
 30
0.0
 40
0.0118
 50
179.5000000019107063
 51
270.0
  0
LINE
  5
2AAE9
  8
0
 10
5646.1126709765103442
 20
401.4086310472288233
 30
0.0
 11
5646.1103955514709014
 21
401.1478931679656057
 31
0.0
  0
ARC
  5
2AAEA
  8
0
 10
5646.12219510216255
 20
401.1477901948449016
 30
0.0
 40
0.0118
 50
179.4999999915272042
 51
270.0
  0
ARC
  5
2AAEB
  8
0
 10
5646.1402699255868356
 20
401.4083901948449125
 30
0.0
 40
0.0276
 50
90.0
 51
179.4999999915272042
  0
ARC
  5
2AAEC
  8
0
 10
5646.4676439912145725
 20
403.1583901948449125
 30
0.0
 40
0.0276
 50
90.0
 51
179.5000000019107063
  0
LINE
  5
2AAED
  8
0
 10
5646.7244649042122546
 20
403.1970531869450269
 30
0.0
 11
5646.7244649042122546
 21
403.185990194844976
 31
0.0
  0
ARC
  5
2AAEE
  8
0
 10
5646.7284019121116216
 20
403.1970531869450269
 30
0.0
 40
0.003937007900003
 50
90.0000000000521254
 51
179.9999999999934914
  0
LINE
  5
2AAEF
  8
0
 10
5647.6221026994116983
 20
403.1970531869450269
 30
0.0
 11
5647.6221026994116983
 21
403.185990194844976
 31
0.0
  0
ARC
  5
2AAF0
  8
0
 10
5647.6181656915123313
 20
403.1970531869450269
 30
0.0
 40
0.003937007900003
 50
0.0000000000065138
 51
89.9999999999478888
  0
LINE
  5
2AAF1
  8
0
 10
5647.9065225614858718
 20
403.158631047223821
 30
0.0
 11
5647.921451944725959
 21
401.4478931679634002
 31
0.0
  0
ARC
  5
2AAF2
  8
0
 10
5647.9096523940343104
 20
401.447790194844913
 30
0.0
 40
0.0118
 50
270.0
 51
0.4999999980892839
  0
ARC
  5
2AAF3
  8
0
 10
5647.8789236124102899
 20
403.1583901948449125
 30
0.0
 40
0.0276
 50
0.4999999980892839
 51
90.0
  0
LINE
  5
2AAF4
  8
0
 10
5648.2338966271154277
 20
401.4086310472288233
 30
0.0
 11
5648.2361720521530515
 21
401.1478931679656057
 31
0.0
  0
ARC
  5
2AAF5
  8
0
 10
5648.2243725014614029
 20
401.1477901948449016
 30
0.0
 40
0.0118
 50
270.0
 51
0.5000000084727569
  0
ARC
  5
2AAF6
  8
0
 10
5648.2062976780380268
 20
401.4083901948449125
 30
0.0
 40
0.0276
 50
0.5000000084727569
 51
90.0
  0
LINE
  5
2AAF7
  8
0
 10
5642.122195102164369
 20
401.1359901948449078
 30
0.0
 11
5644.2243725014623124
 21
401.1359901948449078
 31
0.0
  0
LINE
  5
2AAF8
  8
0
 10
5642.1402699255868356
 20
401.4359901948449192
 30
0.0
 11
5644.2062976780389363
 21
401.4359901948449192
 31
0.0
  0
LINE
  5
2AAF9
  8
0
 10
5642.1126709765103442
 20
401.4086310472288233
 30
0.0
 11
5642.1103955514718109
 21
401.1478931679656057
 31
0.0
  0
ARC
  5
2AAFA
  8
0
 10
5642.122195102164369
 20
401.1477901948449016
 30
0.0
 40
0.0118
 50
179.4999999915272042
 51
270.0
  0
ARC
  5
2AAFB
  8
0
 10
5642.1402699255868356
 20
401.4083901948449125
 30
0.0
 40
0.0276
 50
90.0
 51
179.4999999915272042
  0
LINE
  5
2AAFC
  8
0
 10
5644.2338966271136087
 20
401.4086310472288233
 30
0.0
 11
5644.2361720521530515
 21
401.1478931679656057
 31
0.0
  0
ARC
  5
2AAFD
  8
0
 10
5644.2243725014623124
 20
401.1477901948449016
 30
0.0
 40
0.0118
 50
270.0
 51
0.5000000084727569
  0
ARC
  5
2AAFE
  8
0
 10
5644.2062976780389363
 20
401.4083901948449125
 30
0.0
 40
0.0276
 50
0.5000000084727569
 51
90.0
  0
LINE
  5
2AAFF
  8
0
 10
5650.1717905211626203
 20
403.5233931831448899
 30
0.0
 11
5650.1717905211626203
 21
403.228590194845026
 31
0.0
  0
ARC
  5
2AB00
  8
0
 10
5650.1441905211622725
 20
403.5233931831448899
 30
0.0
 40
0.0276
 50
359.9999999999968168
 51
90.0
  0
ARC
  5
2AB01
  8
0
 10
5650.1441905211622725
 20
403.228590194845026
 30
0.0
 40
0.0276
 50
270.0
 51
0.0
  0
LINE
  5
2AB02
  8
0
 10
5643.7045338018624534
 20
401.4438901948449825
 30
0.0
 11
5643.7045338018624534
 21
407.3470181115451965
 31
0.0
  0
ARC
  5
2AB03
  8
0
 10
5643.6966338018619354
 20
401.4438901948449825
 30
0.0
 40
0.0079
 50
270.0
 51
359.9999999999968168
  0
ARC
  5
2AB04
  8
0
 10
5643.1730832406301488
 20
407.3673759062158979
 30
0.0
 40
0.531049450497811
 50
89.9821160972526002
 51
179.9879574806724918
  0
ARC
  5
2AB05
  8
0
 10
5643.1732265683849619
 20
407.3667517939588265
 30
0.0
 40
0.5316735789627419
 50
357.8729120213428132
 51
90.0227949074035365
  0
LINE
  5
2AB06
  8
0
 10
5642.6420338018633629
 20
401.4438901948449825
 30
0.0
 11
5642.6420338018633629
 21
407.367487523044872
 31
0.0
  0
ARC
  5
2AB07
  8
0
 10
5642.649933801862062
 20
401.4438901948449825
 30
0.0
 40
0.0079
 50
180.0
 51
270.0
  0
ARC
  5
2AB08
  8
0
 10
5643.1739594289529123
 20
407.3267372486682234
 30
0.0
 40
0.5334842393153194
 50
184.3807822281115989
 51
269.9274381676298162
  0
ARC
  5
2AB09
  8
0
 10
5643.1762221893477545
 20
407.4058293894939879
 30
0.0
 40
0.5781051561537764
 50
231.411830652680294
 51
269.7087762883446089
  0
ARC
  5
2AB0A
  8
0
 10
5643.1905364606091098
 20
407.3741272806436768
 30
0.0
 40
0.5631051509710036
 50
228.2598748062385994
 51
268.2442724030451018
  0
ARC
  5
2AB0B
  8
0
 10
5643.1731532834974132
 20
407.3676807801327868
 30
0.0
 40
0.5311195167936188
 50
180.0208480286042061
 51
270.0140799735235078
  0
ARC
  5
2AB0C
  8
0
 10
5643.17301087793021
 20
407.3267369351569869
 30
0.0
 40
0.5334835677946922
 50
270.029311844239885
 51
355.08628953561049
  0
ARC
  5
2AB0D
  8
0
 10
5643.1707573622516065
 20
407.4058100431901721
 30
0.0
 40
0.5780838629597588
 50
270.2504044725471886
 51
308.5885987908484935
  0
ARC
  5
2AB0E
  8
0
 10
5643.1564869935127717
 20
407.3740403258677247
 30
0.0
 40
0.5630044526952607
 50
271.7096295501045233
 51
311.7419314522078935
  0
ARC
  5
2AB0F
  8
0
 10
5643.1738159460273891
 20
407.3676809575379139
 30
0.0
 40
0.5311199447469805
 50
269.9425937154999247
 51
357.7703855230329282
  0
LINE
  5
2AB11
  8
0
 10
5636.2023770824616804
 20
403.5509931831448966
 30
0.0
 11
5639.884493590107013
 21
403.5509931831448966
 31
0.0
  0
LINE
  5
2AB12
  8
0
 10
5636.2023770824616804
 20
403.2009901948449055
 30
0.0
 11
5639.8872181443393856
 21
403.2009901948449055
 31
0.0
  0
LINE
  5
2AB13
  8
0
 10
5640.2243725014614029
 20
401.1359901948449078
 30
0.0
 11
5638.12219510216255
 21
401.1359901948449078
 31
0.0
  0
LINE
  5
2AB14
  8
0
 10
5640.2062976780371173
 20
401.4359901948449192
 30
0.0
 11
5638.1402699255868356
 21
401.4359901948449192
 31
0.0
  0
LINE
  5
2AB15
  8
0
 10
5639.8789236124102899
 20
403.185990194844976
 30
0.0
 11
5638.4676439912163914
 21
403.185990194844976
 31
0.0
  0
LINE
  5
2AB16
  8
0
 10
5639.9033928704529899
 20
403.5322581146676839
 30
0.0
 11
5639.9061174246853625
 21
403.2200551263675834
 31
0.0
  0
ARC
  5
2AB17
  8
0
 10
5639.884493590107013
 20
403.5320931831449229
 30
0.0
 40
0.0189
 50
0.5000000054732773
 51
90.0
  0
ARC
  5
2AB18
  8
0
 10
5639.8872181443393856
 20
403.2198901948448793
 30
0.0
 40
0.0189
 50
270.0
 51
0.500000005463507
  0
LINE
  5
2AB19
  8
0
 10
5639.9065225614858718
 20
403.158631047223821
 30
0.0
 11
5639.921451944725959
 21
401.4478931679634002
 31
0.0
  0
ARC
  5
2AB1A
  8
0
 10
5639.9096523940343104
 20
401.447790194844913
 30
0.0
 40
0.0118
 50
270.0
 51
0.4999999980892839
  0
LINE
  5
2AB1B
  8
0
 10
5640.2338966271154277
 20
401.4086310472288233
 30
0.0
 11
5640.2361720521530515
 21
401.1478931679656057
 31
0.0
  0
ARC
  5
2AB1C
  8
0
 10
5640.2243725014614029
 20
401.1477901948449016
 30
0.0
 40
0.0118
 50
270.0
 51
0.5000000084727569
  0
ARC
  5
2AB1D
  8
0
 10
5640.2062976780371173
 20
401.4083901948449125
 30
0.0
 40
0.0276
 50
0.5000000084727569
 51
90.0
  0
ARC
  5
2AB1E
  8
0
 10
5639.8789236124102899
 20
403.1583901948449125
 30
0.0
 40
0.0276
 50
0.4999999980892839
 51
90.0
  0
LINE
  5
2AB1F
  8
0
 10
5639.6221026994116983
 20
403.1970531869450269
 30
0.0
 11
5639.6221026994116983
 21
403.185990194844976
 31
0.0
  0
ARC
  5
2AB20
  8
0
 10
5639.6181656915123313
 20
403.1970531869450269
 30
0.0
 40
0.003937007900003
 50
0.0000000000065138
 51
89.9999999999478888
  0
LINE
  5
2AB21
  8
0
 10
5638.7244649042122546
 20
403.1970531869450269
 30
0.0
 11
5638.7244649042122546
 21
403.185990194844976
 31
0.0
  0
ARC
  5
2AB22
  8
0
 10
5638.7284019121116216
 20
403.1970531869450269
 30
0.0
 40
0.003937007900003
 50
90.0000000000521254
 51
179.9999999999934914
  0
LINE
  5
2AB23
  8
0
 10
5638.4400450421389905
 20
403.158631047223821
 30
0.0
 11
5638.4251156588989033
 21
401.4478931679634002
 31
0.0
  0
ARC
  5
2AB24
  8
0
 10
5638.436915209592371
 20
401.447790194844913
 30
0.0
 40
0.0118
 50
179.5000000019107063
 51
270.0
  0
ARC
  5
2AB25
  8
0
 10
5638.4676439912163914
 20
403.1583901948449125
 30
0.0
 40
0.0276
 50
90.0
 51
179.5000000019107063
  0
LINE
  5
2AB26
  8
0
 10
5638.1126709765112537
 20
401.4086310472288233
 30
0.0
 11
5638.1103955514709014
 21
401.1478931679656057
 31
0.0
  0
ARC
  5
2AB27
  8
0
 10
5638.12219510216255
 20
401.1477901948449016
 30
0.0
 40
0.0118
 50
179.4999999915272042
 51
270.0
  0
ARC
  5
2AB28
  8
0
 10
5638.1402699255868356
 20
401.4083901948449125
 30
0.0
 40
0.0276
 50
90.0
 51
179.4999999915272042
  0
LINE
  5
2AB29
  8
0
 10
5636.1747770824622421
 20
403.5233931831448899
 30
0.0
 11
5636.1747770824622421
 21
403.228590194845026
 31
0.0
  0
ARC
  5
2AB2A
  8
0
 10
5636.2023770824616804
 20
403.5233931831448899
 30
0.0
 40
0.0276
 50
90.0
 51
180.0000000000032117
  0
ARC
  5
2AB2B
  8
0
 10
5636.2023770824616804
 20
403.228590194845026
 30
0.0
 40
0.0276
 50
180.0
 51
270.0
  0
ENDSEC
  0
EOF
