  0
SECTION
  2
HEADER
  9
$ACADVER
  1
AC1009
  9
$INSBASE
 10
4382.8397146328006784
 20
219.5806707574226095
 30
0.0
  9
$EXTMIN
 10
4367.2653128073143307
 20
211.6813790652635134
 30
-0.0015258207003583
  9
$EXTMAX
 10
4398.5037367291643022
 20
222.2141386309770041
 30
0.0000000349246037
  9
$LIMMIN
 10
0.0
 20
0.0
  9
$LIMMAX
 10
11.6929133858000007
 20
8.2677165353999982
  9
$ORTHOMODE
 70
     0
  9
$REGENMODE
 70
     1
  9
$FILLMODE
 70
     1
  9
$QTEXTMODE
 70
     0
  9
$MIRRTEXT
 70
     0
  9
$DRAGMODE
 70
     2
  9
$LTSCALE
 40
0.6431102362
  9
$OSMODE
 70
  4095
  9
$ATTMODE
 70
     1
  9
$TEXTSIZE
 40
0.2
  9
$TRACEWID
 40
0.05
  9
$TEXTSTYLE
  7
STANDARD
  9
$CLAYER
  8
0
  9
$CELTYPE
  6
BYLAYER
  9
$CECOLOR
 62
   256
  9
$DIMSCALE
 40
1.0
  9
$DIMASZ
 40
0.1875
  9
$DIMEXO
 40
0.0625
  9
$DIMDLI
 40
0.4443307087
  9
$DIMRND
 40
0.0
  9
$DIMDLE
 40
0.0
  9
$DIMEXE
 40
0.125
  9
$DIMTP
 40
0.01
  9
$DIMTM
 40
0.01
  9
$DIMTXT
 40
2.0
  9
$DIMCEN
 40
0.1052362205
  9
$DIMTSZ
 40
0.0
  9
$DIMTOL
 70
     1
  9
$DIMLIM
 70
     0
  9
$DIMTIH
 70
     1
  9
$DIMTOH
 70
     1
  9
$DIMSE1
 70
     0
  9
$DIMSE2
 70
     0
  9
$DIMTAD
 70
     0
  9
$DIMZIN
 70
     0
  9
$DIMBLK
  1

  9
$DIMASO
 70
     1
  9
$DIMSHO
 70
     1
  9
$DIMPOST
  1
\X
  9
$DIMAPOST
  1

  9
$DIMALT
 70
     1
  9
$DIMALTD
 70
     2
  9
$DIMALTF
 40
25.3999999999999986
  9
$DIMLFAC
 40
1.0
  9
$DIMTOFL
 70
     0
  9
$DIMTVP
 40
0.0
  9
$DIMTIX
 70
     0
  9
$DIMSOXD
 70
     0
  9
$DIMSAH
 70
     0
  9
$DIMBLK1
  1

  9
$DIMBLK2
  1

  9
$DIMSTYLE
  2
STANDARD
  9
$DIMCLRD
 70
     0
  9
$DIMCLRE
 70
     0
  9
$DIMCLRT
 70
     0
  9
$DIMTFAC
 40
1.0
  9
$DIMGAP
 40
0.09
  9
$LUNITS
 70
     2
  9
$LUPREC
 70
     4
  9
$SKETCHINC
 40
0.1
  9
$FILLETRAD
 40
0.0
  9
$AUNITS
 70
     0
  9
$AUPREC
 70
     0
  9
$MENU
  1
.
  9
$ELEVATION
 40
0.0
  9
$PELEVATION
 40
0.0
  9
$THICKNESS
 40
0.0
  9
$LIMCHECK
 70
     0
  9
$BLIPMODE
 70
     0
  9
$CHAMFERA
 40
0.0
  9
$CHAMFERB
 40
0.0
  9
$SKPOLY
 70
     0
  9
$TDCREATE
 40
2458060.468368056230247
  9
$TDUPDATE
 40
2459164.7790972217917442
  9
$TDINDWG
 40
0.4454121528
  9
$TDUSRTIMER
 40
0.4454121528
  9
$USRTIMER
 70
     1
  9
$ANGBASE
 50
0.0
  9
$ANGDIR
 70
     0
  9
$PDMODE
 70
     0
  9
$PDSIZE
 40
0.3125
  9
$PLINEWID
 40
0.0
  9
$COORDS
 70
     1
  9
$SPLFRAME
 70
     0
  9
$SPLINETYPE
 70
     6
  9
$SPLINESEGS
 70
     8
  9
$ATTDIA
 70
     1
  9
$ATTREQ
 70
     1
  9
$HANDLING
 70
     1
  9
$HANDSEED
  5
189ED
  9
$SURFTAB1
 70
     6
  9
$SURFTAB2
 70
     6
  9
$SURFTYPE
 70
     6
  9
$SURFU
 70
     6
  9
$SURFV
 70
     6
  9
$UCSNAME
  2

  9
$UCSORG
 10
0.0
 20
0.0
 30
0.0
  9
$UCSXDIR
 10
1.0
 20
0.0
 30
0.0
  9
$UCSYDIR
 10
0.0
 20
1.0
 30
0.0
  9
$PUCSNAME
  2

  9
$PUCSORG
 10
0.0
 20
0.0
 30
0.0
  9
$PUCSXDIR
 10
1.0
 20
0.0
 30
0.0
  9
$PUCSYDIR
 10
0.0
 20
1.0
 30
0.0
  9
$USERI1
 70
     0
  9
$USERI2
 70
     0
  9
$USERI3
 70
     0
  9
$USERI4
 70
     0
  9
$USERI5
 70
     0
  9
$USERR1
 40
0.0
  9
$USERR2
 40
0.0
  9
$USERR3
 40
0.0
  9
$USERR4
 40
0.0
  9
$USERR5
 40
0.0
  9
$WORLDVIEW
 70
     1
  9
$SHADEDGE
 70
     3
  9
$SHADEDIF
 70
    70
  9
$TILEMODE
 70
     1
  9
$MAXACTVP
 70
    64
  9
$PLIMCHECK
 70
     0
  9
$PEXTMIN
 10
1.0000000000000000E+20
 20
1.0000000000000000E+20
 30
1.0000000000000000E+20
  9
$PEXTMAX
 10
-1.0000000000000000E+20
 20
-1.0000000000000000E+20
 30
-1.0000000000000000E+20
  9
$PLIMMIN
 10
0.0
 20
0.0
  9
$PLIMMAX
 10
12.0
 20
9.0
  9
$UNITMODE
 70
     0
  9
$VISRETAIN
 70
     1
  9
$PLINEGEN
 70
     0
  9
$PSLTSCALE
 70
     1
  0
ENDSEC
  0
SECTION
  2
TABLES
  0
TABLE
  2
VPORT
 70
     1
  0
VPORT
  2
*ACTIVE
 70
     0
 10
0.0
 20
0.0
 11
1.0
 21
1.0
 12
485.3570176506277107
 22
79.6224923946042793
 13
0.0
 23
0.0
 14
1.0
 24
1.0
 15
0.0
 25
0.0
 16
0.0
 26
0.0
 36
60.4960186965801583
 17
3911.3653564453120453
 27
132.5796051025390057
 37
0.0
 40
84.8093188891100738
 41
1.8614190687361409
 42
50.0
 43
0.0
 44
0.0
 50
0.0
 51
0.0
 71
     0
 72
   100
 73
     1
 74
     1
 75
     0
 76
     0
 77
     0
 78
     0
  0
ENDTAB
  0
TABLE
  2
LTYPE
 70
     2
  0
LTYPE
  2
CONTINUOUS
 70
     0
  3
Solid line
 72
    65
 73
     0
 40
0.0
  0
LTYPE
  2
PHANTOM2
 70
     0
  3
___ _ _ ___ _ _ ___ _ _ ___ _ _
 72
    65
 73
     6
 40
1.25
 49
0.625
 49
-0.125
 49
0.125
 49
-0.125
 49
0.125
 49
-0.125
  0
ENDTAB
  0
TABLE
  2
LAYER
 70
     2
  0
LAYER
  2
0
 70
     0
 62
   255
  6
CONTINUOUS
  0
LAYER
  2
DEFPOINTS
 70
     0
 62
     7
  6
CONTINUOUS
  0
ENDTAB
  0
TABLE
  2
STYLE
 70
     1
  0
STYLE
  2
STANDARD
 70
     0
 40
0.0
 41
0.8
 50
0.0
 71
     0
 42
0.2
  3
txt
  4

  0
ENDTAB
  0
TABLE
  2
VIEW
 70
     0
  0
ENDTAB
  0
TABLE
  2
UCS
 70
     0
  0
ENDTAB
  0
TABLE
  2
APPID
 70
    11
  0
APPID
  2
ACAD
 70
     0
  0
APPID
  2
ACAD_MLEADERVER
 70
     0
  0
APPID
  2
ACAD_EXEMPT_FROM_CAD_STANDARDS
 70
     0
  0
APPID
  2
ACAD_NAV_VCDISPLAY
 70
     0
  0
APPID
  2
ACAECLAYERSTANDARD
 70
     0
  0
APPID
  2
ACCMTRANSPARENCY
 70
     0
  0
APPID
  2
ACAD_DSTYLE_DIMJAG
 70
     0
  0
APPID
  2
ACAD_DSTYLE_DIMTALN
 70
     0
  0
APPID
  2
ACDBATTR
 70
     0
  0
APPID
  2
ACADANNOTATIVE
 70
     0
  0
APPID
  2
DCO15
 70
     0
  0
ENDTAB
  0
TABLE
  2
DIMSTYLE
 70
     1
  0
DIMSTYLE
  2
STANDARD
 70
     0
  3

  4

  5

  6

  7

 40
1.0
 41
0.1875
 42
0.0625
 43
0.38
 44
0.125
 45
0.0
 46
0.0
 47
0.01
 48
0.01
140
0.15625
141
0.09
142
0.0
143
25.3999999999999986
144
1.0
145
0.0
146
1.0
147
0.09
 71
     1
 72
     0
 73
     1
 74
     1
 75
     0
 76
     0
 77
     0
 78
     4
170
     0
171
     2
172
     0
173
     0
174
     0
175
     0
176
     0
177
     0
178
     0
  0
ENDTAB
  0
ENDSEC
  0
SECTION
  2
BLOCKS
  0
BLOCK
  8
0
  2
$MODEL_SPACE
 70
     0
 10
0.0
 20
0.0
 30
0.0
  3
$MODEL_SPACE
  1

  0
ENDBLK
  5
21
  8
0
  0
BLOCK
 67
     1
  8
0
  2
$PAPER_SPACE
 70
     0
 10
0.0
 20
0.0
 30
0.0
  3
$PAPER_SPACE
  1

  0
ENDBLK
  5
1D
 67
     1
  8
0
  0
ENDSEC
  0
SECTION
  2
ENTITIES
  0
LINE
  5
18828
  8
0
 10
4367.2885335307018977
 20
219.5806707574226095
 30
0.0
 11
4367.2885335307018977
 21
219.6200408361227119
 31
0.0
  0
LINE
  5
18829
  8
0
 10
4367.7611041188019954
 20
219.5806707574226095
 30
0.0
 11
4367.7611041188019954
 21
219.0484285992226035
 31
0.0
  0
LINE
  5
1882A
  8
0
 10
4367.7926001818013901
 20
219.0484285992226035
 30
0.0
 11
4367.7926001818013901
 21
219.5806707574226095
 31
0.0
  0
LINE
  5
1882B
  8
0
 10
4369.4009934374926161
 20
214.4539553176317952
 30
0.0
 11
4369.1030269126831627
 21
219.3259330452885081
 31
0.0
  0
LINE
  5
1882C
  8
0
 10
4369.2572242818023369
 20
219.0484330094226095
 30
0.0
 11
4369.2572242818023369
 21
219.5806707574226095
 31
0.0
  0
LINE
  5
1882D
  8
0
 10
4371.3241534154021792
 20
219.4027637181225998
 30
0.0
 11
4371.3241534154021792
 21
219.2059133244227098
 31
0.0
  0
LINE
  5
1882E
  8
0
 10
4371.9147045964009521
 20
219.2059133244227098
 30
0.0
 11
4371.9147045964009521
 21
219.4027637181225998
 31
0.0
  0
LINE
  5
1882F
  8
0
 10
4371.838314021100814
 20
212.5523021773227015
 30
0.0
 11
4371.7419244343018363
 21
212.6887305156226091
 31
0.0
  0
LINE
  5
18830
  8
0
 10
4375.0643108953017872
 20
219.3633936390226893
 30
0.0
 11
4375.0643108953017872
 21
219.2452834034226896
 31
0.0
  0
LINE
  5
18831
  8
0
 10
4375.6548620763005601
 20
219.2452834032226008
 30
0.0
 11
4375.6548620763005601
 21
219.3633936393227089
 31
0.0
  0
LINE
  5
18832
  8
0
 10
4390.2852831762020287
 20
211.7241577670226036
 30
0.0
 11
4390.0587603181020313
 21
211.6915384755226057
 31
0.0
  0
LINE
  5
18833
  8
0
 10
4378.8044683751013508
 20
219.3633936393227089
 30
0.0
 11
4378.8044683751013508
 21
219.2452834032226008
 31
0.0
  0
LINE
  5
18834
  8
0
 10
4379.3950195561019427
 20
219.2452834032226008
 30
0.0
 11
4379.3950195561019427
 21
219.3633936393227089
 31
0.0
  0
LINE
  5
18835
  8
0
 10
4379.1218576101009603
 20
219.3259330453226141
 30
0.0
 11
4379.1145168895018287
 21
219.2059133244227098
 31
0.0
  0
LINE
  5
18836
  8
0
 10
4378.8190216462016906
 20
214.3752494375227116
 30
0.0
 11
4379.1048849808021259
 21
219.0484330094226095
 31
0.0
  0
LINE
  5
18837
  8
0
 10
4376.3217124796019561
 20
212.5523021773227015
 30
0.0
 11
4376.4181020664009338
 21
212.6887305156226091
 31
0.0
  0
LINE
  5
18838
  8
0
 10
4394.5421582078006395
 20
212.0519587918226136
 30
0.0
 11
4390.4634204491021592
 21
211.909526130722611
 31
0.0
  0
LINE
  5
18839
  8
0
 10
4390.0587603181020313
 20
211.6915384755226057
 30
0.0
 11
4386.1611225229016782
 21
211.6915384755226057
 31
0.0
  0
LINE
  5
1883B
  8
0
 10
4372.131194352701641
 20
212.4790570171226989
 30
0.0
 11
4371.9046714946007341
 21
212.5116763086226115
 31
0.0
  0
LINE
  5
1883C
  8
0
 10
4380.2007670451021113
 20
219.0484330094226095
 30
0.0
 11
4380.525514644679788
 21
213.7393070565057087
 31
0.0
  0
LINE
  5
1883D
  8
0
 10
4376.4334922685020501
 20
212.697044672022713
 30
0.0
 11
4377.1130057961008788
 21
212.720773807222713
 31
0.0
  0
LINE
  5
1883F
  8
0
 10
4376.0288321480011291
 20
212.4790570171226989
 30
0.0
 11
4372.131194352701641
 21
212.4790570171226989
 31
0.0
  0
LINE
  5
18842
  8
0
 10
4382.2346672410021711
 20
212.0325149662226067
 30
0.0
 11
4385.7564587628012305
 21
211.9095312962226103
 31
0.0
  0
LINE
  5
18843
  8
0
 10
4371.72653423220072
 20
212.697044672022713
 30
0.0
 11
4371.111974356202154
 21
212.7185055758226042
 31
0.0
  0
LINE
  5
18844
  8
0
 10
4385.9345996648016808
 20
211.7241577670226036
 30
0.0
 11
4386.1611225229016782
 21
211.6915384755226057
 31
0.0
  0
LINE
  5
18845
  8
0
 10
4376.0288321480011291
 20
212.4790570171226989
 30
0.0
 11
4376.255355006102036
 21
212.5116763086226115
 31
0.0
  0
LINE
  5
18846
  8
0
 10
4382.5446258549018239
 20
219.3633936393227089
 30
0.0
 11
4382.5446258549018239
 21
219.2452834031226985
 31
0.0
  0
LINE
  5
18847
  8
0
 10
4383.1351770360015507
 20
219.2452834031226985
 30
0.0
 11
4383.1351770360015507
 21
219.3633936393227089
 31
0.0
  0
LINE
  5
18848
  8
0
 10
4385.7718250737007111
 20
211.9012509407226048
 30
0.0
 11
4385.8682421913017606
 21
211.7647836357226083
 31
0.0
  0
LINE
  5
18849
  8
0
 10
4386.2847833348014319
 20
219.3633936394226112
 30
0.0
 11
4386.2847833348014319
 21
219.2452834030225972
 31
0.0
  0
LINE
  5
1884A
  8
0
 10
4386.8753345158020238
 20
219.2452834032226008
 30
0.0
 11
4386.8753345158020238
 21
219.3633936393227089
 31
0.0
  0
LINE
  5
1884B
  8
0
 10
4397.9183335052011898
 20
219.0484285992226035
 30
0.0
 11
4397.8868374423018395
 21
219.0484285992226035
 31
0.0
  0
LINE
  5
1884C
  8
0
 10
4367.7611041188019954
 20
219.0484285992226035
 30
0.0
 11
4367.7926001818013901
 21
219.0484285992226035
 31
0.0
  0
LINE
  5
1884D
  8
0
 10
4369.2572242818023369
 20
219.0484330094226095
 30
0.0
 11
4396.4225786091019472
 21
219.0484330094226095
 31
0.0
  0
LINE
  5
1884E
  8
0
 10
4371.3241534154021792
 20
219.2059133244227098
 30
0.0
 11
4371.9147045964009521
 21
219.2059133244227098
 31
0.0
  0
LINE
  5
1884F
  8
0
 10
4375.1036809740007811
 20
219.2059133244227098
 30
0.0
 11
4375.6154919976015663
 21
219.2059133244227098
 31
0.0
  0
LINE
  5
18850
  8
0
 10
4378.8438384538030732
 20
219.2059133244227098
 30
0.0
 11
4379.3556494774020393
 21
219.2059133244227098
 31
0.0
  0
LINE
  5
18851
  8
0
 10
4382.5839959337017717
 20
219.2059133244227098
 30
0.0
 11
4383.0958069572016029
 21
219.2059133244227098
 31
0.0
  0
LINE
  5
18852
  8
0
 10
4386.3241534135013353
 20
219.2059133244227098
 30
0.0
 11
4386.8359644371021204
 21
219.2059133244227098
 31
0.0
  0
LINE
  5
18853
  8
0
 10
4390.0643108934018528
 20
219.2059133244227098
 30
0.0
 11
4390.5761219169007745
 21
219.2059133244227098
 31
0.0
  0
LINE
  5
18854
  8
0
 10
4393.7650982945006035
 20
219.2059133244227098
 30
0.0
 11
4394.3556494755021049
 21
219.2059133244227098
 31
0.0
  0
LINE
  5
18855
  8
0
 10
4394.3556494755021049
 20
219.4027637181225998
 30
0.0
 11
4393.7650982945006035
 21
219.4027637181225998
 31
0.0
  0
LINE
  5
18856
  8
0
 10
4390.5761219169007745
 20
219.4027637181225998
 30
0.0
 11
4390.0643108934018528
 21
219.4027637181225998
 31
0.0
  0
LINE
  5
18857
  8
0
 10
4386.8359644371021204
 20
219.4027637181225998
 30
0.0
 11
4386.3241534135013353
 21
219.4027637181225998
 31
0.0
  0
LINE
  5
18858
  8
0
 10
4383.0958069572016029
 20
219.4027637181225998
 30
0.0
 11
4382.5839959337017717
 21
219.4027637181225998
 31
0.0
  0
LINE
  5
18859
  8
0
 10
4379.3556494774020393
 20
219.4027637181225998
 30
0.0
 11
4378.8438384538030732
 21
219.4027637181225998
 31
0.0
  0
LINE
  5
1885A
  8
0
 10
4375.6154919976015663
 20
219.4027637181225998
 30
0.0
 11
4375.1036809740007811
 21
219.4027637181225998
 31
0.0
  0
LINE
  5
1885B
  8
0
 10
4371.9147045964009521
 20
219.4027637181225998
 30
0.0
 11
4371.3241534154021792
 21
219.4027637181225998
 31
0.0
  0
LINE
  5
1885C
  8
0
 10
4368.7876771862020178
 20
219.5255526471227085
 30
0.0
 11
4368.8908250264021262
 21
219.5255526471227085
 31
0.0
  0
LINE
  5
1885D
  8
0
 10
4396.8039587618013684
 20
219.5255526471227085
 30
0.0
 11
4396.8916955481008699
 21
219.5255526471227085
 31
0.0
  0
LINE
  5
1885E
  8
0
 10
4367.2885335307018977
 20
219.5806707574226095
 30
0.0
 11
4398.390895734901278
 21
219.5806707574226095
 31
0.0
  0
LINE
  5
1885F
  8
0
 10
4367.2885335307018977
 20
219.6200408361227119
 30
0.0
 11
4398.390895734901278
 21
219.6200408361227119
 31
0.0
  0
LINE
  5
18860
  8
0
 10
4397.3249712873021053
 20
219.8168912298226871
 30
0.0
 11
4368.3544579783010704
 21
219.8168912298226871
 31
0.0
  0
LINE
  5
18861
  8
0
 10
4390.0249408146009955
 20
219.3633936393227089
 30
0.0
 11
4390.0249408146009955
 21
219.2452834031226985
 31
0.0
  0
LINE
  5
18862
  8
0
 10
4390.6154919956006779
 20
219.2452834031226985
 30
0.0
 11
4390.6154919956006779
 21
219.3633936393227089
 31
0.0
  0
LINE
  5
18863
  8
0
 10
4390.4480063531018459
 20
211.9011781697226127
 30
0.0
 11
4390.3516406497019489
 21
211.7647836357226083
 31
0.0
  0
LINE
  5
18864
  8
0
 10
4393.7650982945006035
 20
219.4027637181225998
 30
0.0
 11
4393.7650982945006035
 21
219.2059133244227098
 31
0.0
  0
LINE
  5
18865
  8
0
 10
4394.3556494755021049
 20
219.2059133244227098
 30
0.0
 11
4394.3556494755021049
 21
219.4027637181225998
 31
0.0
  0
LINE
  5
18866
  8
0
 10
4396.4225786091019472
 20
219.0484330094226095
 30
0.0
 11
4396.4225786091019472
 21
219.5806707574226095
 31
0.0
  0
LINE
  5
18867
  8
0
 10
4397.8868374423018395
 20
219.0484285992226035
 30
0.0
 11
4397.8868374423018395
 21
219.5806707574226095
 31
0.0
  0
LINE
  5
18868
  8
0
 10
4397.9183335052011898
 20
219.5806707574226095
 30
0.0
 11
4397.9183335052011898
 21
219.0484285992226035
 31
0.0
  0
LINE
  5
18869
  8
0
 10
4398.390895734901278
 20
219.6200408361227119
 30
0.0
 11
4398.390895734901278
 21
219.5806707574226095
 31
0.0
  0
ARC
  5
1886A
  8
0
 10
4371.174207110207135
 20
214.4910143012442063
 30
0.0
 40
1.7736008844626669
 50
181.1972692995007037
 51
267.9891720503204056
  0
ARC
  5
1886B
  8
0
 10
4382.2966280151176761
 20
213.8032916720482888
 30
0.0
 40
1.771860400659079
 50
249.0269782246681984
 51
267.9959963042866207
  0
ARC
  5
1886C
  8
0
 10
4377.0511547720207091
 20
214.4913702547015077
 30
0.0
 40
1.7716764176916091
 50
272.000660423411091
 51
356.2419742811159722
  0
ARC
  5
1886D
  8
0
 10
4371.9187000215024455
 20
212.6090966341226078
 30
0.0
 40
0.0984251969
 50
215.2420365585963964
 51
261.8057366653918052
  0
ARC
  5
1886E
  8
0
 10
4376.2413264792021437
 20
212.6090966341226078
 30
0.0
 40
0.0984251969
 50
278.1942633346080811
 51
324.7579634414034899
  0
ARC
  5
1886F
  8
0
 10
4371.7258472342009554
 20
212.6773716242225873
 30
0.0
 40
0.0196850394
 50
35.2420365586930231
 51
87.9999995141896107
  0
ARC
  5
18870
  8
0
 10
4376.4341792665018147
 20
212.6773716242225873
 30
0.0
 40
0.0196850394
 50
91.9999999946329865
 51
144.7579634449103878
  0
ARC
  5
18871
  8
0
 10
4368.3544579783010704
 20
217.4546865054225862
 30
0.0
 40
2.3622047244000002
 50
90.0000000002084306
 51
112.7982480992884007
  0
ARC
  5
18872
  8
0
 10
4368.7876771862020178
 20
219.7538991038225902
 30
0.0
 40
0.2283464567
 50
229.3427513381174947
 51
270.0000000082854967
  0
ARC
  5
18873
  8
0
 10
4368.8908250264021262
 20
219.3129542219226096
 30
0.0
 40
0.2125984252
 50
3.4999999999987499
 51
89.9999999992183461
  0
ARC
  5
18874
  8
0
 10
4367.3781117762018766
 20
219.7775211511226132
 30
0.0
 40
0.157480315
 50
269.9999999988015134
 51
292.7982480931838722
  0
ARC
  5
18875
  8
0
 10
4379.3340594964020056
 20
219.3129542219226096
 30
0.0
 40
0.2125984252
 50
155.0114422043608897
 51
176.4999999990016875
  0
ARC
  5
18876
  8
0
 10
4375.6154919976015663
 20
219.3633936393227089
 30
0.0
 40
0.0393700787
 50
359.9999999211003114
 51
89.9999999900990559
  0
ARC
  5
18877
  8
0
 10
4375.1036809740007811
 20
219.3633936393227089
 30
0.0
 40
0.0393700787
 50
90.0000000525791961
 51
180.0000004476005984
  0
ARC
  5
18878
  8
0
 10
4375.1036809740007811
 20
219.2452834031226985
 30
0.0
 40
0.0393700787
 50
179.9999995523000109
 51
269.9999999366860948
  0
ARC
  5
18879
  8
0
 10
4375.6154919976015663
 20
219.2452834031226985
 30
0.0
 40
0.0393700787
 50
270.0000000058885234
 51
0.0
  0
ARC
  5
1887A
  8
0
 10
4382.5839959337017717
 20
219.3633936393227089
 30
0.0
 40
0.0393700787
 50
90.0000000067222032
 51
180.0000000063004109
  0
ARC
  5
1887B
  8
0
 10
4382.5839959337017717
 20
219.2452834031226985
 30
0.0
 40
0.0393700787
 50
179.9999999934991877
 51
269.9999999948931872
  0
ARC
  5
1887C
  8
0
 10
4379.3556494774020393
 20
219.3633936393227089
 30
0.0
 40
0.0393700787
 50
359.9999999211003114
 51
89.9999999900990559
  0
ARC
  5
1887D
  8
0
 10
4378.8438384538030732
 20
219.3633936393227089
 30
0.0
 40
0.0393700787
 50
89.9999999807192239
 51
180.0000000790006993
  0
ARC
  5
1887E
  8
0
 10
4378.8438384538030732
 20
219.2452834031226985
 30
0.0
 40
0.0393700787
 50
179.9999999209993007
 51
270.0000000094839834
  0
ARC
  5
1887F
  8
0
 10
4379.3556494774020393
 20
219.2452834031226985
 30
0.0
 40
0.0393700787
 50
270.0000000057842158
 51
0.0
  0
ARC
  5
18880
  8
0
 10
4394.4801169878992368
 20
213.8227970873367099
 30
0.0
 40
1.7719247675413059
 50
272.0065337039430915
 51
289.3735754218681109
  0
ARC
  5
18881
  8
0
 10
4390.2712546494021808
 20
211.8215780925225999
 30
0.0
 40
0.0984251969
 50
278.194263334187383
 51
324.757963440308572
  0
ARC
  5
18882
  8
0
 10
4385.9486281917006636
 20
211.8215780925225999
 30
0.0
 40
0.0984251969
 50
215.2420365596913996
 51
261.8057366658125034
  0
ARC
  5
18883
  8
0
 10
4385.755771286883828
 20
211.889857372675209
 30
0.0
 40
0.0196859712486709
 50
35.3637864284857883
 51
87.9986986682107784
  0
ARC
  5
18884
  8
0
 10
4390.4641078211034255
 20
211.8898522699807074
 30
0.0
 40
0.0196858648975224
 50
92.001005389237676
 51
144.8771437943528895
  0
ARC
  5
18885
  8
0
 10
4397.3249712873021053
 20
217.4546865054225862
 30
0.0
 40
2.3622047244000002
 50
67.2017519004898247
 51
89.9999999998957776
  0
ARC
  5
18886
  8
0
 10
4396.8916955481008699
 20
219.7538991038225902
 30
0.0
 40
0.2283464567
 50
269.9999999992182893
 51
310.6572486618825906
  0
ARC
  5
18887
  8
0
 10
4396.8039587618013684
 20
219.3129542219226096
 30
0.0
 40
0.2125984252
 50
90.0000000023970586
 51
176.499999999100794
  0
ARC
  5
18888
  8
0
 10
4398.3013174894012991
 20
219.7775211511226132
 30
0.0
 40
0.157480315
 50
247.201751901393493
 51
269.999999999895806
  0
ARC
  5
18889
  8
0
 10
4390.5761219169007745
 20
219.2452834031226985
 30
0.0
 40
0.0393700787
 50
270.000000000104194
 51
0.0
  0
ARC
  5
1888A
  8
0
 10
4390.5761219169007745
 20
219.3633936393227089
 30
0.0
 40
0.0393700787
 50
0.0
 51
90.0000000046899231
  0
ARC
  5
1888B
  8
0
 10
4390.0643108933008989
 20
219.3633936393227089
 30
0.0
 40
0.0393700787
 50
89.9999999863992315
 51
180.0000000063004109
  0
ARC
  5
1888C
  8
0
 10
4390.0643108933008989
 20
219.2452834031226985
 30
0.0
 40
0.0393700787
 50
179.9999999936001984
 51
270.0000000094839834
  0
ARC
  5
1888D
  8
0
 10
4386.8359644371021204
 20
219.3633936393227089
 30
0.0
 40
0.0393700787
 50
359.9999999211003114
 51
90.0000000046899231
  0
ARC
  5
1888E
  8
0
 10
4386.3241534135013353
 20
219.3633936393227089
 30
0.0
 40
0.0393700787
 50
90.0000000009900987
 51
179.9999998946005917
  0
ARC
  5
1888F
  8
0
 10
4386.3241534135013353
 20
219.2452834031226985
 30
0.0
 40
0.0393700787
 50
180.0000001053001029
 51
270.0000000094839834
  0
ARC
  5
18890
  8
0
 10
4386.8359644371021204
 20
219.2452834031226985
 30
0.0
 40
0.0393700787
 50
269.9999999944242859
 51
0.0
  0
ARC
  5
18891
  8
0
 10
4383.0958069572016029
 20
219.3633936393227089
 30
0.0
 40
0.0393700787
 50
0.0
 51
90.0000000046899231
  0
ARC
  5
18892
  8
0
 10
4383.0958069572016029
 20
219.2452834031226985
 30
0.0
 40
0.0393700787
 50
270.000000000104194
 51
0.0
  0
ARC
  5
18893
  8
0
 10
4382.2975775684999462
 20
213.8044254257833074
 30
0.0
 40
1.773258979393028
 50
182.1045131296147019
 51
249.0114417360769039
  0
ARC
  5
18894
  8
0
 10
4394.4806552195541371
 20
213.821621415718397
 30
0.0
 40
1.7706371258825451
 50
289.3697650460974273
 51
356.5236245635830983
  0
LINE
  5
18895
  8
0
 10
4396.591756875520332
 20
219.325933045291805
 30
0.0
 11
4396.2480341703849263
 21
213.7142553330230896
 31
0.0
  0
LINE
  5
18897
  8
0
  6
CONTINUOUS
 10
4369.1684032173006926
 20
222.176864713954501
 30
0.0
 11
4369.2644091272013611
 21
222.1937931461544906
 31
0.0
  0
LINE
  5
18898
  8
0
  6
CONTINUOUS
 10
4369.174598942200646
 20
220.4389384737544901
 30
0.0
 11
4370.2845896168018953
 21
220.4389384738545061
 31
0.0
  0
LINE
  5
18899
  8
0
  6
CONTINUOUS
 10
4370.2906346284016763
 20
222.0373636706545142
 30
0.0
 11
4369.1685473805009678
 21
222.0373636706545142
 31
0.0
  0
LINE
  5
1889A
  8
0
  6
CONTINUOUS
 10
4369.1658134156014057
 20
222.0767337493545028
 30
0.0
 11
4370.2933722559009766
 21
222.0767337493545028
 31
0.0
  0
LINE
  5
1889B
  8
0
  6
CONTINUOUS
 10
4369.1684032173006926
 20
222.176864713954501
 30
0.0
 11
4370.2907877221014132
 21
222.176864713954501
 31
0.0
  0
LINE
  5
1889C
  8
0
  6
CONTINUOUS
 10
4370.2907877221014132
 20
222.176864713954501
 30
0.0
 11
4370.1947818122007448
 21
222.1937931461544906
 31
0.0
  0
LINE
  5
1889D
  8
0
  6
CONTINUOUS
 10
4369.619359249201807
 20
221.7105920171545108
 30
0.0
 11
4369.6193598848021793
 21
221.0412062514544971
 31
0.0
  0
LINE
  5
1889E
  8
0
  6
CONTINUOUS
 10
4369.8398315812009969
 20
221.0413663050545097
 30
0.0
 11
4369.8398316902021179
 21
221.7105920171545108
 31
0.0
  0
LINE
  5
1889F
  8
0
  6
CONTINUOUS
 10
4369.1646104473020387
 20
222.0334509042544937
 30
0.0
 11
4369.1549142760013638
 21
220.4587447204544901
 31
0.0
  0
LINE
  5
188A0
  8
0
  6
CONTINUOUS
 10
4369.1579396994020499
 20
222.0846764780544902
 30
0.0
 11
4369.158643606100668
 21
222.1653361956545041
 31
0.0
  0
LINE
  5
188A1
  8
0
  6
CONTINUOUS
 10
4369.1767894409022119
 20
222.0767337493545028
 30
0.0
 11
4369.1764799213024162
 21
222.0412663220544971
 31
0.0
  0
LINE
  5
188A2
  8
0
  6
CONTINUOUS
 10
4369.2694261073020243
 20
220.4389384738545061
 30
0.0
 11
4369.2657668226083842
 21
220.019625977022713
 31
0.0
  0
LINE
  5
188A3
  8
0
  6
CONTINUOUS
 10
4370.1897648321019005
 20
220.4389384738545061
 30
0.0
 11
4370.1934345253412175
 21
220.0184332758292101
 31
0.0
  0
LINE
  5
188A4
  8
0
  6
CONTINUOUS
 10
4370.2824014985017129
 20
222.0767337493545028
 30
0.0
 11
4370.2827110181005992
 21
222.0412663220544971
 31
0.0
  0
LINE
  5
188A5
  8
0
  6
CONTINUOUS
 10
4370.301251240001875
 20
222.0846764780544902
 30
0.0
 11
4370.3005473333014379
 21
222.1653361956545041
 31
0.0
  0
LINE
  5
188A6
  8
0
  6
CONTINUOUS
 10
4370.2945804921018862
 20
222.0334509042544937
 30
0.0
 11
4370.3042766634016516
 21
220.4587447204544901
 31
0.0
  0
ARC
  5
188A7
  8
0
  6
CONTINUOUS
 10
4369.7295954697019624
 20
212.5959126131544963
 30
0.0
 40
9.6107427975000004
 50
87.3758650109128183
 51
92.6241349890871959
  0
ARC
  5
188A8
  8
0
  6
CONTINUOUS
 10
4369.174598942200646
 20
220.4586235131544925
 30
0.0
 40
0.0196850394
 50
179.6472086818988032
 51
270.0
  0
ARC
  5
188A9
  8
0
  6
CONTINUOUS
 10
4370.2845919971259718
 20
220.458623513184989
 30
0.0
 40
0.0196850394743802
 50
269.993071763841499
 51
0.3527912280528953
  0
ARC
  5
188AA
  8
0
  6
CONTINUOUS
 10
4369.2985918393005704
 20
221.9999333522544873
 30
0.0
 40
0.1968503937
 50
92.6241349890871959
 51
99.9999999998992735
  0
ARC
  5
188AB
  8
0
  6
CONTINUOUS
 10
4370.1605991001024449
 20
221.9999333522544873
 30
0.0
 40
0.1968503937
 50
80.0000000001007265
 51
87.3758650109128183
  0
ARC
  5
188AC
  8
0
  6
CONTINUOUS
 10
4369.7296010698946702
 20
221.7105721564091141
 30
0.0
 40
0.1139075077739408
 50
89.7586806677011566
 51
194.5751282118953895
  0
ARC
  5
188AD
  8
0
  6
CONTINUOUS
 10
4369.7295792824015734
 20
221.710564231454498
 30
0.0
 40
0.1139155265
 50
345.4305671358627023
 51
89.7477391570157437
  0
ARC
  5
188AE
  8
0
  6
CONTINUOUS
 10
4369.7295954697019624
 20
221.7105920171545108
 30
0.0
 40
0.1102362205
 50
0.0
 51
180.0
  0
ARC
  5
188AF
  8
0
  6
CONTINUOUS
 10
4370.2887367594021271
 20
222.1652331263545079
 30
0.0
 40
0.0118110236
 50
0.4999999998988711
 51
80.0000000002061853
  0
ARC
  5
188B0
  8
0
  6
CONTINUOUS
 10
4369.1704541800017978
 20
222.1652331263545079
 30
0.0
 40
0.0118110236
 50
99.9999999997938147
 51
179.5000000000995044
  0
ARC
  5
188B1
  8
0
  6
CONTINUOUS
 10
4370.2933775209476153
 20
222.0846077664367897
 30
0.0
 40
0.0078740188424894
 50
269.96168856635569
 51
0.4999904696032403
  0
ARC
  5
188B2
  8
0
  6
CONTINUOUS
 10
4369.1658134154022264
 20
222.0846077651544874
 30
0.0
 40
0.0078740157
 50
179.5000000002997922
 51
270.0
  0
ARC
  5
188B3
  8
0
  6
CONTINUOUS
 10
4369.1725430634023724
 20
222.0413006785545065
 30
0.0
 40
0.0039370079
 50
270.0
 51
359.4999999994985842
  0
ARC
  5
188B4
  8
0
  6
CONTINUOUS
 10
4370.2866478761015969
 20
222.0413006785545065
 30
0.0
 40
0.0039370079
 50
180.5000000004997105
 51
270.0
  0
ARC
  5
188B5
  8
0
  6
CONTINUOUS
 10
4370.2906435415934538
 20
222.0334266554914109
 30
0.0
 40
0.0039370252526259
 50
0.3528954762075273
 51
90.1297143590143861
  0
ARC
  5
188B6
  8
0
  6
CONTINUOUS
 10
4369.1685473805009678
 20
222.0334266627544935
 30
0.0
 40
0.0039370079
 50
90.0
 51
179.647208671400108
  0
ARC
  5
188B7
  8
0
 10
4369.7296428097579337
 20
220.9894645431969025
 30
0.0
 40
0.103396782499697
 50
79.9908131013454238
 51
119.2764940923514985
  0
ARC
  5
188B8
  8
0
 10
4369.7351962771517719
 20
221.006132521771292
 30
0.0
 40
0.0860557083441175
 50
46.6491284099603902
 51
81.7034671323656454
  0
ARC
  5
188B9
  8
0
 10
4369.759550797492011
 20
221.0332456218870902
 30
0.0
 40
0.0496297482654183
 50
20.429295304561041
 51
45.6072192036182571
  0
ARC
  5
188BA
  8
0
 10
4369.7702873217158412
 20
221.0376051909960893
 30
0.0
 40
0.0380482986326336
 50
0.2499501005483258
 51
19.9206493974917116
  0
ARC
  5
188BB
  8
0
 10
4369.7714981113067552
 20
221.0379184003714954
 30
0.0
 40
0.0368374411997855
 50
330.7124994780573957
 51
359.7710087457248846
  0
ARC
  5
188BC
  8
0
 10
4369.7601196989271557
 20
221.0446968113525088
 30
0.0
 40
0.0500785587603658
 50
306.6207771356379794
 51
330.3169324452194928
  0
ARC
  5
188BD
  8
0
 10
4369.7418903230118303
 20
221.0690714127337912
 30
0.0
 40
0.0805158086208487
 50
286.9120007289424166
 51
306.685590836160884
  0
ARC
  5
188BE
  8
0
 10
4369.7299373500463844
 20
221.1061181199173973
 30
0.0
 40
0.1194393139736841
 50
268.0537907564579996
 51
287.2281554103224721
  0
ARC
  5
188BF
  8
0
 10
4369.7284198326960905
 20
221.1009119920952912
 30
0.0
 40
0.1141925130502315
 50
249.6920178653953997
 51
268.72606495129628
  0
ARC
  5
188C0
  8
0
 10
4369.7118836385379836
 20
221.0589741341476895
 30
0.0
 40
0.0691289022231203
 50
222.2066867508017936
 51
250.481993360031197
  0
ARC
  5
188C1
  8
0
 10
4369.6905192185313354
 20
221.038803108069402
 30
0.0
 40
0.0397570342416767
 50
187.0574226697166864
 51
221.3586270090569883
  0
ARC
  5
188C2
  8
0
 10
4369.6889484229250229
 20
221.0377129555681108
 30
0.0
 40
0.0380745768618453
 50
154.8187774895802136
 51
185.7196593638900879
  0
ARC
  5
188C3
  8
0
 10
4369.7085401012618604
 20
221.0269018616041876
 30
0.0
 40
0.060421671356948
 50
119.1821532197765947
 51
153.4457877221273066
  0
ARC
  5
188C4
  8
0
 10
4369.7011158559753312
 20
221.0225011664612111
 30
0.0
 40
0.0769886045428427
 50
125.5912227642510999
 51
152.3378116413819896
  0
ARC
  5
188C5
  8
0
 10
4369.7258035791392103
 20
220.9877286632055018
 30
0.0
 40
0.1196335787390271
 50
96.2404483387486351
 51
125.5137641398890054
  0
ARC
  5
188C6
  8
0
 10
4369.7295835867889764
 20
220.9694319679599914
 30
0.0
 40
0.1382440629797274
 50
80.9418178194453333
 51
96.9735282169022952
  0
ARC
  5
188C7
  8
0
 10
4369.7330860143720201
 20
220.9860936191197993
 30
0.0
 40
0.1212416661030133
 50
57.5091158437211405
 51
81.336694381285767
  0
ARC
  5
188C8
  8
0
 10
4369.754797995973604
 20
221.0195539976504904
 30
0.0
 40
0.0813563930326072
 50
30.7184305818786498
 51
57.7484209710101979
  0
ARC
  5
188C9
  8
0
 10
4369.7790442458353937
 20
221.0343822251736867
 30
0.0
 40
0.0529388745085396
 50
2.781068990127586
 51
30.3264264433235589
  0
ARC
  5
188CA
  8
0
 10
4369.784797900842932
 20
221.0350745838181012
 30
0.0
 40
0.0471602059368728
 50
334.1982633389828266
 51
2.2800580564516268
  0
ARC
  5
188CB
  8
0
 10
4369.7728669537827955
 20
221.0414113093775086
 30
0.0
 40
0.0606619773980734
 50
308.3384605177050162
 51
333.7147165781441913
  0
ARC
  5
188CC
  8
0
 10
4369.7506434480883399
 20
221.0687812251181015
 30
0.0
 40
0.095916287962282
 50
291.8386494307717953
 51
308.6093750695677045
  0
ARC
  5
188CD
  8
0
 10
4369.732909522562295
 20
221.1137507821360941
 30
0.0
 40
0.1442557719954789
 50
276.9000702945444914
 51
291.7325407045996144
  0
ARC
  5
188CE
  8
0
 10
4369.7296680306699272
 20
221.1372301418143138
 30
0.0
 40
0.1679549715675874
 50
260.3907118741939826
 51
277.0355873030142106
  0
ARC
  5
188CF
  8
0
 10
4369.7188726149197464
 20
221.0880903154229884
 30
0.0
 40
0.1177278741741341
 50
236.494098893829289
 51
261.5788328521791186
  0
ARC
  5
188D0
  8
0
 10
4369.6872642278613057
 20
221.0416587505553139
 30
0.0
 40
0.0615676030696216
 50
203.3014079336385009
 51
237.1685347530145975
  0
ARC
  5
188D1
  8
0
 10
4369.6741598652379253
 20
221.0350547957781089
 30
0.0
 40
0.0469280449269318
 50
177.6843171184713128
 51
202.2249171368416114
  0
ARC
  5
188D2
  8
0
 10
4369.6798130669203601
 20
221.0343895904445048
 30
0.0
 40
0.0526053167450486
 50
153.0344542933875118
 51
177.2091690114069138
  0
ARC
  5
188D3
  8
0
 10
4369.6832735140324075
 20
221.0441393313234926
 30
0.0
 40
0.0639808952650773
 50
182.6275346024868043
 51
243.1478307349088084
  0
ARC
  5
188D4
  8
0
 10
4369.7166487441681966
 20
221.092978730038709
 30
0.0
 40
0.1228719692954623
 50
239.5473277416078872
 51
261.517051992673089
  0
ARC
  5
188D5
  8
0
 10
4369.7304415670532762
 20
221.135424099897989
 30
0.0
 40
0.1670507513036594
 50
258.9847995649373047
 51
282.8772706780895874
  0
ARC
  5
188D6
  8
0
 10
4369.7511663161512843
 20
221.0697814172094979
 30
0.0
 40
0.0985979065611585
 50
279.636366302509316
 51
325.0300317259200256
  0
ARC
  5
188D7
  8
0
 10
4369.7849724615698506
 20
221.0415809870848136
 30
0.0
 40
0.0548595396902987
 50
328.9318498337574965
 51
359.7757836515640975
  0
LINE
  5
188D8
  8
0
  6
CONTINUOUS
 62
     7
 10
4368.9618427454015546
 20
219.8168912298226871
 30
0.0
 11
4368.9618427454015546
 21
219.8365762692226042
 31
0.0
  0
LINE
  5
188D9
  8
0
  6
CONTINUOUS
 62
     7
 10
4368.9037715285021477
 20
219.8929439324226109
 30
0.0
 11
4368.902787627302132
 21
219.8365762692226042
 31
0.0
  0
LINE
  5
188DA
  8
0
  6
CONTINUOUS
 62
     7
 10
4370.5553470331024073
 20
219.8929439324226109
 30
0.0
 11
4370.5563309344006484
 21
219.8365762692226042
 31
0.0
  0
LINE
  5
188DB
  8
0
  6
CONTINUOUS
 62
     7
 10
4370.4972758163021354
 20
219.8168912298226871
 30
0.0
 11
4370.4972758163021354
 21
219.8365762692226042
 31
0.0
  0
LINE
  5
188DC
  8
0
  6
CONTINUOUS
 62
     7
 10
4370.2079773546020078
 20
220.0007834713225918
 30
0.0
 11
4370.540759855001852
 21
219.9116146690226117
 31
0.0
  0
LINE
  5
188DD
  8
0
  6
CONTINUOUS
 62
     7
 10
4368.902787627302132
 20
219.8365762692226042
 30
0.0
 11
4370.5563309344006484
 21
219.8365762692226042
 31
0.0
  0
LINE
  5
188DE
  8
0
  6
CONTINUOUS
 62
     7
 10
4369.2511412070007282
 20
220.0007834713225918
 30
0.0
 11
4368.9183587067018379
 21
219.9116146690226117
 31
0.0
  0
ARC
  5
188DF
  8
0
  6
CONTINUOUS
 62
     7
 10
4369.2459943292569733
 20
220.0198759734948055
 30
0.0
 40
0.0197740737215316
 50
285.0869225856278035
 51
359.275610855412026
  0
ARC
  5
188E0
  8
0
  6
CONTINUOUS
 62
     7
 10
4370.2130722177007556
 20
220.0197977592225982
 30
0.0
 40
0.0196850394
 50
183.9746874783295993
 51
254.9999999998977103
  0
ARC
  5
188E1
  8
0
  6
CONTINUOUS
 62
     7
 10
4368.9234535697023603
 20
219.8926003811226906
 30
0.0
 40
0.0196850394
 50
104.9999999999948983
 51
178.9999999997990869
  0
ARC
  5
188E2
  8
0
  6
CONTINUOUS
 62
     7
 10
4370.5356649919003758
 20
219.8926003811226906
 30
0.0
 40
0.0196850394
 50
1.000000000200856
 51
75.0000000000051301
  0
ATTDEF
  5
188E3
  8
DEFPOINTS
 10
4382.8399054269821136
 20
219.5795205040708993
 30
0.0
 40
0.001
  1
K-3361T-2KD
  3

  2
MODELNUMBER
 70
     0
1001
ACDBATTR
1070
     0
1070
     1
  0
ATTDEF
  5
188E4
  8
DEFPOINTS
 10
4382.8397796173248935
 20
219.5778536636917124
 30
0.0
 40
0.001
  1
STACCATO
  3

  2
TRADENAME
 70
     0
1001
ACDBATTR
1070
     0
1070
     1
  0
ATTDEF
  5
188E5
  8
DEFPOINTS
 10
4382.8399054269821136
 20
219.5761871707375121
 30
0.0
 40
0.001
  1
KITCHEN SINK
  3

  2
PRODUCT
 70
     0
1001
ACDBATTR
1070
     0
1070
     1
  0
ENDSEC
  0
EOF
