  0
SECTION
  2
HEADER
  9
$ACADVER
  1
AC1009
  9
$INSBASE
 10
8520.618260516312148
 20
2089.5172460975240938
 30
0.0
  9
$EXTMIN
 10
8518.8465689018830744
 20
2087.4477821277118892
 30
0.0
  9
$EXTMAX
 10
8522.3899521307394025
 20
2090.0828541297291849
 30
0.0
  9
$LIMMIN
 10
0.0
 20
0.0
  9
$LIMMAX
 10
11.6929133858000007
 20
8.2677165353999982
  9
$ORTHOMODE
 70
     0
  9
$REGENMODE
 70
     1
  9
$FILLMODE
 70
     1
  9
$QTEXTMODE
 70
     0
  9
$MIRRTEXT
 70
     0
  9
$DRAGMODE
 70
     2
  9
$LTSCALE
 40
0.6431102362
  9
$OSMODE
 70
  4095
  9
$ATTMODE
 70
     1
  9
$TEXTSIZE
 40
0.2
  9
$TRACEWID
 40
0.05
  9
$TEXTSTYLE
  7
STANDARD
  9
$CLAYER
  8
0
  9
$CELTYPE
  6
BYLAYER
  9
$CECOLOR
 62
   256
  9
$DIMSCALE
 40
1.0
  9
$DIMASZ
 40
0.1875
  9
$DIMEXO
 40
0.0625
  9
$DIMDLI
 40
0.4443307087
  9
$DIMRND
 40
0.0
  9
$DIMDLE
 40
0.0
  9
$DIMEXE
 40
0.125
  9
$DIMTP
 40
0.01
  9
$DIMTM
 40
0.01
  9
$DIMTXT
 40
2.0
  9
$DIMCEN
 40
0.1052362205
  9
$DIMTSZ
 40
0.0
  9
$DIMTOL
 70
     1
  9
$DIMLIM
 70
     0
  9
$DIMTIH
 70
     1
  9
$DIMTOH
 70
     1
  9
$DIMSE1
 70
     0
  9
$DIMSE2
 70
     0
  9
$DIMTAD
 70
     0
  9
$DIMZIN
 70
     0
  9
$DIMBLK
  1

  9
$DIMASO
 70
     1
  9
$DIMSHO
 70
     1
  9
$DIMPOST
  1
\X
  9
$DIMAPOST
  1

  9
$DIMALT
 70
     1
  9
$DIMALTD
 70
     2
  9
$DIMALTF
 40
25.3999999999999986
  9
$DIMLFAC
 40
1.0
  9
$DIMTOFL
 70
     0
  9
$DIMTVP
 40
0.0
  9
$DIMTIX
 70
     0
  9
$DIMSOXD
 70
     0
  9
$DIMSAH
 70
     0
  9
$DIMBLK1
  1

  9
$DIMBLK2
  1

  9
$DIMSTYLE
  2
STANDARD
  9
$DIMCLRD
 70
     0
  9
$DIMCLRE
 70
     0
  9
$DIMCLRT
 70
     0
  9
$DIMTFAC
 40
1.0
  9
$DIMGAP
 40
0.09
  9
$LUNITS
 70
     2
  9
$LUPREC
 70
     4
  9
$SKETCHINC
 40
0.1
  9
$FILLETRAD
 40
0.0
  9
$AUNITS
 70
     0
  9
$AUPREC
 70
     0
  9
$MENU
  1
.
  9
$ELEVATION
 40
0.0
  9
$PELEVATION
 40
0.0
  9
$THICKNESS
 40
0.0
  9
$LIMCHECK
 70
     0
  9
$BLIPMODE
 70
     0
  9
$CHAMFERA
 40
0.0
  9
$CHAMFERB
 40
0.0
  9
$SKPOLY
 70
     0
  9
$TDCREATE
 40
2458060.468368056230247
  9
$TDUPDATE
 40
2460530.6002662042155862
  9
$TDINDWG
 40
0.4661991898
  9
$TDUSRTIMER
 40
0.4661991898
  9
$USRTIMER
 70
     1
  9
$ANGBASE
 50
0.0
  9
$ANGDIR
 70
     0
  9
$PDMODE
 70
     0
  9
$PDSIZE
 40
0.3125
  9
$PLINEWID
 40
0.0
  9
$COORDS
 70
     0
  9
$SPLFRAME
 70
     0
  9
$SPLINETYPE
 70
     6
  9
$SPLINESEGS
 70
     8
  9
$ATTDIA
 70
     1
  9
$ATTREQ
 70
     1
  9
$HANDLING
 70
     1
  9
$HANDSEED
  5
10D6B
  9
$SURFTAB1
 70
     6
  9
$SURFTAB2
 70
     6
  9
$SURFTYPE
 70
     6
  9
$SURFU
 70
     6
  9
$SURFV
 70
     6
  9
$UCSNAME
  2

  9
$UCSORG
 10
0.0
 20
0.0
 30
0.0
  9
$UCSXDIR
 10
1.0
 20
0.0
 30
0.0
  9
$UCSYDIR
 10
0.0
 20
1.0
 30
0.0
  9
$PUCSNAME
  2

  9
$PUCSORG
 10
0.0
 20
0.0
 30
0.0
  9
$PUCSXDIR
 10
1.0
 20
0.0
 30
0.0
  9
$PUCSYDIR
 10
0.0
 20
1.0
 30
0.0
  9
$USERI1
 70
     0
  9
$USERI2
 70
     0
  9
$USERI3
 70
     0
  9
$USERI4
 70
     0
  9
$USERI5
 70
     0
  9
$USERR1
 40
0.0
  9
$USERR2
 40
0.0
  9
$USERR3
 40
0.0
  9
$USERR4
 40
0.0
  9
$USERR5
 40
0.0
  9
$WORLDVIEW
 70
     1
  9
$SHADEDGE
 70
     3
  9
$SHADEDIF
 70
    70
  9
$TILEMODE
 70
     1
  9
$MAXACTVP
 70
    64
  9
$PLIMCHECK
 70
     0
  9
$PEXTMIN
 10
1.0000000000000000E+20
 20
1.0000000000000000E+20
 30
1.0000000000000000E+20
  9
$PEXTMAX
 10
-1.0000000000000000E+20
 20
-1.0000000000000000E+20
 30
-1.0000000000000000E+20
  9
$PLIMMIN
 10
0.0
 20
0.0
  9
$PLIMMAX
 10
12.0
 20
9.0
  9
$UNITMODE
 70
     0
  9
$VISRETAIN
 70
     1
  9
$PLINEGEN
 70
     0
  9
$PSLTSCALE
 70
     1
  0
ENDSEC
  0
SECTION
  2
TABLES
  0
TABLE
  2
VPORT
 70
     1
  0
VPORT
  2
*ACTIVE
 70
     0
 10
0.0
 20
0.0
 11
1.0
 21
1.0
 12
3705.3199206725607837
 22
1840.9566938611419573
 13
0.0
 23
0.0
 14
1.0
 24
1.0
 15
0.0
 25
0.0
 16
0.0
 26
0.0
 36
9.5192988075487186
 17
4815.2983398437490905
 27
247.8086242675780966
 37
0.0
 40
2.6535205807940652
 41
2.218457943925233
 42
50.0
 43
0.0
 44
0.0
 50
0.0
 51
0.0
 71
     0
 72
   100
 73
     1
 74
     1
 75
     0
 76
     0
 77
     0
 78
     0
  0
ENDTAB
  0
TABLE
  2
LTYPE
 70
     2
  0
LTYPE
  2
CONTINUOUS
 70
     0
  3
Solid line
 72
    65
 73
     0
 40
0.0
  0
LTYPE
  2
PHANTOM2
 70
     0
  3
___ _ _ ___ _ _ ___ _ _ ___ _ _
 72
    65
 73
     6
 40
1.25
 49
0.625
 49
-0.125
 49
0.125
 49
-0.125
 49
0.125
 49
-0.125
  0
ENDTAB
  0
TABLE
  2
LAYER
 70
     2
  0
LAYER
  2
0
 70
     0
 62
   255
  6
CONTINUOUS
  0
LAYER
  2
DEFPOINTS
 70
     0
 62
     7
  6
CONTINUOUS
  0
ENDTAB
  0
TABLE
  2
STYLE
 70
     1
  0
STYLE
  2
STANDARD
 70
     0
 40
0.0
 41
0.8
 50
0.0
 71
     0
 42
0.2
  3
txt
  4

  0
ENDTAB
  0
TABLE
  2
VIEW
 70
     0
  0
ENDTAB
  0
TABLE
  2
UCS
 70
     0
  0
ENDTAB
  0
TABLE
  2
APPID
 70
    10
  0
APPID
  2
ACAD
 70
     0
  0
APPID
  2
ACAD_MLEADERVER
 70
     0
  0
APPID
  2
ACAD_EXEMPT_FROM_CAD_STANDARDS
 70
     0
  0
APPID
  2
ACAD_NAV_VCDISPLAY
 70
     0
  0
APPID
  2
ACAECLAYERSTANDARD
 70
     0
  0
APPID
  2
ACCMTRANSPARENCY
 70
     0
  0
APPID
  2
ACAD_DSTYLE_DIMJAG
 70
     0
  0
APPID
  2
ACAD_DSTYLE_DIMTALN
 70
     0
  0
APPID
  2
ACDBATTR
 70
     0
  0
APPID
  2
ACADANNOTATIVE
 70
     0
  0
ENDTAB
  0
TABLE
  2
DIMSTYLE
 70
     2
  0
DIMSTYLE
  2
STANDARD
 70
     0
  3

  4

  5

  6

  7

 40
1.0
 41
0.1875
 42
0.0625
 43
0.38
 44
0.125
 45
0.0
 46
0.0
 47
0.01
 48
0.01
140
0.15625
141
0.09
142
0.0
143
25.3999999999999986
144
1.0
145
0.0
146
1.0
147
0.09
 71
     1
 72
     0
 73
     1
 74
     1
 75
     0
 76
     0
 77
     0
 78
     4
170
     0
171
     2
172
     0
173
     0
174
     0
175
     0
176
     0
177
     0
178
     0
  0
DIMSTYLE
  2
ANNOTATIVE
 70
     0
  3

  4

  5

  6

  7

 40
0.0
 41
0.18
 42
0.0625
 43
0.38
 44
0.18
 45
0.0
 46
0.0
 47
0.0
 48
0.0
140
0.18
141
0.09
142
0.0
143
25.3999999999999986
144
1.0
145
0.0
146
1.0
147
0.09
 71
     0
 72
     0
 73
     1
 74
     1
 75
     0
 76
     0
 77
     0
 78
     0
170
     0
171
     2
172
     0
173
     0
174
     0
175
     0
176
     0
177
     0
178
     0
  0
ENDTAB
  0
ENDSEC
  0
SECTION
  2
BLOCKS
  0
BLOCK
  8
0
  2
$MODEL_SPACE
 70
     0
 10
0.0
 20
0.0
 30
0.0
  3
$MODEL_SPACE
  1

  0
ENDBLK
  5
21
  8
0
  0
BLOCK
 67
     1
  8
0
  2
$PAPER_SPACE
 70
     0
 10
0.0
 20
0.0
 30
0.0
  3
$PAPER_SPACE
  1

  0
ENDBLK
  5
1D
 67
     1
  8
0
  0
BLOCK
  8
0
  2
_FILLED
 70
     0
 10
0.0
 20
0.0
 30
0.0
  3
_FILLED
  1

  0
SOLID
  5
D8EA
  8
0
  6
BYBLOCK
 62
     0
 10
0.0
 20
0.0
 30
0.0
 11
-1.0
 21
0.1666666667
 31
0.0
 12
-1.0
 22
-0.1666666667
 32
0.0
 13
-1.0
 23
-0.1666666667
 33
0.0
  0
ENDBLK
  5
D8EB
  8
0
  6
BYBLOCK
 62
     0
  0
ENDSEC
  0
SECTION
  2
ENTITIES
  0
ATTDEF
  5
3930
  8
DEFPOINTS
 10
8520.6077130457942985
 20
2089.5222897999587985
 30
0.0
 40
0.001
  1
K-33640-H
  3

  2
MODELNUMBER
 70
     0
1001
ACDBATTR
1070
     0
1070
     1
  0
ATTDEF
  5
3931
  8
DEFPOINTS
 10
8520.6077130457942985
 20
2089.5206231332931566
 30
0.0
 40
0.001
  1
ELATE
  3

  2
TRADENAME
 70
     0
1001
ACDBATTR
1070
     0
1070
     1
  0
ATTDEF
  5
3932
  8
DEFPOINTS
 10
8520.6077130457942985
 20
2089.5189564666261504
 30
0.0
 40
0.001
  1
HANDSHOWER
  3

  2
PRODUCT
 70
     0
1001
ACDBATTR
1070
     0
1070
     1
  0
ARC
  5
10A0A
  8
0
 10
8519.2768816695661371
 20
2088.2694426432021828
 30
0.0
 40
0.4304053157789895
 50
181.1882021806135015
 51
193.5240985029691103
  0
ARC
  5
10A0B
  8
0
 10
8519.2541923175849661
 20
2088.2639853175692224
 30
0.0
 40
0.4070688829661869
 50
193.5240985029691103
 51
208.651394813816097
  0
ARC
  5
10A0C
  8
0
 10
8519.4555723902030877
 20
2088.3740157492397884
 30
0.0
 40
0.6365479224042594
 50
208.651394813816097
 51
224.1039749576735005
  0
ARC
  5
10A0D
  8
0
 10
8519.7710906168322254
 20
2088.7038495454039548
 30
0.0
 40
1.0928028897236961
 50
225.0088256596010012
 51
242.271747007514989
  0
ARC
  5
10A0E
  8
0
 10
8520.1845166852308466
 20
2089.4605787815758049
 30
0.0
 40
1.9550400211619701
 50
241.8655500593970089
 51
252.3119855781363867
  0
ARC
  5
10A0F
  8
0
 10
8520.4956240512983641
 20
2090.4295344490760726
 30
0.0
 40
2.9727139633179962
 50
252.2734699405177992
 51
261.8883176559460253
  0
ARC
  5
10A10
  8
0
 10
8520.6084261547566712
 20
2091.1388179291111555
 30
0.0
 40
3.6908359242989248
 50
261.7083745790422995
 51
267.8173970159256214
  0
ARC
  5
10A11
  8
0
 10
8520.7061178303865745
 20
2095.9716911727391562
 30
0.0
 40
8.5243618128004606
 50
268.3983809765614978
 51
269.4094640124588977
  0
LINE
  5
10A12
  8
0
 10
8518.8465689018848934
 20
2088.2605175202120336
 30
0.0
 11
8518.8564960764215357
 21
2089.2538018403251954
 31
0.0
  0
ARC
  5
10A13
  8
0
 10
8519.3004081114850123
 20
2089.2267417622210814
 30
0.0
 40
0.4447360371076288
 50
151.0496754591931108
 51
176.5116689717125098
  0
ARC
  5
10A14
  8
0
 10
8519.4554575195743382
 20
2089.1409721195259408
 30
0.0
 40
0.6219273195015395
 50
134.7690273340610929
 51
151.0496754591931108
  0
ARC
  5
10A15
  8
0
 10
8519.7640853550892643
 20
2088.835397018222011
 30
0.0
 40
1.0562293852366429
 50
128.2085414307813096
 51
134.981094415969892
  0
ARC
  5
10A16
  8
0
 10
8519.8401587923835905
 20
2088.809713481316976
 30
0.0
 40
1.124320953016726
 50
121.4083807296711939
 51
130.4457540456467086
  0
ARC
  5
10A17
  8
0
 10
8520.0583204317990749
 20
2088.4479988113748732
 30
0.0
 40
1.5467285003463001
 50
113.3876382494420056
 51
121.322937893774295
  0
ARC
  5
10A18
  8
0
 10
8520.289000108903565
 20
2087.9192616647560499
 30
0.0
 40
2.1235938264144139
 50
107.0027187086290041
 51
113.4374162989634982
  0
ARC
  5
10A19
  8
0
 10
8520.5001058331854438
 20
2087.2153182762331198
 30
0.0
 40
2.8585021419992911
 50
98.9000879279533507
 51
106.9232123655498015
  0
ARC
  5
10A1A
  8
0
 10
8520.5991007524244196
 20
2086.6319228982652021
 30
0.0
 40
3.4501971644236962
 50
94.1506860427393519
 51
99.0253805062803423
  0
ARC
  5
10A1B
  8
0
 10
8520.6198706108734768
 20
2086.3387545028340355
 30
0.0
 40
3.7440999730938218
 50
90.0246391993871953
 51
94.1429720547310609
  0
ARC
  5
10A1C
  8
0
 10
8519.2495850769882964
 20
2089.2402608618258455
 30
0.0
 40
0.3935017863819369
 50
181.6539568265372111
 51
204.6035315739459861
  0
ARC
  5
10A1D
  8
0
 10
8519.3782677622129995
 20
2089.2991859895628295
 30
0.0
 40
0.5350341295268632
 50
204.6035315739459861
 51
221.1022880590811894
  0
ARC
  5
10A1E
  8
0
 10
8519.6213117332245019
 20
2089.5112238513811462
 30
0.0
 40
0.8575716105887224
 50
221.1022880590811894
 51
232.4576145397294056
  0
ARC
  5
10A1F
  8
0
 10
8519.8429091845900984
 20
2089.7995733498041773
 30
0.0
 40
1.2212347289997061
 50
232.4576145397294056
 51
242.8460659647714976
  0
ARC
  5
10A20
  8
0
 10
8520.2169082700402214
 20
2090.5287382817791695
 30
0.0
 40
2.0407204298760231
 50
242.8460659647714976
 51
250.8409816164331119
  0
ARC
  5
10A21
  8
0
 10
8520.3925381421904603
 20
2091.0342424821219538
 30
0.0
 40
2.5758655957467949
 50
250.8409816164331119
 51
258.5327758419678048
  0
ARC
  5
10A22
  8
0
 10
8520.6421448782748485
 20
2092.2647012510601598
 30
0.0
 40
3.8313863262635559
 50
258.5327758419678048
 51
262.660915320507911
  0
ARC
  5
10A23
  8
0
 10
8520.5735611162253917
 20
2091.7322036021391796
 30
0.0
 40
3.294490173805853
 50
262.660915320507911
 51
267.554531024547714
  0
ARC
  5
10A24
  8
0
 10
8520.6631126653974206
 20
2094.1017829662791883
 30
0.0
 40
5.6657445057504781
 50
267.6722068327280795
 51
269.5464204775444159
  0
ARC
  5
10A25
  8
0
 10
8519.6103595760741882
 20
2089.0978755365222241
 30
0.0
 40
0.7562707073820379
 50
131.6690045006124024
 51
142.2918732616049908
  0
ARC
  5
10A26
  8
0
 10
8519.4012186817417387
 20
2089.2619038979091783
 30
0.0
 40
0.4904889558590349
 50
142.5079893248530993
 51
160.1509883860692014
  0
ARC
  5
10A27
  8
0
 10
8519.2643254124450323
 20
2089.3113208267550363
 30
0.0
 40
0.3449492704303458
 50
160.1509883860692014
 51
183.3296249878679873
  0
ARC
  5
10A28
  8
0
 10
8519.3032009412872867
 20
2089.3135825438062056
 30
0.0
 40
0.3838905352616178
 50
183.3296249878679873
 51
208.7048117757281886
  0
ARC
  5
10A29
  8
0
 10
8519.4883751274501265
 20
2089.4149826628481605
 30
0.0
 40
0.5950100828257363
 50
208.7048117757281886
 51
225.9002630887725047
  0
ARC
  5
10A2A
  8
0
 10
8519.7568647101234092
 20
2089.6920449650328919
 30
0.0
 40
0.9808211444791691
 50
225.9002630887725047
 51
238.4551157781737061
  0
ARC
  5
10A2B
  8
0
 10
8520.0815945944214036
 20
2090.2210253631601518
 30
0.0
 40
1.6015221670014179
 50
238.4551157781737061
 51
248.4399928529759052
  0
ARC
  5
10A2C
  8
0
 10
8520.3783978064802795
 20
2090.9721961636091692
 30
0.0
 40
2.4092038605756301
 50
248.4399928529759052
 51
253.1559921992941042
  0
ARC
  5
10A2D
  8
0
 10
8520.438405393557332
 20
2091.1704005567980857
 30
0.0
 40
2.6162929524810949
 50
253.1559921992941042
 51
260.0899833326283215
  0
ARC
  5
10A2E
  8
0
 10
8520.638691278780243
 20
2092.3168035732928729
 30
0.0
 40
3.780060245392924
 50
260.0899833326283215
 51
265.5445492351443022
  0
ARC
  5
10A2F
  8
0
 10
8520.6043621635726595
 20
2091.8995385038929271
 30
0.0
 40
3.361389802462468
 50
265.5754110532104164
 51
270.2369017786767245
  0
ARC
  5
10A30
  8
0
 10
8521.9596393630563398
 20
2088.2694426432021828
 30
0.0
 40
0.4304053157789895
 50
346.4759014970308044
 51
358.811797819386527
  0
ARC
  5
10A31
  8
0
 10
8521.9823287150375108
 20
2088.2639853175692224
 30
0.0
 40
0.4070688829661869
 50
331.3486051861838178
 51
346.4759014970308044
  0
ARC
  5
10A32
  8
0
 10
8521.7809486424212082
 20
2088.3740157492397884
 30
0.0
 40
0.6365479224042594
 50
315.8960250423265279
 51
331.3486051861838178
  0
ARC
  5
10A33
  8
0
 10
8521.4654304157902516
 20
2088.7038495454039548
 30
0.0
 40
1.0928028897236961
 50
297.7282529924848973
 51
314.9911743403989135
  0
ARC
  5
10A34
  8
0
 10
8521.0520043473934493
 20
2089.4605787815758049
 30
0.0
 40
1.9550400211619701
 50
287.6880144218636133
 51
298.1344499406030195
  0
ARC
  5
10A35
  8
0
 10
8520.7408969813222939
 20
2090.4295344490760726
 30
0.0
 40
2.9727139633179962
 50
278.1116823440540884
 51
287.7265300594821724
  0
ARC
  5
10A36
  8
0
 10
8520.6280948778658058
 20
2091.1388179291111555
 30
0.0
 40
3.6908359242989248
 50
272.1826029840744923
 51
278.2916254209577005
  0
ARC
  5
10A37
  8
0
 10
8520.5304032022359024
 20
2095.9716911727391562
 30
0.0
 40
8.5243618128004606
 50
270.5905359875411023
 51
271.6016190234383885
  0
LINE
  5
10A38
  8
0
 10
8522.3899521307375835
 20
2088.2605175202120336
 30
0.0
 11
8522.3800249562045792
 21
2089.2538018403251954
 31
0.0
  0
ARC
  5
10A39
  8
0
 10
8521.9361129211374646
 20
2089.2267417622210814
 30
0.0
 40
0.4447360371076288
 50
3.4883310282874351
 51
28.9503245408068999
  0
ARC
  5
10A3A
  8
0
 10
8521.7810635130517767
 20
2089.1409721195259408
 30
0.0
 40
0.6219273195015395
 50
28.9503245408068999
 51
45.2309726659388787
  0
ARC
  5
10A3B
  8
0
 10
8521.4724356775332126
 20
2088.835397018222011
 30
0.0
 40
1.0562293852366429
 50
45.0189055840301293
 51
51.7914585692186265
  0
ARC
  5
10A3C
  8
0
 10
8521.3963622402388864
 20
2088.809713481316976
 30
0.0
 40
1.124320953016726
 50
49.5542459543532985
 51
58.5916192703287919
  0
ARC
  5
10A3D
  8
0
 10
8521.178200600825221
 20
2088.4479988113748732
 30
0.0
 40
1.5467285003463001
 50
58.6770621062257121
 51
66.6123617505579659
  0
ARC
  5
10A3E
  8
0
 10
8520.9475209237189119
 20
2087.9192616647560499
 30
0.0
 40
2.1235938264144139
 50
66.5625837010365018
 51
72.9972812913710101
  0
ARC
  5
10A3F
  8
0
 10
8520.7364151994352142
 20
2087.2153182762331198
 30
0.0
 40
2.8585021419992911
 50
73.0767876344501559
 51
81.0999120720466351
  0
ARC
  5
10A40
  8
0
 10
8520.6374202801962383
 20
2086.6319228982652021
 30
0.0
 40
3.4501971644236962
 50
80.9746194937196577
 51
85.8493139572606339
  0
ARC
  5
10A41
  8
0
 10
8520.6166504217471811
 20
2086.3387545028340355
 30
0.0
 40
3.7440999730938218
 50
85.8570279452689249
 51
89.9753608006128047
  0
ARC
  5
10A42
  8
0
 10
8521.9869359556359996
 20
2089.2402608618258455
 30
0.0
 40
0.3935017863819369
 50
335.3964684260540139
 51
358.3460431734627036
  0
ARC
  5
10A43
  8
0
 10
8521.8582532704094774
 20
2089.2991859895628295
 30
0.0
 40
0.5350341295268632
 50
318.8977119409187253
 51
335.3964684260540139
  0
ARC
  5
10A44
  8
0
 10
8521.615209299396156
 20
2089.5112238513811462
 30
0.0
 40
0.8575716105887224
 50
307.5423854602706228
 51
318.8977119409187253
  0
ARC
  5
10A45
  8
0
 10
8521.3936118480305595
 20
2089.7995733498041773
 30
0.0
 40
1.2212347289997061
 50
297.1539340352284739
 51
307.5423854602706228
  0
ARC
  5
10A46
  8
0
 10
8521.0196127625804365
 20
2090.5287382817791695
 30
0.0
 40
2.0407204298760231
 50
289.1590183835670018
 51
297.1539340352284739
  0
ARC
  5
10A47
  8
0
 10
8520.8439828904301976
 20
2091.0342424821219538
 30
0.0
 40
2.5758655957467949
 50
281.4672241580321952
 51
289.1590183835670018
  0
ARC
  5
10A48
  8
0
 10
8520.5943761543476285
 20
2092.2647012510601598
 30
0.0
 40
3.8313863262635559
 50
277.339084679492089
 51
281.4672241580321952
  0
ARC
  5
10A49
  8
0
 10
8520.6629599163989042
 20
2091.7322036021391796
 30
0.0
 40
3.294490173805853
 50
272.445468975452286
 51
277.339084679492089
  0
ARC
  5
10A4A
  8
0
 10
8520.5734083672250563
 20
2094.1017829662791883
 30
0.0
 40
5.6657445057504781
 50
270.4535795224555841
 51
272.3277931672718069
  0
ARC
  5
10A4B
  8
0
 10
8521.6261614565464697
 20
2089.0978755365222241
 30
0.0
 40
0.7562707073820379
 50
37.7081267383949665
 51
48.330995499387619
  0
ARC
  5
10A4C
  8
0
 10
8521.8353023508825572
 20
2089.2619038979091783
 30
0.0
 40
0.4904889558590349
 50
19.8490116139307489
 51
37.4920106751469007
  0
ARC
  5
10A4D
  8
0
 10
8521.9721956201774447
 20
2089.3113208267550363
 30
0.0
 40
0.3449492704303458
 50
356.6703750121320127
 51
19.8490116139307489
  0
ARC
  5
10A4E
  8
0
 10
8521.9333200913370092
 20
2089.3135825438062056
 30
0.0
 40
0.3838905352616178
 50
331.2951882242717829
 51
356.6703750121320127
  0
ARC
  5
10A4F
  8
0
 10
8521.7481459051705315
 20
2089.4149826628481605
 30
0.0
 40
0.5950100828257363
 50
314.0997369112275237
 51
331.2951882242717829
  0
ARC
  5
10A50
  8
0
 10
8521.4796563225027057
 20
2089.6920449650328919
 30
0.0
 40
0.9808211444791691
 50
301.5448842218261802
 51
314.0997369112275237
  0
ARC
  5
10A51
  8
0
 10
8521.1549264382010733
 20
2090.2210253631601518
 30
0.0
 40
1.6015221670014179
 50
291.5600071470241232
 51
301.5448842218261802
  0
ARC
  5
10A52
  8
0
 10
8520.8581232261458354
 20
2090.9721961636091692
 30
0.0
 40
2.4092038605756301
 50
286.8440078007059242
 51
291.5600071470241232
  0
ARC
  5
10A53
  8
0
 10
8520.7981156390669639
 20
2091.1704005567980857
 30
0.0
 40
2.6162929524810949
 50
279.9100166673716785
 51
286.8440078007059242
  0
ARC
  5
10A54
  8
0
 10
8520.5978297538404149
 20
2092.3168035732928729
 30
0.0
 40
3.780060245392924
 50
274.4554507648555841
 51
279.9100166673716785
  0
ARC
  5
10A55
  8
0
 10
8520.6321588690516364
 20
2091.8995385038929271
 30
0.0
 40
3.361389802462468
 50
269.7630982213232755
 51
274.4245889467895836
  0
ENDSEC
  0
EOF
