  0
SECTION
  2
HEADER
  9
$ACADVER
  1
AC1009
  9
$INSBASE
 10
5205.6051403539504463
 20
-11.3551478050809997
 30
0.0
  9
$EXTMIN
 10
5193.6308464576468396
 20
-27.1057658890596684
 30
-0.0000000349181948
  9
$EXTMAX
 10
5217.3576061286330514
 20
4.3930950337103241
 30
0.0000000814935746
  9
$LIMMIN
 10
0.0
 20
0.0
  9
$LIMMAX
 10
11.6929133858000007
 20
8.2677165353999982
  9
$ORTHOMODE
 70
     0
  9
$REGENMODE
 70
     1
  9
$FILLMODE
 70
     1
  9
$QTEXTMODE
 70
     0
  9
$MIRRTEXT
 70
     0
  9
$DRAGMODE
 70
     2
  9
$LTSCALE
 40
0.6431102362
  9
$OSMODE
 70
  4095
  9
$ATTMODE
 70
     1
  9
$TEXTSIZE
 40
0.2
  9
$TRACEWID
 40
0.05
  9
$TEXTSTYLE
  7
STANDARD
  9
$CLAYER
  8
0
  9
$CELTYPE
  6
BYLAYER
  9
$CECOLOR
 62
   256
  9
$DIMSCALE
 40
1.0
  9
$DIMASZ
 40
0.1875
  9
$DIMEXO
 40
0.0625
  9
$DIMDLI
 40
0.4443307087
  9
$DIMRND
 40
0.0
  9
$DIMDLE
 40
0.0
  9
$DIMEXE
 40
0.125
  9
$DIMTP
 40
0.01
  9
$DIMTM
 40
0.01
  9
$DIMTXT
 40
2.0
  9
$DIMCEN
 40
0.1052362205
  9
$DIMTSZ
 40
0.0
  9
$DIMTOL
 70
     1
  9
$DIMLIM
 70
     0
  9
$DIMTIH
 70
     1
  9
$DIMTOH
 70
     1
  9
$DIMSE1
 70
     0
  9
$DIMSE2
 70
     0
  9
$DIMTAD
 70
     0
  9
$DIMZIN
 70
     0
  9
$DIMBLK
  1

  9
$DIMASO
 70
     1
  9
$DIMSHO
 70
     1
  9
$DIMPOST
  1
\X
  9
$DIMAPOST
  1

  9
$DIMALT
 70
     1
  9
$DIMALTD
 70
     2
  9
$DIMALTF
 40
25.3999999999999986
  9
$DIMLFAC
 40
1.0
  9
$DIMTOFL
 70
     0
  9
$DIMTVP
 40
0.0
  9
$DIMTIX
 70
     0
  9
$DIMSOXD
 70
     0
  9
$DIMSAH
 70
     0
  9
$DIMBLK1
  1

  9
$DIMBLK2
  1

  9
$DIMSTYLE
  2
STANDARD
  9
$DIMCLRD
 70
     0
  9
$DIMCLRE
 70
     0
  9
$DIMCLRT
 70
     0
  9
$DIMTFAC
 40
1.0
  9
$DIMGAP
 40
0.09
  9
$LUNITS
 70
     2
  9
$LUPREC
 70
     4
  9
$SKETCHINC
 40
0.1
  9
$FILLETRAD
 40
0.0
  9
$AUNITS
 70
     0
  9
$AUPREC
 70
     0
  9
$MENU
  1
.
  9
$ELEVATION
 40
0.0
  9
$PELEVATION
 40
0.0
  9
$THICKNESS
 40
0.0
  9
$LIMCHECK
 70
     0
  9
$BLIPMODE
 70
     0
  9
$CHAMFERA
 40
0.0
  9
$CHAMFERB
 40
0.0
  9
$SKPOLY
 70
     0
  9
$TDCREATE
 40
2458060.468368056230247
  9
$TDUPDATE
 40
2460101.6947453701868653
  9
$TDINDWG
 40
0.5849607639
  9
$TDUSRTIMER
 40
0.5849607639
  9
$USRTIMER
 70
     1
  9
$ANGBASE
 50
0.0
  9
$ANGDIR
 70
     0
  9
$PDMODE
 70
     0
  9
$PDSIZE
 40
0.3125
  9
$PLINEWID
 40
0.0
  9
$COORDS
 70
     1
  9
$SPLFRAME
 70
     0
  9
$SPLINETYPE
 70
     6
  9
$SPLINESEGS
 70
     8
  9
$ATTDIA
 70
     1
  9
$ATTREQ
 70
     1
  9
$HANDLING
 70
     1
  9
$HANDSEED
  5
206D0
  9
$SURFTAB1
 70
     6
  9
$SURFTAB2
 70
     6
  9
$SURFTYPE
 70
     6
  9
$SURFU
 70
     6
  9
$SURFV
 70
     6
  9
$UCSNAME
  2

  9
$UCSORG
 10
0.0
 20
0.0
 30
0.0
  9
$UCSXDIR
 10
1.0
 20
0.0
 30
0.0
  9
$UCSYDIR
 10
0.0
 20
1.0
 30
0.0
  9
$PUCSNAME
  2

  9
$PUCSORG
 10
0.0
 20
0.0
 30
0.0
  9
$PUCSXDIR
 10
1.0
 20
0.0
 30
0.0
  9
$PUCSYDIR
 10
0.0
 20
1.0
 30
0.0
  9
$USERI1
 70
     0
  9
$USERI2
 70
     0
  9
$USERI3
 70
     0
  9
$USERI4
 70
     0
  9
$USERI5
 70
     0
  9
$USERR1
 40
0.0
  9
$USERR2
 40
0.0
  9
$USERR3
 40
0.0
  9
$USERR4
 40
0.0
  9
$USERR5
 40
0.0
  9
$WORLDVIEW
 70
     1
  9
$SHADEDGE
 70
     3
  9
$SHADEDIF
 70
    70
  9
$TILEMODE
 70
     1
  9
$MAXACTVP
 70
    64
  9
$PLIMCHECK
 70
     0
  9
$PEXTMIN
 10
1.0000000000000000E+20
 20
1.0000000000000000E+20
 30
1.0000000000000000E+20
  9
$PEXTMAX
 10
-1.0000000000000000E+20
 20
-1.0000000000000000E+20
 30
-1.0000000000000000E+20
  9
$PLIMMIN
 10
0.0
 20
0.0
  9
$PLIMMAX
 10
12.0
 20
9.0
  9
$UNITMODE
 70
     0
  9
$VISRETAIN
 70
     1
  9
$PLINEGEN
 70
     0
  9
$PSLTSCALE
 70
     1
  0
ENDSEC
  0
SECTION
  2
TABLES
  0
TABLE
  2
VPORT
 70
     1
  0
VPORT
  2
*ACTIVE
 70
     0
 10
0.0
 20
0.0
 11
1.0
 21
1.0
 12
1413.1363161368899455
 22
-131.5369918607800912
 13
0.0
 23
0.0
 14
1.0
 24
1.0
 15
0.0
 25
0.0
 16
0.0
 26
0.0
 36
5.1040778033513332
 17
3792.35791015625
 27
120.1806564331053977
 37
0.0
 40
31.7408496110371203
 41
1.4307692307692299
 42
50.0
 43
0.0
 44
0.0
 50
0.0
 51
0.0
 71
     0
 72
   100
 73
     1
 74
     1
 75
     0
 76
     0
 77
     0
 78
     0
  0
ENDTAB
  0
TABLE
  2
LTYPE
 70
     2
  0
LTYPE
  2
CONTINUOUS
 70
     0
  3
Solid line
 72
    65
 73
     0
 40
0.0
  0
LTYPE
  2
PHANTOM2
 70
     0
  3
___ _ _ ___ _ _ ___ _ _ ___ _ _
 72
    65
 73
     6
 40
1.25
 49
0.625
 49
-0.125
 49
0.125
 49
-0.125
 49
0.125
 49
-0.125
  0
ENDTAB
  0
TABLE
  2
LAYER
 70
     2
  0
LAYER
  2
0
 70
     0
 62
   255
  6
CONTINUOUS
  0
LAYER
  2
DEFPOINTS
 70
     0
 62
     7
  6
CONTINUOUS
  0
ENDTAB
  0
TABLE
  2
STYLE
 70
     1
  0
STYLE
  2
STANDARD
 70
     0
 40
0.0
 41
0.8
 50
0.0
 71
     0
 42
0.2
  3
txt
  4

  0
ENDTAB
  0
TABLE
  2
VIEW
 70
     0
  0
ENDTAB
  0
TABLE
  2
UCS
 70
     0
  0
ENDTAB
  0
TABLE
  2
APPID
 70
     9
  0
APPID
  2
ACAD
 70
     0
  0
APPID
  2
ACAD_MLEADERVER
 70
     0
  0
APPID
  2
ACAD_EXEMPT_FROM_CAD_STANDARDS
 70
     0
  0
APPID
  2
ACAD_NAV_VCDISPLAY
 70
     0
  0
APPID
  2
ACAECLAYERSTANDARD
 70
     0
  0
APPID
  2
ACCMTRANSPARENCY
 70
     0
  0
APPID
  2
ACAD_DSTYLE_DIMJAG
 70
     0
  0
APPID
  2
ACAD_DSTYLE_DIMTALN
 70
     0
  0
APPID
  2
ACDBATTR
 70
     0
  0
ENDTAB
  0
TABLE
  2
DIMSTYLE
 70
     1
  0
DIMSTYLE
  2
STANDARD
 70
     0
  3

  4

  5

  6

  7

 40
1.0
 41
0.1875
 42
0.0625
 43
0.38
 44
0.125
 45
0.0
 46
0.0
 47
0.01
 48
0.01
140
0.15625
141
0.09
142
0.0
143
25.3999999999999986
144
1.0
145
0.0
146
1.0
147
0.09
 71
     1
 72
     0
 73
     1
 74
     1
 75
     0
 76
     0
 77
     0
 78
     4
170
     0
171
     2
172
     0
173
     0
174
     0
175
     0
176
     0
177
     0
178
     0
  0
ENDTAB
  0
ENDSEC
  0
SECTION
  2
BLOCKS
  0
BLOCK
  8
0
  2
$MODEL_SPACE
 70
     0
 10
0.0
 20
0.0
 30
0.0
  3
$MODEL_SPACE
  1

  0
ENDBLK
  5
21
  8
0
  0
BLOCK
 67
     1
  8
0
  2
$PAPER_SPACE
 70
     0
 10
0.0
 20
0.0
 30
0.0
  3
$PAPER_SPACE
  1

  0
ENDBLK
  5
1D
 67
     1
  8
0
  0
ENDSEC
  0
SECTION
  2
ENTITIES
  0
ATTDEF
  5
3930
  8
DEFPOINTS
 10
5205.6006349631206831
 20
-11.3508786840265508
 30
0.0
 40
0.001
  1
K-33690K-L
  3

  2
MODELNUMBER
 70
     0
1001
ACDBATTR
1070
     0
1070
     1
  0
ATTDEF
  5
3931
  8
DEFPOINTS
 10
5205.6006349631206831
 20
-11.3525453506932195
 30
0.0
 40
0.001
  1

  3

  2
TRADENAME
 70
     0
1001
ACDBATTR
1070
     0
1070
     1
  0
ATTDEF
  5
3932
  8
DEFPOINTS
 10
5205.6006349631206831
 20
-11.3542120173598793
 30
0.0
 40
0.001
  1
MEDICINE CABINET
  3

  2
PRODUCT
 70
     0
1001
ACDBATTR
1070
     0
1070
     1
  0
LINE
  5
20624
  8
0
 10
5217.337423818348725
 20
4.3928836910690023
 30
0.0
 11
5193.8728568894493947
 21
4.3928836910690023
 31
0.0
  0
LINE
  5
20625
  8
0
 10
5194.2114395665503253
 20
-26.8866438680310011
 30
0.0
 11
5194.2075025586491392
 21
-26.8866438680310011
 31
0.0
  0
LINE
  5
20626
  8
0
 10
5217.3374238185488139
 20
-27.103179301131
 30
0.0
 11
5193.8728568893493502
 21
-27.103179301131
 31
0.0
  0
LINE
  5
20627
  8
0
 10
5193.9319120074496823
 20
4.3728836910689992
 30
0.0
 11
5193.9319120074496823
 21
-27.103179301131
 31
0.0
  0
ARC
  5
20628
  8
0
 10
5193.9519120074492093
 20
4.3728836910689992
 30
0.0
 40
0.02
 50
90.0
 51
179.9999999999897966
  0
LINE
  5
20629
  8
0
 10
5193.8728568894493947
 20
4.3928836910690023
 30
0.0
 11
5193.8728568894475757
 21
-27.103179301131
 31
0.0
  0
LINE
  5
2062A
  8
0
 10
5194.0227429831502377
 20
4.3850096752690026
 30
0.0
 11
5194.0227429831502377
 21
4.2747734548690062
 31
0.0
  0
ARC
  5
2062B
  8
0
 10
5193.9860739485720842
 20
4.3349606577736628
 30
0.0
 40
0.0620445182840871
 50
53.7711674737256686
 51
68.9986741290363454
  0
LINE
  5
2062C
  8
0
 10
5194.2075025586491392
 20
4.2747734547690044
 30
0.0
 11
5194.2075025586491392
 21
-27.0047541042310009
 31
0.0
  0
LINE
  5
2062D
  8
0
 10
5216.9988411412496134
 20
4.2472143997689988
 30
0.0
 11
5217.0027781491489804
 21
4.2472143997689988
 31
0.0
  0
LINE
  5
2062E
  8
0
 10
5194.0188059752490517
 20
4.2747734547690044
 30
0.0
 11
5194.0188059752490517
 21
-27.0913682774309983
 31
0.0
  0
LINE
  5
2062F
  8
0
 10
5194.0087748982996345
 20
-27.0990546080660017
 30
0.0
 11
5194.0188059752490517
 21
-27.0913682774309983
 31
0.0
  0
ARC
  5
20630
  8
0
 10
5193.9966104159966562
 20
-27.0831793011310111
 30
0.0
 40
0.02
 50
270.0
 51
307.4612054055418753
  0
LINE
  5
20631
  8
0
 10
5194.2114395665503253
 20
-26.1189273326309994
 30
0.0
 11
5216.9988411412496134
 21
-26.1189273326309994
 31
0.0
  0
LINE
  5
20632
  8
0
 10
5194.2114395665503253
 20
-26.1189273326309994
 30
0.0
 11
5194.2114395665503253
 21
-27.0047541042310009
 31
0.0
  0
LINE
  5
20633
  8
0
 10
5194.2075025586491392
 20
-26.2370375688309991
 30
0.0
 11
5194.2114395665503253
 21
-26.2370375688309991
 31
0.0
  0
LINE
  5
20634
  8
0
 10
5216.9988411412496134
 20
-26.2370375688309991
 30
0.0
 11
5217.0027781491489804
 21
-26.2370375688309991
 31
0.0
  0
LINE
  5
20635
  8
0
 10
5194.2075025586491392
 20
-26.2094785137309998
 30
0.0
 11
5194.2114395665503253
 21
-26.2094785137309998
 31
0.0
  0
LINE
  5
20636
  8
0
 10
5216.9988411412496134
 20
-26.2094785137309998
 30
0.0
 11
5217.0027781491489804
 21
-26.2094785137309998
 31
0.0
  0
LINE
  5
20637
  8
0
 10
5194.2114395665503253
 20
-27.0047541042310009
 30
0.0
 11
5193.9319120074496823
 21
-27.0047541042310009
 31
0.0
  0
LINE
  5
20638
  8
0
 10
5217.2783687003493469
 20
4.373198651669
 30
0.0
 11
5217.2783687003493469
 21
-27.103179301131
 31
0.0
  0
ARC
  5
20639
  8
0
 10
5217.2583668982751988
 20
4.3728793404770911
 30
0.0
 40
0.0200043506730723
 50
0.9145990757489506
 51
89.9948385605545269
  0
LINE
  5
2063A
  8
0
 10
5217.337423818348725
 20
4.3928836910690023
 30
0.0
 11
5217.3374238183514535
 21
-27.103179301131
 31
0.0
  0
LINE
  5
2063B
  8
0
 10
5217.0027781491489804
 20
4.2747734547690044
 30
0.0
 11
5217.0027781491489804
 21
-27.0047541042310009
 31
0.0
  0
LINE
  5
2063C
  8
0
 10
5217.191474732549068
 20
4.2747734547690044
 30
0.0
 11
5217.191474732549068
 21
-27.0913682774309983
 31
0.0
  0
LINE
  5
2063D
  8
0
 10
5217.2015058094975757
 20
-27.0990546080660017
 30
0.0
 11
5217.191474732549068
 21
-27.0913682774309983
 31
0.0
  0
ARC
  5
2063E
  8
0
 10
5217.213670291802373
 20
-27.0831793011310111
 30
0.0
 40
0.02
 50
232.5387945944580963
 51
270.0
  0
LINE
  5
2063F
  8
0
 10
5216.9988411412496134
 20
-26.1189273326309994
 30
0.0
 11
5216.9988411412496134
 21
-27.0047541042310009
 31
0.0
  0
LINE
  5
20640
  8
0
 10
5216.9988411412496134
 20
-27.0047541042310009
 30
0.0
 11
5217.2783687003493469
 21
-27.0047541042310009
 31
0.0
  0
LINE
  5
20641
  8
0
 10
5216.0086836610489627
 20
3.1330411713690012
 30
0.0
 11
5195.2015970468501109
 21
3.1330411713690012
 31
0.0
  0
LINE
  5
20642
  8
0
 10
5195.2015970468501109
 20
-25.0953052853310012
 30
0.0
 11
5195.2015970468501109
 21
3.1330411713689941
 31
0.0
  0
LINE
  5
20643
  8
0
 10
5195.2015970468501109
 20
-25.0953052853310012
 30
0.0
 11
5216.0086836609480088
 21
-25.0953052853310012
 31
0.0
  0
LINE
  5
20644
  8
0
 10
5216.0086836609480088
 20
-25.0953052853310012
 30
0.0
 11
5216.0086836610489627
 21
3.1330411713690012
 31
0.0
  0
LINE
  5
20645
  8
0
 10
5194.2114395665503253
 20
4.2747734547690044
 30
0.0
 11
5193.9319120074496823
 21
4.2747734547690044
 31
0.0
  0
LINE
  5
20646
  8
0
 10
5194.2114395665503253
 20
4.2747734547690044
 30
0.0
 11
5194.2114395665503253
 21
4.1172931398690054
 31
0.0
  0
LINE
  5
20647
  8
0
 10
5194.2114395665503253
 20
4.1172931398690054
 30
0.0
 11
5216.9988411413496578
 21
4.1172931398690054
 31
0.0
  0
LINE
  5
20648
  8
0
 10
5194.2075025586491392
 20
4.247214399669005
 30
0.0
 11
5194.2114395665503253
 21
4.247214399669005
 31
0.0
  0
LINE
  5
20649
  8
0
 10
5216.9988411413496578
 20
4.1172931398690054
 30
0.0
 11
5216.9988411413496578
 21
4.2747734547690044
 31
0.0
  0
LINE
  5
2064A
  8
0
 10
5216.9988411413496578
 20
4.2747734547690044
 30
0.0
 11
5217.2783687003493469
 21
4.2747734547689973
 31
0.0
  0
LINE
  5
2064B
  8
0
 10
5217.1836007168485594
 20
4.3850096752690026
 30
0.0
 11
5217.1836007168485594
 21
4.2747734547690044
 31
0.0
  0
ARC
  5
2064C
  8
0
 10
5217.2210371664496051
 20
4.3328852430843829
 30
0.0
 40
0.0641751056819648
 50
110.785132562711695
 51
125.6864023548128984
  0
ENDSEC
  0
EOF
