  0
SECTION
  2
HEADER
  9
$ACADVER
  1
AC1009
  9
$INSBASE
 10
5197.0857057529174199
 20
2.1264273757769199
 30
0.0
  9
$EXTMIN
 10
5185.3084758198037889
 20
-4.016797563855639
 30
-0.0000000349181948
  9
$EXTMAX
 10
5209.0496376029277599
 20
2.1266354360014641
 30
0.0000000814935746
  9
$LIMMIN
 10
0.0
 20
0.0
  9
$LIMMAX
 10
11.6929133858000007
 20
8.2677165353999982
  9
$ORTHOMODE
 70
     0
  9
$REGENMODE
 70
     1
  9
$FILLMODE
 70
     1
  9
$QTEXTMODE
 70
     0
  9
$MIRRTEXT
 70
     0
  9
$DRAGMODE
 70
     2
  9
$LTSCALE
 40
0.6431102362
  9
$OSMODE
 70
  4095
  9
$ATTMODE
 70
     1
  9
$TEXTSIZE
 40
0.2
  9
$TRACEWID
 40
0.05
  9
$TEXTSTYLE
  7
STANDARD
  9
$CLAYER
  8
0
  9
$CELTYPE
  6
BYLAYER
  9
$CECOLOR
 62
   256
  9
$DIMSCALE
 40
1.0
  9
$DIMASZ
 40
0.1875
  9
$DIMEXO
 40
0.0625
  9
$DIMDLI
 40
0.4443307087
  9
$DIMRND
 40
0.0
  9
$DIMDLE
 40
0.0
  9
$DIMEXE
 40
0.125
  9
$DIMTP
 40
0.01
  9
$DIMTM
 40
0.01
  9
$DIMTXT
 40
2.0
  9
$DIMCEN
 40
0.1052362205
  9
$DIMTSZ
 40
0.0
  9
$DIMTOL
 70
     1
  9
$DIMLIM
 70
     0
  9
$DIMTIH
 70
     1
  9
$DIMTOH
 70
     1
  9
$DIMSE1
 70
     0
  9
$DIMSE2
 70
     0
  9
$DIMTAD
 70
     0
  9
$DIMZIN
 70
     0
  9
$DIMBLK
  1

  9
$DIMASO
 70
     1
  9
$DIMSHO
 70
     1
  9
$DIMPOST
  1
\X
  9
$DIMAPOST
  1

  9
$DIMALT
 70
     1
  9
$DIMALTD
 70
     2
  9
$DIMALTF
 40
25.3999999999999986
  9
$DIMLFAC
 40
1.0
  9
$DIMTOFL
 70
     0
  9
$DIMTVP
 40
0.0
  9
$DIMTIX
 70
     0
  9
$DIMSOXD
 70
     0
  9
$DIMSAH
 70
     0
  9
$DIMBLK1
  1

  9
$DIMBLK2
  1

  9
$DIMSTYLE
  2
STANDARD
  9
$DIMCLRD
 70
     0
  9
$DIMCLRE
 70
     0
  9
$DIMCLRT
 70
     0
  9
$DIMTFAC
 40
1.0
  9
$DIMGAP
 40
0.09
  9
$LUNITS
 70
     2
  9
$LUPREC
 70
     4
  9
$SKETCHINC
 40
0.1
  9
$FILLETRAD
 40
0.0
  9
$AUNITS
 70
     0
  9
$AUPREC
 70
     0
  9
$MENU
  1
.
  9
$ELEVATION
 40
0.0
  9
$PELEVATION
 40
0.0
  9
$THICKNESS
 40
0.0
  9
$LIMCHECK
 70
     0
  9
$BLIPMODE
 70
     0
  9
$CHAMFERA
 40
0.0
  9
$CHAMFERB
 40
0.0
  9
$SKPOLY
 70
     0
  9
$TDCREATE
 40
2458060.468368056230247
  9
$TDUPDATE
 40
2460101.694930556230247
  9
$TDINDWG
 40
0.584821875
  9
$TDUSRTIMER
 40
0.584821875
  9
$USRTIMER
 70
     1
  9
$ANGBASE
 50
0.0
  9
$ANGDIR
 70
     0
  9
$PDMODE
 70
     0
  9
$PDSIZE
 40
0.3125
  9
$PLINEWID
 40
0.0
  9
$COORDS
 70
     1
  9
$SPLFRAME
 70
     0
  9
$SPLINETYPE
 70
     6
  9
$SPLINESEGS
 70
     8
  9
$ATTDIA
 70
     1
  9
$ATTREQ
 70
     1
  9
$HANDLING
 70
     1
  9
$HANDSEED
  5
20827
  9
$SURFTAB1
 70
     6
  9
$SURFTAB2
 70
     6
  9
$SURFTYPE
 70
     6
  9
$SURFU
 70
     6
  9
$SURFV
 70
     6
  9
$UCSNAME
  2

  9
$UCSORG
 10
0.0
 20
0.0
 30
0.0
  9
$UCSXDIR
 10
1.0
 20
0.0
 30
0.0
  9
$UCSYDIR
 10
0.0
 20
1.0
 30
0.0
  9
$PUCSNAME
  2

  9
$PUCSORG
 10
0.0
 20
0.0
 30
0.0
  9
$PUCSXDIR
 10
1.0
 20
0.0
 30
0.0
  9
$PUCSYDIR
 10
0.0
 20
1.0
 30
0.0
  9
$USERI1
 70
     0
  9
$USERI2
 70
     0
  9
$USERI3
 70
     0
  9
$USERI4
 70
     0
  9
$USERI5
 70
     0
  9
$USERR1
 40
0.0
  9
$USERR2
 40
0.0
  9
$USERR3
 40
0.0
  9
$USERR4
 40
0.0
  9
$USERR5
 40
0.0
  9
$WORLDVIEW
 70
     1
  9
$SHADEDGE
 70
     3
  9
$SHADEDIF
 70
    70
  9
$TILEMODE
 70
     1
  9
$MAXACTVP
 70
    64
  9
$PLIMCHECK
 70
     0
  9
$PEXTMIN
 10
1.0000000000000000E+20
 20
1.0000000000000000E+20
 30
1.0000000000000000E+20
  9
$PEXTMAX
 10
-1.0000000000000000E+20
 20
-1.0000000000000000E+20
 30
-1.0000000000000000E+20
  9
$PLIMMIN
 10
0.0
 20
0.0
  9
$PLIMMAX
 10
12.0
 20
9.0
  9
$UNITMODE
 70
     0
  9
$VISRETAIN
 70
     1
  9
$PLINEGEN
 70
     0
  9
$PSLTSCALE
 70
     1
  0
ENDSEC
  0
SECTION
  2
TABLES
  0
TABLE
  2
VPORT
 70
     1
  0
VPORT
  2
*ACTIVE
 70
     0
 10
0.0
 20
0.0
 11
1.0
 21
1.0
 12
1404.8211465551160018
 22
-121.1257374970325031
 13
0.0
 23
0.0
 14
1.0
 24
1.0
 15
0.0
 25
0.0
 16
0.0
 26
0.0
 36
5.1040778033513332
 17
3792.35791015625
 27
120.1806564331053977
 37
0.0
 40
16.6823821006430499
 41
1.4307692307692299
 42
50.0
 43
0.0
 44
0.0
 50
0.0
 51
0.0
 71
     0
 72
   100
 73
     1
 74
     1
 75
     0
 76
     0
 77
     0
 78
     0
  0
ENDTAB
  0
TABLE
  2
LTYPE
 70
     2
  0
LTYPE
  2
CONTINUOUS
 70
     0
  3
Solid line
 72
    65
 73
     0
 40
0.0
  0
LTYPE
  2
PHANTOM2
 70
     0
  3
___ _ _ ___ _ _ ___ _ _ ___ _ _
 72
    65
 73
     6
 40
1.25
 49
0.625
 49
-0.125
 49
0.125
 49
-0.125
 49
0.125
 49
-0.125
  0
ENDTAB
  0
TABLE
  2
LAYER
 70
     2
  0
LAYER
  2
0
 70
     0
 62
   255
  6
CONTINUOUS
  0
LAYER
  2
DEFPOINTS
 70
     0
 62
     7
  6
CONTINUOUS
  0
ENDTAB
  0
TABLE
  2
STYLE
 70
     1
  0
STYLE
  2
STANDARD
 70
     0
 40
0.0
 41
0.8
 50
0.0
 71
     0
 42
0.2
  3
txt
  4

  0
ENDTAB
  0
TABLE
  2
VIEW
 70
     0
  0
ENDTAB
  0
TABLE
  2
UCS
 70
     0
  0
ENDTAB
  0
TABLE
  2
APPID
 70
     9
  0
APPID
  2
ACAD
 70
     0
  0
APPID
  2
ACAD_MLEADERVER
 70
     0
  0
APPID
  2
ACAD_EXEMPT_FROM_CAD_STANDARDS
 70
     0
  0
APPID
  2
ACAD_NAV_VCDISPLAY
 70
     0
  0
APPID
  2
ACAECLAYERSTANDARD
 70
     0
  0
APPID
  2
ACCMTRANSPARENCY
 70
     0
  0
APPID
  2
ACAD_DSTYLE_DIMJAG
 70
     0
  0
APPID
  2
ACAD_DSTYLE_DIMTALN
 70
     0
  0
APPID
  2
ACDBATTR
 70
     0
  0
ENDTAB
  0
TABLE
  2
DIMSTYLE
 70
     1
  0
DIMSTYLE
  2
STANDARD
 70
     0
  3

  4

  5

  6

  7

 40
1.0
 41
0.1875
 42
0.0625
 43
0.38
 44
0.125
 45
0.0
 46
0.0
 47
0.01
 48
0.01
140
0.15625
141
0.09
142
0.0
143
25.3999999999999986
144
1.0
145
0.0
146
1.0
147
0.09
 71
     1
 72
     0
 73
     1
 74
     1
 75
     0
 76
     0
 77
     0
 78
     4
170
     0
171
     2
172
     0
173
     0
174
     0
175
     0
176
     0
177
     0
178
     0
  0
ENDTAB
  0
ENDSEC
  0
SECTION
  2
BLOCKS
  0
BLOCK
  8
0
  2
$MODEL_SPACE
 70
     0
 10
0.0
 20
0.0
 30
0.0
  3
$MODEL_SPACE
  1

  0
ENDBLK
  5
21
  8
0
  0
BLOCK
 67
     1
  8
0
  2
$PAPER_SPACE
 70
     0
 10
0.0
 20
0.0
 30
0.0
  3
$PAPER_SPACE
  1

  0
ENDBLK
  5
1D
 67
     1
  8
0
  0
ENDSEC
  0
SECTION
  2
ENTITIES
  0
ATTDEF
  5
3930
  8
DEFPOINTS
 10
5197.0792468049303352
 20
2.1244637575350249
 30
0.0
 40
0.001
  1
K-33690K-L
  3

  2
MODELNUMBER
 70
     0
1001
ACDBATTR
1070
     0
1070
     1
  0
ATTDEF
  5
3931
  8
DEFPOINTS
 10
5197.0792468049303352
 20
2.1227970908683602
 30
0.0
 40
0.001
  1

  3

  2
TRADENAME
 70
     0
1001
ACDBATTR
1070
     0
1070
     1
  0
ATTDEF
  5
3932
  8
DEFPOINTS
 10
5197.0792468049303352
 20
2.1211304242016951
 30
0.0
 40
0.001
  1
MEDICINE CABINET
  3

  2
PRODUCT
 70
     0
1001
ACDBATTR
1070
     0
1070
     1
  0
LINE
  5
206F9
  8
0
 10
5188.1683829183157286
 20
-3.0310529391230778
 30
0.0
 11
5208.7589340993181395
 21
-3.0310529391230778
 31
0.0
  0
LINE
  5
206FA
  8
0
 10
5185.4995018351637555
 20
-4.015304907723098
 30
0.0
 11
5185.503211475952412
 21
-4.0153049076230749
 31
0.0
  0
LINE
  5
206FB
  8
0
 10
5185.503211475952412
 20
-4.0153049076230749
 30
0.0
 11
5208.6719096705692209
 21
-4.0153049077230811
 31
0.0
  0
LINE
  5
206FC
  8
0
 10
5208.1290278001170009
 20
-2.9916828604230612
 30
0.0
 11
5208.7983041781171778
 21
-2.9916828604230612
 31
0.0
  0
ARC
  5
206FD
  8
0
 10
5208.1290278001170009
 20
-2.9719828604230609
 30
0.0
 40
0.0197
 50
180.0
 51
270.0
  0
LINE
  5
206FE
  8
0
 10
5208.7589340993181395
 20
-3.9282804788756129
 30
0.0
 11
5208.7589340993181395
 21
-3.0310529391230778
 31
0.0
  0
LINE
  5
206FF
  8
0
 10
5208.8179892173166081
 20
-2.9719828604230609
 30
0.0
 11
5208.8179892173166081
 21
-2.6770371911230799
 31
0.0
  0
ARC
  5
20700
  8
0
 10
5208.7984135599463116
 20
-2.972107114304289
 30
0.0
 40
0.0195760517084362
 50
269.6798562894790052
 51
0.3636724550979772
  0
LINE
  5
20701
  8
0
 10
5208.8179892173166081
 20
-2.628890098439804
 30
0.0
 11
5208.8179892173166081
 21
2.0949313127775251
 31
0.0
  0
LINE
  5
20702
  8
0
 10
5208.6860518061930634
 20
-4.0094470432468077
 30
0.0
 11
5208.7530762349406359
 21
-3.9424226144993422
 31
0.0
  0
ARC
  5
20703
  8
0
 10
5208.6719096701972376
 20
-3.995304907066195
 30
0.0
 40
0.0200000006568679
 50
270.0000010659663872
 51
314.9999996256495933
  0
ARC
  5
20704
  8
0
 10
5208.7389340993167934
 20
-3.9282804788756058
 30
0.0
 40
0.02
 50
315.000000000010516
 51
359.9999999999797069
  0
LINE
  5
20705
  8
0
 10
5208.7274230758166595
 20
-2.920816718723084
 30
0.0
 11
5208.199893941917253
 21
-2.9208167187230809
 31
0.0
  0
ARC
  5
20706
  8
0
 10
5208.199893941917253
 20
-2.9011167187230811
 30
0.0
 40
0.0197
 50
180.0
 51
270.0
  0
ARC
  5
20707
  8
0
 10
5208.7274230758166595
 20
-2.9011167187230842
 30
0.0
 40
0.0197
 50
270.0
 51
0.0
  0
LINE
  5
20708
  8
0
 10
5208.7471230758173988
 20
-2.7479033329230762
 30
0.0
 11
5208.7471230758173988
 21
-2.9011167187230842
 31
0.0
  0
LINE
  5
20709
  8
0
 10
5208.6211388238170912
 20
-2.7079033329230771
 30
0.0
 11
5208.6211388238170912
 21
-2.6770371911230799
 31
0.0
  0
LINE
  5
2070A
  8
0
 10
5208.6411388238166182
 20
-2.6570371911230768
 30
0.0
 11
5208.7979892175162604
 21
-2.6570371911230768
 31
0.0
  0
LINE
  5
2070B
  8
0
 10
5208.6411388238166182
 20
-2.7279033329230802
 30
0.0
 11
5208.7271230758169622
 21
-2.7279033329230802
 31
0.0
  0
ARC
  5
2070C
  8
0
 10
5208.6411388238166182
 20
-2.7079033329230771
 30
0.0
 40
0.02
 50
180.0
 51
270.0
  0
ARC
  5
2070D
  8
0
 10
5208.6411388238184372
 20
-2.6770371911230799
 30
0.0
 40
0.02
 50
90.0
 51
179.9999999999897966
  0
ARC
  5
2070E
  8
0
 10
5208.797989751697969
 20
-2.6770366567423061
 30
0.0
 40
0.019999465626361
 50
359.9984690709442816
 51
90.0015303572132979
  0
ARC
  5
2070F
  8
0
 10
5208.7271230758169622
 20
-2.7479033329230762
 30
0.0
 40
0.02
 50
0.0
 51
90.0
  0
LINE
  5
20710
  8
0
 10
5208.7983041778170445
 20
2.114616352176923
 30
0.0
 11
5208.7195640205172822
 21
2.114616352176923
 31
0.0
  0
LINE
  5
20711
  8
0
 10
5208.7983041781171778
 20
-2.6491631754230731
 30
0.0
 11
5208.7195640207182805
 21
-2.6491631754230802
 31
0.0
  0
LINE
  5
20712
  8
0
 10
5208.7983041781171778
 20
-2.6491631754230731
 30
0.0
 11
5208.8179892175176064
 21
-2.6288900982395371
 31
0.0
  0
LINE
  5
20713
  8
0
 10
5208.6998789811168535
 20
-2.6294781359230721
 30
0.0
 11
5208.6998789811168535
 21
2.0949313127769278
 31
0.0
  0
LINE
  5
20714
  8
0
 10
5208.8179892173166081
 20
2.0949313128769229
 30
0.0
 11
5208.7983041778170445
 21
2.114616352176923
 31
0.0
  0
LINE
  5
20715
  8
0
 10
5208.7195640205172822
 20
2.114616352176923
 30
0.0
 11
5208.6998789811168535
 21
2.0949313127769278
 31
0.0
  0
LINE
  5
20716
  8
0
 10
5208.601453784415753
 20
2.10672737577692
 30
0.0
 11
5208.601453784415753
 21
-2.6964072699230779
 31
0.0
  0
LINE
  5
20717
  8
0
 10
5208.6998789811168535
 20
-1.743651364423076
 30
0.0
 11
5208.601453784415753
 21
-1.743651364423076
 31
0.0
  0
CIRCLE
  5
20718
  8
0
 10
5208.1683829182165937
 20
-3.3361710494230792
 30
0.0
 40
0.086614173200001
  0
CIRCLE
  5
20719
  8
0
 10
5208.1683829182165937
 20
-3.3361710494230792
 30
0.0
 40
0.1574803150000008
  0
CIRCLE
  5
2071A
  8
0
 10
5206.9085403985181983
 20
-3.3361710494230792
 30
0.0
 40
0.086614173200001
  0
CIRCLE
  5
2071B
  8
0
 10
5206.9085403985181983
 20
-3.3361710494230792
 30
0.0
 40
0.1574803150000008
  0
LINE
  5
2071C
  8
0
 10
5186.0620837056167147
 20
-2.901131679323075
 30
0.0
 11
5208.1093278001171711
 21
-2.901131679323079
 31
0.0
  0
LINE
  5
2071D
  8
0
 10
5186.0620837056167147
 20
-2.9405017580230739
 30
0.0
 11
5208.1093278001171711
 21
-2.9405017580230739
 31
0.0
  0
LINE
  5
2071E
  8
0
 10
5186.0620836999360108
 20
-2.9719978210230691
 30
0.0
 11
5208.1093278001171711
 21
-2.9719978210230731
 31
0.0
  0
LINE
  5
2071F
  8
0
 10
5208.7983041778170445
 20
2.0949313127769251
 30
0.0
 11
5208.7983041778170445
 21
-2.6294781360230739
 31
0.0
  0
LINE
  5
20720
  8
0
 10
5208.7195640205172822
 20
2.0949313128769158
 30
0.0
 11
5208.7195640205172822
 21
-2.6294781361230721
 31
0.0
  0
LINE
  5
20721
  8
0
 10
5208.6998789811168535
 20
-2.6294781359230792
 30
0.0
 11
5208.7195640207182805
 21
-2.6491631754230802
 31
0.0
  0
LINE
  5
20722
  8
0
 10
5208.7195640205172822
 20
-2.629478136023077
 30
0.0
 11
5208.7097215009671345
 21
-2.639320655773072
 31
0.0
  0
LINE
  5
20723
  8
0
 10
5208.7195640206182361
 20
-2.629478136023077
 30
0.0
 11
5208.7983041781171778
 21
-2.629478136023077
 31
0.0
  0
LINE
  5
20724
  8
0
 10
5208.7983041781171778
 20
-2.629478136023077
 30
0.0
 11
5208.8081466978173921
 21
-2.6393206557230751
 31
0.0
  0
LINE
  5
20725
  8
0
 10
5208.1801939419174232
 20
-2.6964072699230739
 30
0.0
 11
5208.1801939419174232
 21
-2.9011167187230811
 31
0.0
  0
LINE
  5
20726
  8
0
 10
5208.601453784415753
 20
-2.6964072699230739
 30
0.0
 11
5186.0620837056167147
 21
-2.6964072699230779
 31
0.0
  0
LINE
  5
20727
  8
0
 10
5208.1093278001171711
 20
-2.6964072699230739
 30
0.0
 11
5208.1093278001171711
 21
-2.9916828604230719
 31
0.0
  0
LINE
  5
20728
  8
0
 10
5208.1093278001171711
 20
-2.991682860423075
 30
0.0
 11
5187.0607137245169724
 21
-2.991682860423079
 31
0.0
  0
LINE
  5
20729
  8
0
 10
5208.5305876426173199
 20
2.10672737577692
 30
0.0
 11
5208.5305876426173199
 21
1.8705218639769181
 31
0.0
  0
ARC
  5
2072A
  8
0
 10
5208.5502876426171497
 20
2.10672737577692
 30
0.0
 40
0.0197
 50
90.0
 51
180.0
  0
LINE
  5
2072B
  8
0
 10
5208.5502876426171497
 20
2.1264273757769199
 30
0.0
 11
5208.5817537844168328
 21
2.1264273757769199
 31
0.0
  0
ARC
  5
2072C
  8
0
 10
5208.5817537844168328
 20
2.10672737577692
 30
0.0
 40
0.0197
 50
0.0
 51
90.0
  0
LINE
  5
2072D
  8
0
 10
5208.601453784415753
 20
1.8705218639769221
 30
0.0
 11
5185.5699577214172677
 21
1.8705218639769181
 31
0.0
  0
LINE
  5
2072E
  8
0
 10
5208.699878981216898
 20
1.2091045410769281
 30
0.0
 11
5208.601453784415753
 21
1.2091045410769321
 31
0.0
  0
CIRCLE
  5
2072F
  8
0
 10
5207.7825561466170257
 20
0.7563486355769236
 30
0.0
 40
0.062992126000001
  0
CIRCLE
  5
20730
  8
0
 10
5207.7825561466170257
 20
0.7563486355769236
 30
0.0
 40
0.1181102361999997
  0
LINE
  5
20731
  8
0
 10
5208.4715325245169879
 20
1.9295769820769231
 30
0.0
 11
5208.4912175639174166
 21
1.909891942676921
 31
0.0
  0
LINE
  5
20732
  8
0
 10
5208.4912175639174166
 20
1.909891942676921
 30
0.0
 11
5208.4912175639174166
 21
1.8705218639769181
 31
0.0
  0
LINE
  5
20733
  8
0
 10
5185.699878981216898
 20
1.909891942676921
 30
0.0
 11
5208.4715325245169879
 21
1.909891942676921
 31
0.0
  0
LINE
  5
20734
  8
0
 10
5208.4715325245169879
 20
1.909891942676921
 30
0.0
 11
5208.4715325245169879
 21
1.8705218639769181
 31
0.0
  0
LINE
  5
20735
  8
0
 10
5208.4715325245169879
 20
1.909891942676921
 30
0.0
 11
5208.4813750442172022
 21
1.9197344623769219
 31
0.0
  0
LINE
  5
20736
  8
0
 10
5208.4715325245169879
 20
1.9295769820769231
 30
0.0
 11
5185.699878981216898
 21
1.9295769820769231
 31
0.0
  0
LINE
  5
20737
  8
0
 10
5208.7195640206182361
 20
2.0949313127769251
 30
0.0
 11
5208.7983041778170445
 21
2.0949313124769189
 31
0.0
  0
LINE
  5
20738
  8
0
 10
5208.7983041778170445
 20
2.0949313124769189
 30
0.0
 11
5208.8081466978173921
 21
2.1047738324769258
 31
0.0
  0
LINE
  5
20739
  8
0
 10
5208.7195640206182361
 20
2.0949313127769251
 30
0.0
 11
5208.7097215009171123
 21
2.1047738324769258
 31
0.0
  0
LINE
  5
2073A
  8
0
 10
5208.6683829182184127
 20
1.2091045410769281
 30
0.0
 11
5208.6683829182184127
 21
-1.743651364423076
 31
0.0
  0
LINE
  5
2073B
  8
0
 10
5208.601453784415753
 20
0.3508368245769233
 30
0.0
 11
5208.6683829182184127
 21
0.3508368245769162
 31
0.0
  0
LINE
  5
2073C
  8
0
 10
5208.6683829182184127
 20
-1.4208167187230769
 30
0.0
 11
5208.601453784415753
 21
-1.4208167187230769
 31
0.0
  0
LINE
  5
2073D
  8
0
 10
5208.6290128395166903
 20
-1.4208167187230769
 30
0.0
 11
5208.6290128395166903
 21
-1.743651364423076
 31
0.0
  0
LINE
  5
2073E
  8
0
 10
5208.6683829182184127
 20
-1.322391521923076
 30
0.0
 11
5208.699878981216898
 21
-1.3223915219230731
 31
0.0
  0
LINE
  5
2073F
  8
0
 10
5208.6683829182184127
 20
0.2524116277769259
 30
0.0
 11
5208.699878981216898
 21
0.2524116277769295
 31
0.0
  0
LINE
  5
20740
  8
0
 10
5208.6290128395166903
 20
0.3508368245769198
 30
0.0
 11
5208.6290128395166903
 21
1.2091045410769361
 31
0.0
  0
LINE
  5
20741
  8
0
 10
5208.6780899226278052
 20
-4.0095349112124508
 30
0.0
 11
5208.7531641029072489
 21
-3.9344607309337039
 31
0.0
  0
ARC
  5
20742
  8
0
 10
5208.6641600055263552
 20
-3.9956051167647599
 30
0.0
 40
0.0196997909584782
 50
269.9997484544381905
 51
315.0002522474445072
  0
ARC
  5
20743
  8
0
 10
5208.7392340993183097
 20
-3.9205307273443282
 30
0.0
 40
0.0197
 50
315.0000000000047748
 51
0.0
  0
LINE
  5
20744
  8
0
 10
5208.7392490600159363
 20
-3.0389269549230731
 30
0.0
 11
5185.4321624457170401
 21
-3.0389269549230731
 31
0.0
  0
ARC
  5
20745
  8
0
 10
5208.7822813757502445
 20
-3.1002958040054369
 30
0.0
 40
0.0749527573538615
 50
112.9913749260654043
 51
125.0384380884871973
  0
ARC
  5
20746
  8
0
 10
5208.7510600836167214
 20
-3.0389269549230811
 30
0.0
 40
0.0078740157000077
 50
0.0000000001551093
 51
90.0
  0
LINE
  5
20747
  8
0
 10
5208.7392490600159363
 20
-3.0389269549230731
 30
0.0
 11
5208.7392490600159363
 21
-3.9483757738230771
 31
0.0
  0
LINE
  5
20748
  8
0
 10
5188.1683829183157286
 20
-3.0310529391230778
 30
0.0
 11
5185.4124774064157464
 21
-3.0310529391230778
 31
0.0
  0
LINE
  5
20749
  8
0
 10
5186.042383705616885
 20
-2.9916828604230612
 30
0.0
 11
5185.3731073276167081
 21
-2.9916828604230612
 31
0.0
  0
ARC
  5
2074A
  8
0
 10
5186.042383705616885
 20
-2.9719828604230609
 30
0.0
 40
0.0197
 50
270.0
 51
0.0
  0
LINE
  5
2074B
  8
0
 10
5185.4124774064157464
 20
-3.9282804788756058
 30
0.0
 11
5185.4124774064157464
 21
-3.0310529391230778
 31
0.0
  0
ARC
  5
2074C
  8
0
 10
5185.4321774064183046
 20
-3.9244677408650932
 30
0.0
 40
0.0197
 50
180.0000000000005969
 51
224.9625630281923918
  0
LINE
  5
2074D
  8
0
 10
5185.3534222884172777
 20
-2.9719828604230609
 30
0.0
 11
5185.3534222884172777
 21
-2.6767222305230791
 31
0.0
  0
ARC
  5
2074E
  8
0
 10
5185.3731222977858124
 20
-2.9719828567418989
 30
0.0
 40
0.0197000093691328
 50
180.0000107063424082
 51
269.9564605490588747
  0
LINE
  5
2074F
  8
0
 10
5185.3534222884172777
 20
-2.6294781362233581
 30
0.0
 11
5185.3534222884172777
 21
2.0949313128764748
 31
0.0
  0
LINE
  5
20750
  8
0
 10
5185.4853596995408225
 20
-4.0094470432468077
 30
0.0
 11
5185.4183352707932499
 21
-3.9424226144993422
 31
0.0
  0
ARC
  5
20751
  8
0
 10
5185.4995018355357388
 20
-3.995304907066092
 30
0.0
 40
0.0200000006569871
 50
225.0000003744223989
 51
269.9999989338252249
  0
ARC
  5
20752
  8
0
 10
5185.4324774064170924
 20
-3.9282804788756058
 30
0.0
 40
0.02
 50
180.0000000000202931
 51
224.9999999999893987
  0
LINE
  5
20753
  8
0
 10
5185.4439884299172263
 20
-2.920816718723084
 30
0.0
 11
5185.9715175638166329
 21
-2.9208167187230809
 31
0.0
  0
ARC
  5
20754
  8
0
 10
5185.9715175638166329
 20
-2.9011167187230811
 30
0.0
 40
0.0197
 50
270.0
 51
0.0
  0
ARC
  5
20755
  8
0
 10
5185.4439884299172263
 20
-2.9011167187230842
 30
0.0
 40
0.0197
 50
180.0
 51
270.0
  0
LINE
  5
20756
  8
0
 10
5185.4242884299173966
 20
-2.7479033329230762
 30
0.0
 11
5185.4242884299173966
 21
-2.9011167187230842
 31
0.0
  0
LINE
  5
20757
  8
0
 10
5185.5502726819167947
 20
-2.7079033329230771
 30
0.0
 11
5185.5502726819167947
 21
-2.6770371911230799
 31
0.0
  0
LINE
  5
20758
  8
0
 10
5185.5302726819172676
 20
-2.6570371911230768
 30
0.0
 11
5185.373422288216716
 21
-2.6570371911230768
 31
0.0
  0
LINE
  5
20759
  8
0
 10
5185.5302726819172676
 20
-2.7279033329230802
 30
0.0
 11
5185.4442884299160141
 21
-2.7279033329230802
 31
0.0
  0
ARC
  5
2075A
  8
0
 10
5185.5302726819172676
 20
-2.7079033329230771
 30
0.0
 40
0.02
 50
270.0
 51
0.0
  0
ARC
  5
2075B
  8
0
 10
5185.5302726819172676
 20
-2.6770371911230799
 30
0.0
 40
0.02
 50
0.0000000000101778
 51
90.0
  0
ARC
  5
2075C
  8
0
 10
5185.3727037345606732
 20
-2.676309660098628
 30
0.0
 40
0.0192858595807941
 50
87.8647763786945148
 51
181.2257865568224133
  0
ARC
  5
2075D
  8
0
 10
5185.4442884299160141
 20
-2.7479033329230762
 30
0.0
 40
0.02
 50
90.0
 51
180.0
  0
LINE
  5
2075E
  8
0
 10
5185.3731073279168413
 20
2.114616352176923
 30
0.0
 11
5185.4518474852184227
 21
2.114616352176923
 31
0.0
  0
LINE
  5
2075F
  8
0
 10
5185.3731073276167081
 20
-2.6491631754230731
 30
0.0
 11
5185.4518474850174243
 21
-2.6491631754230802
 31
0.0
  0
LINE
  5
20760
  8
0
 10
5185.3731073276167081
 20
-2.6491631754230731
 30
0.0
 11
5185.3534222884172777
 21
-2.6294781360199688
 31
0.0
  0
LINE
  5
20761
  8
0
 10
5185.4715325246170323
 20
-2.6294781359230721
 30
0.0
 11
5185.4715325246170323
 21
2.0949313127769278
 31
0.0
  0
LINE
  5
20762
  8
0
 10
5185.3534222884172777
 20
2.0949313128758611
 30
0.0
 11
5185.3731073279168413
 21
2.114616352176923
 31
0.0
  0
LINE
  5
20763
  8
0
 10
5185.4518474852184227
 20
2.114616352176923
 30
0.0
 11
5185.4715325246170323
 21
2.0949313127769278
 31
0.0
  0
LINE
  5
20764
  8
0
 10
5185.5699577213172233
 20
2.10672737577692
 30
0.0
 11
5185.5699577213172233
 21
-2.6964072699230779
 31
0.0
  0
LINE
  5
20765
  8
0
 10
5185.4715325246170323
 20
-1.743651364423076
 30
0.0
 11
5185.5699577213172233
 21
-1.743651364423076
 31
0.0
  0
CIRCLE
  5
20766
  8
0
 10
5186.0030285875172922
 20
-3.3361710494230792
 30
0.0
 40
0.086614173200001
  0
CIRCLE
  5
20767
  8
0
 10
5186.0030285875172922
 20
-3.3361710494230792
 30
0.0
 40
0.1574803150000008
  0
CIRCLE
  5
20768
  8
0
 10
5187.262871107216597
 20
-3.3361710494230792
 30
0.0
 40
0.086614173200001
  0
CIRCLE
  5
20769
  8
0
 10
5187.262871107216597
 20
-3.3361710494230792
 30
0.0
 40
0.1574803150000008
  0
LINE
  5
2076A
  8
0
 10
5185.3731073279168413
 20
2.0949313127769251
 30
0.0
 11
5185.3731073279168413
 21
-2.6294781360230739
 31
0.0
  0
LINE
  5
2076B
  8
0
 10
5185.4518474852184227
 20
2.0949313128769158
 30
0.0
 11
5185.4518474852184227
 21
-2.6294781361230721
 31
0.0
  0
LINE
  5
2076C
  8
0
 10
5185.4715325246170323
 20
-2.6294781359230792
 30
0.0
 11
5185.4518474850174243
 21
-2.6491631754230802
 31
0.0
  0
LINE
  5
2076D
  8
0
 10
5185.4518474852184227
 20
-2.629478136023077
 30
0.0
 11
5185.4616900047667514
 21
-2.639320655773072
 31
0.0
  0
LINE
  5
2076E
  8
0
 10
5185.4518474851183782
 20
-2.629478136023077
 30
0.0
 11
5185.3731073276167081
 21
-2.629478136023077
 31
0.0
  0
LINE
  5
2076F
  8
0
 10
5185.3731073276167081
 20
-2.629478136023077
 30
0.0
 11
5185.3632648079183127
 21
-2.6393206557230751
 31
0.0
  0
LINE
  5
20770
  8
0
 10
5185.9912175638173721
 20
-2.6964072699230739
 30
0.0
 11
5185.9912175638173721
 21
-2.9011167187230811
 31
0.0
  0
LINE
  5
20771
  8
0
 10
5185.5699577213172233
 20
-2.6964072699230739
 30
0.0
 11
5186.0620837056167147
 21
-2.6964072699230779
 31
0.0
  0
LINE
  5
20772
  8
0
 10
5186.0620837056167147
 20
-2.6964072699230739
 30
0.0
 11
5186.0620837056167147
 21
-2.9916828604230719
 31
0.0
  0
LINE
  5
20773
  8
0
 10
5186.0620837056167147
 20
-2.991682860423075
 30
0.0
 11
5187.0607137245169724
 21
-2.991682860423079
 31
0.0
  0
LINE
  5
20774
  8
0
 10
5185.6408238631165659
 20
2.10672737577692
 30
0.0
 11
5185.6408238631165659
 21
1.8705218639769181
 31
0.0
  0
ARC
  5
20775
  8
0
 10
5185.6211238631167362
 20
2.10672737577692
 30
0.0
 40
0.0197
 50
0.0
 51
90.0
  0
LINE
  5
20776
  8
0
 10
5185.6211238631167362
 20
2.1264273757769199
 30
0.0
 11
5185.5896577213170531
 21
2.1264273757769199
 31
0.0
  0
ARC
  5
20777
  8
0
 10
5185.5896577213170531
 20
2.10672737577692
 30
0.0
 40
0.0197
 50
90.0
 51
180.0
  0
LINE
  5
20778
  8
0
 10
5185.4715325245169879
 20
1.2091045410769281
 30
0.0
 11
5185.5699577213172233
 21
1.2091045410769321
 31
0.0
  0
CIRCLE
  5
20779
  8
0
 10
5186.3888553591159507
 20
0.7563486355769236
 30
0.0
 40
0.062992126000001
  0
CIRCLE
  5
2077A
  8
0
 10
5186.3888553591159507
 20
0.7563486355769236
 30
0.0
 40
0.1181102361999997
  0
LINE
  5
2077B
  8
0
 10
5185.699878981216898
 20
1.9295769820769231
 30
0.0
 11
5185.6801939418173788
 21
1.909891942676921
 31
0.0
  0
LINE
  5
2077C
  8
0
 10
5185.6801939418173788
 20
1.909891942676921
 30
0.0
 11
5185.6801939418173788
 21
1.8705218639769181
 31
0.0
  0
LINE
  5
2077D
  8
0
 10
5185.699878981216898
 20
1.909891942676921
 30
0.0
 11
5185.699878981216898
 21
1.8705218639769181
 31
0.0
  0
LINE
  5
2077E
  8
0
 10
5185.699878981216898
 20
1.909891942676921
 30
0.0
 11
5185.6900364615166836
 21
1.9197344623769219
 31
0.0
  0
LINE
  5
2077F
  8
0
 10
5185.4518474851183782
 20
2.0949313127769251
 30
0.0
 11
5185.3731073279168413
 21
2.0949313124769189
 31
0.0
  0
LINE
  5
20780
  8
0
 10
5185.3731073279168413
 20
2.0949313124769189
 30
0.0
 11
5185.3632648079183127
 21
2.1047738324769258
 31
0.0
  0
LINE
  5
20781
  8
0
 10
5185.4518474851183782
 20
2.0949313127769251
 30
0.0
 11
5185.4616900048167736
 21
2.1047738324769258
 31
0.0
  0
LINE
  5
20782
  8
0
 10
5185.5030285875172922
 20
1.2091045410769281
 30
0.0
 11
5185.5030285875172922
 21
-1.743651364423076
 31
0.0
  0
LINE
  5
20783
  8
0
 10
5185.5699577213172233
 20
0.3508368245769233
 30
0.0
 11
5185.5030285875172922
 21
0.3508368245769162
 31
0.0
  0
LINE
  5
20784
  8
0
 10
5185.5030285875172922
 20
-1.4208167187230769
 30
0.0
 11
5185.5699577213172233
 21
-1.4208167187230769
 31
0.0
  0
LINE
  5
20785
  8
0
 10
5185.5423986662181051
 20
-1.4208167187230769
 30
0.0
 11
5185.5423986662181051
 21
-1.743651364423076
 31
0.0
  0
LINE
  5
20786
  8
0
 10
5185.5030285875172922
 20
-1.322391521923076
 30
0.0
 11
5185.4715325245169879
 21
-1.3223915219230731
 31
0.0
  0
LINE
  5
20787
  8
0
 10
5185.5030285875172922
 20
0.2524116277769259
 30
0.0
 11
5185.4715325245169879
 21
0.2524116277769295
 31
0.0
  0
LINE
  5
20788
  8
0
 10
5185.5423986662181051
 20
0.3508368245769198
 30
0.0
 11
5185.5423986662181051
 21
1.2091045410769361
 31
0.0
  0
LINE
  5
20789
  8
0
 10
5185.4889007653528097
 20
-4.0091435029021261
 30
0.0
 11
5185.4182383039587876
 21
-3.9383886396392169
 31
0.0
  0
ARC
  5
2078A
  8
0
 10
5185.5032088895432025
 20
-3.9956109148564058
 30
0.0
 40
0.0196939929179735
 50
223.4043705653980965
 51
270.0071023047855761
  0
ARC
  5
2078B
  8
0
 10
5185.4203514221171645
 20
-3.0389269549230811
 30
0.0
 40
0.0078740157000077
 50
90.0
 51
179.9999999998449027
  0
LINE
  5
2078C
  8
0
 10
5185.4321624457170401
 20
-3.0310529392230761
 30
0.0
 11
5185.4321624457170401
 21
-3.9523127816230779
 31
0.0
  0
LINE
  5
2078D
  8
0
 10
5187.1382961585168232
 20
-3.003197852423074
 30
0.0
 11
5187.2063755035169379
 21
-3.0310529392230761
 31
0.0
  0
LINE
  5
2078E
  8
0
 10
5187.3573802407991025
 20
-3.0310529392230761
 30
0.0
 11
5187.4038896185993508
 21
-2.9916828605230661
 31
0.0
  0
LINE
  5
2078F
  8
0
 10
5187.4792510793977272
 20
-3.0310529392230761
 30
0.0
 11
5187.525760457198885
 21
-2.9916828605230661
 31
0.0
  0
LINE
  5
20790
  8
0
 10
5188.1683829183157286
 20
-2.9916828605230661
 30
0.0
 11
5188.1683829183157286
 21
-3.0310529392230761
 31
0.0
  0
LINE
  5
20791
  8
0
 10
5187.1382961585168232
 20
-3.003197852423074
 30
0.0
 11
5187.0607137245169724
 21
-2.9916828604230719
 31
0.0
  0
LINE
  5
20792
  8
0
 10
5186.1605089025169946
 20
-3.0192419156230761
 30
0.0
 11
5186.1605089025169946
 21
-3.0113678998232021
 31
0.0
  0
LINE
  5
20793
  8
0
 10
5186.1132648080174476
 20
-3.0192419156230761
 30
0.0
 11
5186.1132648080174476
 21
-3.0113678998230782
 31
0.0
  0
ARC
  5
20794
  8
0
 10
5186.2445917373406701
 20
-3.0123360086629951
 30
0.0
 40
0.131330497601423
 50
170.9520571145338863
 51
179.5776376849302949
  0
ARC
  5
20795
  8
0
 10
5186.2313750442181117
 20
-3.0113678998230711
 30
0.0
 40
0.0708661416999705
 50
163.8723797540318969
 51
180.0000000001062119
  0
LINE
  5
20796
  8
0
 10
5186.1138568430023952
 20
-2.9995568762230742
 30
0.0
 11
5185.6127272677167639
 21
-2.9995568762230742
 31
0.0
  0
LINE
  5
20797
  8
0
 10
5185.6127272677167639
 20
-2.9995568762230742
 30
0.0
 11
5185.6127272677167639
 21
-3.031052939223073
 31
0.0
  0
LINE
  5
20798
  8
0
 10
5185.6269767386183958
 20
-2.9995568762230742
 30
0.0
 11
5185.6269767386183958
 21
-3.0192419156230761
 31
0.0
  0
LINE
  5
20799
  8
0
 10
5185.6269767386183958
 20
-3.0192419156230761
 30
0.0
 11
5186.9794065403157219
 21
-3.0192419156230761
 31
0.0
  0
LINE
  5
2079A
  8
0
 10
5186.9794065403157219
 20
-3.0192419156230761
 30
0.0
 11
5186.9794065403157219
 21
-3.0113678998230671
 31
0.0
  0
ARC
  5
2079B
  8
0
 10
5186.8612963041168769
 20
-3.0113678998230879
 30
0.0
 40
0.1181102361999624
 50
0.0000000000050889
 51
9.5940682432609972
  0
LINE
  5
2079C
  8
0
 10
5186.8612963041168769
 20
-3.0192419156230761
 30
0.0
 11
5186.8612963041168769
 21
-3.0310529392230761
 31
0.0
  0
LINE
  5
2079D
  8
0
 10
5185.6398522785166278
 20
-3.0192419156230761
 30
0.0
 11
5185.6398522785166278
 21
-3.0310529391230778
 31
0.0
  0
LINE
  5
2079E
  8
0
 10
5186.8030047418169488
 20
-3.0192419156230761
 30
0.0
 11
5186.8030047418169488
 21
-3.031052939223073
 31
0.0
  0
LINE
  5
2079F
  8
0
 10
5186.5203166290348236
 20
-3.019241915623073
 30
0.0
 11
5186.5003946084498239
 21
-3.031052939223073
 31
0.0
  0
LINE
  5
207A0
  8
0
 10
5186.6294799448169215
 20
-3.0192419156230761
 30
0.0
 11
5186.609542479157426
 21
-3.0310529392230761
 31
0.0
  0
ARC
  5
207A1
  8
0
 10
5186.6711754197758637
 20
-3.998576163091577
 30
0.0
 40
0.9828903510969679
 50
94.8753222323480117
 51
99.9473418869092711
  0
ARC
  5
207A2
  8
0
 10
5186.4366995776153999
 20
-1.8589663320963681
 30
0.0
 40
1.1758942460009341
 50
274.6120991309982173
 51
279.348830748074306
  0
LINE
  5
207A3
  8
0
 10
5187.4990915797170601
 20
-3.0142579510676981
 30
0.0
 11
5187.4990915797170601
 21
-3.031052939223073
 31
0.0
  0
ENDSEC
  0
EOF
