  0
SECTION
  2
HEADER
  9
$ACADVER
  1
AC1009
  9
$INSBASE
 10
5165.5240617394665605
 20
-11.1293442229478199
 30
0.0
  9
$EXTMIN
 10
5159.3823294559661008
 20
-26.8773757189978291
 30
0.0
  9
$EXTMAX
 10
5165.5366969584047183
 20
4.6186872732021733
 30
0.0
  9
$LIMMIN
 10
0.0
 20
0.0
  9
$LIMMAX
 10
11.6929133858000007
 20
8.2677165353999982
  9
$ORTHOMODE
 70
     0
  9
$REGENMODE
 70
     1
  9
$FILLMODE
 70
     1
  9
$QTEXTMODE
 70
     0
  9
$MIRRTEXT
 70
     0
  9
$DRAGMODE
 70
     2
  9
$LTSCALE
 40
0.6431102362
  9
$OSMODE
 70
  4095
  9
$ATTMODE
 70
     1
  9
$TEXTSIZE
 40
0.2
  9
$TRACEWID
 40
0.05
  9
$TEXTSTYLE
  7
STANDARD
  9
$CLAYER
  8
0
  9
$CELTYPE
  6
BYLAYER
  9
$CECOLOR
 62
   256
  9
$DIMSCALE
 40
1.0
  9
$DIMASZ
 40
0.1875
  9
$DIMEXO
 40
0.0625
  9
$DIMDLI
 40
0.4443307087
  9
$DIMRND
 40
0.0
  9
$DIMDLE
 40
0.0
  9
$DIMEXE
 40
0.125
  9
$DIMTP
 40
0.01
  9
$DIMTM
 40
0.01
  9
$DIMTXT
 40
2.0
  9
$DIMCEN
 40
0.1052362205
  9
$DIMTSZ
 40
0.0
  9
$DIMTOL
 70
     1
  9
$DIMLIM
 70
     0
  9
$DIMTIH
 70
     1
  9
$DIMTOH
 70
     1
  9
$DIMSE1
 70
     0
  9
$DIMSE2
 70
     0
  9
$DIMTAD
 70
     0
  9
$DIMZIN
 70
     0
  9
$DIMBLK
  1

  9
$DIMASO
 70
     1
  9
$DIMSHO
 70
     1
  9
$DIMPOST
  1
\X
  9
$DIMAPOST
  1

  9
$DIMALT
 70
     1
  9
$DIMALTD
 70
     2
  9
$DIMALTF
 40
25.3999999999999986
  9
$DIMLFAC
 40
1.0
  9
$DIMTOFL
 70
     0
  9
$DIMTVP
 40
0.0
  9
$DIMTIX
 70
     0
  9
$DIMSOXD
 70
     0
  9
$DIMSAH
 70
     0
  9
$DIMBLK1
  1

  9
$DIMBLK2
  1

  9
$DIMSTYLE
  2
STANDARD
  9
$DIMCLRD
 70
     0
  9
$DIMCLRE
 70
     0
  9
$DIMCLRT
 70
     0
  9
$DIMTFAC
 40
1.0
  9
$DIMGAP
 40
0.09
  9
$LUNITS
 70
     2
  9
$LUPREC
 70
     4
  9
$SKETCHINC
 40
0.1
  9
$FILLETRAD
 40
0.0
  9
$AUNITS
 70
     0
  9
$AUPREC
 70
     0
  9
$MENU
  1
.
  9
$ELEVATION
 40
0.0
  9
$PELEVATION
 40
0.0
  9
$THICKNESS
 40
0.0
  9
$LIMCHECK
 70
     0
  9
$BLIPMODE
 70
     0
  9
$CHAMFERA
 40
0.0
  9
$CHAMFERB
 40
0.0
  9
$SKPOLY
 70
     0
  9
$TDCREATE
 40
2458060.468368056230247
  9
$TDUPDATE
 40
2460101.6948495372198522
  9
$TDINDWG
 40
0.5841621527999999
  9
$TDUSRTIMER
 40
0.5841621527999999
  9
$USRTIMER
 70
     1
  9
$ANGBASE
 50
0.0
  9
$ANGDIR
 70
     0
  9
$PDMODE
 70
     0
  9
$PDSIZE
 40
0.3125
  9
$PLINEWID
 40
0.0
  9
$COORDS
 70
     1
  9
$SPLFRAME
 70
     0
  9
$SPLINETYPE
 70
     6
  9
$SPLINESEGS
 70
     8
  9
$ATTDIA
 70
     1
  9
$ATTREQ
 70
     1
  9
$HANDLING
 70
     1
  9
$HANDSEED
  5
20604
  9
$SURFTAB1
 70
     6
  9
$SURFTAB2
 70
     6
  9
$SURFTYPE
 70
     6
  9
$SURFU
 70
     6
  9
$SURFV
 70
     6
  9
$UCSNAME
  2

  9
$UCSORG
 10
0.0
 20
0.0
 30
0.0
  9
$UCSXDIR
 10
1.0
 20
0.0
 30
0.0
  9
$UCSYDIR
 10
0.0
 20
1.0
 30
0.0
  9
$PUCSNAME
  2

  9
$PUCSORG
 10
0.0
 20
0.0
 30
0.0
  9
$PUCSXDIR
 10
1.0
 20
0.0
 30
0.0
  9
$PUCSYDIR
 10
0.0
 20
1.0
 30
0.0
  9
$USERI1
 70
     0
  9
$USERI2
 70
     0
  9
$USERI3
 70
     0
  9
$USERI4
 70
     0
  9
$USERI5
 70
     0
  9
$USERR1
 40
0.0
  9
$USERR2
 40
0.0
  9
$USERR3
 40
0.0
  9
$USERR4
 40
0.0
  9
$USERR5
 40
0.0
  9
$WORLDVIEW
 70
     1
  9
$SHADEDGE
 70
     3
  9
$SHADEDIF
 70
    70
  9
$TILEMODE
 70
     1
  9
$MAXACTVP
 70
    64
  9
$PLIMCHECK
 70
     0
  9
$PEXTMIN
 10
1.0000000000000000E+20
 20
1.0000000000000000E+20
 30
1.0000000000000000E+20
  9
$PEXTMAX
 10
-1.0000000000000000E+20
 20
-1.0000000000000000E+20
 30
-1.0000000000000000E+20
  9
$PLIMMIN
 10
0.0
 20
0.0
  9
$PLIMMAX
 10
12.0
 20
9.0
  9
$UNITMODE
 70
     0
  9
$VISRETAIN
 70
     1
  9
$PLINEGEN
 70
     0
  9
$PSLTSCALE
 70
     1
  0
ENDSEC
  0
SECTION
  2
TABLES
  0
TABLE
  2
VPORT
 70
     1
  0
VPORT
  2
*ACTIVE
 70
     0
 10
0.0
 20
0.0
 11
1.0
 21
1.0
 12
1370.1016030509349548
 22
-131.3100006560032966
 13
0.0
 23
0.0
 14
1.0
 24
1.0
 15
0.0
 25
0.0
 16
0.0
 26
0.0
 36
5.1040778033513332
 17
3792.35791015625
 27
120.1806564331053977
 37
0.0
 40
31.7380301854819393
 41
1.4307692307692299
 42
50.0
 43
0.0
 44
0.0
 50
0.0
 51
0.0
 71
     0
 72
   100
 73
     1
 74
     1
 75
     0
 76
     0
 77
     0
 78
     0
  0
ENDTAB
  0
TABLE
  2
LTYPE
 70
     2
  0
LTYPE
  2
CONTINUOUS
 70
     0
  3
Solid line
 72
    65
 73
     0
 40
0.0
  0
LTYPE
  2
PHANTOM2
 70
     0
  3
___ _ _ ___ _ _ ___ _ _ ___ _ _
 72
    65
 73
     6
 40
1.25
 49
0.625
 49
-0.125
 49
0.125
 49
-0.125
 49
0.125
 49
-0.125
  0
ENDTAB
  0
TABLE
  2
LAYER
 70
     2
  0
LAYER
  2
0
 70
     0
 62
   255
  6
CONTINUOUS
  0
LAYER
  2
DEFPOINTS
 70
     0
 62
     7
  6
CONTINUOUS
  0
ENDTAB
  0
TABLE
  2
STYLE
 70
     1
  0
STYLE
  2
STANDARD
 70
     0
 40
0.0
 41
0.8
 50
0.0
 71
     0
 42
0.2
  3
txt
  4

  0
ENDTAB
  0
TABLE
  2
VIEW
 70
     0
  0
ENDTAB
  0
TABLE
  2
UCS
 70
     0
  0
ENDTAB
  0
TABLE
  2
APPID
 70
     9
  0
APPID
  2
ACAD
 70
     0
  0
APPID
  2
ACAD_MLEADERVER
 70
     0
  0
APPID
  2
ACAD_EXEMPT_FROM_CAD_STANDARDS
 70
     0
  0
APPID
  2
ACAD_NAV_VCDISPLAY
 70
     0
  0
APPID
  2
ACAECLAYERSTANDARD
 70
     0
  0
APPID
  2
ACCMTRANSPARENCY
 70
     0
  0
APPID
  2
ACAD_DSTYLE_DIMJAG
 70
     0
  0
APPID
  2
ACAD_DSTYLE_DIMTALN
 70
     0
  0
APPID
  2
ACDBATTR
 70
     0
  0
ENDTAB
  0
TABLE
  2
DIMSTYLE
 70
     1
  0
DIMSTYLE
  2
STANDARD
 70
     0
  3

  4

  5

  6

  7

 40
1.0
 41
0.1875
 42
0.0625
 43
0.38
 44
0.125
 45
0.0
 46
0.0
 47
0.01
 48
0.01
140
0.15625
141
0.09
142
0.0
143
25.3999999999999986
144
1.0
145
0.0
146
1.0
147
0.09
 71
     1
 72
     0
 73
     1
 74
     1
 75
     0
 76
     0
 77
     0
 78
     4
170
     0
171
     2
172
     0
173
     0
174
     0
175
     0
176
     0
177
     0
178
     0
  0
ENDTAB
  0
ENDSEC
  0
SECTION
  2
BLOCKS
  0
BLOCK
  8
0
  2
$MODEL_SPACE
 70
     0
 10
0.0
 20
0.0
 30
0.0
  3
$MODEL_SPACE
  1

  0
ENDBLK
  5
21
  8
0
  0
BLOCK
 67
     1
  8
0
  2
$PAPER_SPACE
 70
     0
 10
0.0
 20
0.0
 30
0.0
  3
$PAPER_SPACE
  1

  0
ENDBLK
  5
1D
 67
     1
  8
0
  0
ENDSEC
  0
SECTION
  2
ENTITIES
  0
ATTDEF
  5
3930
  8
DEFPOINTS
 10
5165.5260302917358786
 20
-11.1296951234124304
 30
0.0
 40
0.001
  1
K-33690K-L
  3

  2
MODELNUMBER
 70
     0
1001
ACDBATTR
1070
     0
1070
     1
  0
ATTDEF
  5
3931
  8
DEFPOINTS
 10
5165.5260302917358786
 20
-11.1313617900790902
 30
0.0
 40
0.001
  1

  3

  2
TRADENAME
 70
     0
1001
ACDBATTR
1070
     0
1070
     1
  0
ATTDEF
  5
3932
  8
DEFPOINTS
 10
5165.5260302917358786
 20
-11.1330284567457607
 30
0.0
 40
0.001
  1
MEDICINE CABINET
  3

  2
PRODUCT
 70
     0
1001
ACDBATTR
1070
     0
1070
     1
  0
LINE
  5
20515
  8
0
 10
5159.3903294559659116
 20
4.6186872731021751
 30
0.0
 11
5160.3585814244661378
 21
4.6186872731021751
 31
0.0
  0
LINE
  5
20516
  8
0
 10
5160.4059515032658965
 20
4.6186872731021706
 30
0.0
 11
5165.4925656764662563
 21
4.6186872731021751
 31
0.0
  0
LINE
  5
20517
  8
0
 10
5165.5122507158657754
 20
4.5990022338021737
 30
0.0
 11
5165.5122507158657754
 21
-26.8576906795978196
 31
0.0
  0
LINE
  5
20518
  8
0
 10
5165.4925656764662563
 20
4.6186872731021751
 30
0.0
 11
5165.5122507158657754
 21
4.5990022338021674
 31
0.0
  0
LINE
  5
20519
  8
0
 10
5160.4059515032658965
 20
4.6186872731021751
 30
0.0
 11
5160.4059515032658965
 21
-26.8773757189978291
 31
0.0
  0
LINE
  5
2051A
  8
0
 10
5160.3665814244659487
 20
4.6106872731021786
 30
0.0
 11
5160.3665814244659487
 21
-26.8773757189978291
 31
0.0
  0
ARC
  5
2051B
  8
0
 10
5160.3585814244661378
 20
4.6106872731021724
 30
0.0
 40
0.008
 50
0.0000000000254444
 51
89.9999999999478888
  0
LINE
  5
2051C
  8
0
 10
5159.3823294559661008
 20
4.6106872731021786
 30
0.0
 11
5159.3823294559661008
 21
-26.8655646952978309
 31
0.0
  0
ARC
  5
2051D
  8
0
 10
5159.3903294559659116
 20
4.6106872731021724
 30
0.0
 40
0.008
 50
90.0
 51
179.9999999999745057
  0
LINE
  5
2051E
  8
0
 10
5160.4059515032658965
 20
-26.8773757189978291
 30
0.0
 11
5160.9571326055656755
 21
-26.8773757189978291
 31
0.0
  0
LINE
  5
2051F
  8
0
 10
5160.7681562276657132
 20
-26.8773757189978291
 30
0.0
 11
5165.5240617394665605
 21
-26.8773757189978291
 31
0.0
  0
LINE
  5
20520
  8
0
 10
5165.5122507158657754
 20
-26.8576906795978196
 30
0.0
 11
5165.4925656764662563
 21
-26.8773757189978291
 31
0.0
  0
LINE
  5
20521
  8
0
 10
5159.3943294560658615
 20
-26.8773757189978291
 30
0.0
 11
5160.3665814245659931
 21
-26.8773757189978291
 31
0.0
  0
ARC
  5
20522
  8
0
 10
5159.3943305373832118
 20
-26.8653731084689085
 30
0.0
 40
0.0120026105776186
 50
180.914599605649812
 51
269.994838217044105
  0
LINE
  5
20523
  8
0
 10
5160.3783924481658687
 20
2.197427430602175
 30
0.0
 11
5160.4059515032658965
 21
2.197427430602175
 31
0.0
  0
LINE
  5
20524
  8
0
 10
5160.3665814244659487
 20
1.3470337298021771
 30
0.0
 11
5160.4059515032658965
 21
1.3470337298021771
 31
0.0
  0
LINE
  5
20525
  8
0
 10
5160.3665814244659487
 20
0.8037266432021752
 30
0.0
 11
5160.4059515032658965
 21
0.8037266432021752
 31
0.0
  0
LINE
  5
20526
  8
0
 10
5160.4038515627662491
 20
0.7741990842021736
 30
0.0
 11
5160.4059515032658965
 21
0.7741990842021736
 31
0.0
  0
LINE
  5
20527
  8
0
 10
5160.4038515627662491
 20
0.7741990842021736
 30
0.0
 11
5160.4038515627662491
 21
0.7131754621021785
 31
0.0
  0
LINE
  5
20528
  8
0
 10
5160.4038515627662491
 20
0.7131754621021785
 30
0.0
 11
5160.4059515032658965
 21
0.7131754621021785
 31
0.0
  0
LINE
  5
20529
  8
0
 10
5160.3783924481658687
 20
-0.0466670575978228
 30
0.0
 11
5160.4059515032658965
 21
-0.0466670575978228
 31
0.0
  0
LINE
  5
2052A
  8
0
 10
5160.3665814244659487
 20
-0.2041470708978252
 30
0.0
 11
5160.4059515032658965
 21
-0.2041470708978252
 31
0.0
  0
LINE
  5
2052B
  8
0
 10
5160.3665814244659487
 20
-0.8734384094978295
 30
0.0
 11
5160.4059515032658965
 21
-0.8734384094978224
 31
0.0
  0
LINE
  5
2052C
  8
0
 10
5160.3665814244659487
 20
-23.1411552464978207
 30
0.0
 11
5160.4059515032658965
 21
-23.1411552464978207
 31
0.0
  0
LINE
  5
2052D
  8
0
 10
5160.3665814245159709
 20
-23.6057221756978208
 30
0.0
 11
5160.4059515033159187
 21
-23.6057221756978208
 31
0.0
  0
LINE
  5
2052E
  8
0
 10
5159.3823294559661008
 20
4.500577036902178
 30
0.0
 11
5160.3665814244659487
 21
4.500577036902178
 31
0.0
  0
LINE
  5
2052F
  8
0
 10
5159.4770974458442652
 20
4.599002237124715
 30
0.0
 11
5159.4770974458442652
 21
4.500577036902178
 31
0.0
  0
LINE
  5
20530
  8
0
 10
5159.4632702596791205
 20
4.6128294136534933
 30
0.0
 11
5159.4770974458442652
 21
4.599002237124715
 31
0.0
  0
ARC
  5
20531
  8
0
 10
5159.4491281289829203
 20
4.5986872731021933
 30
0.0
 40
0.02
 50
45.0000199637294998
 51
90.0000000000521254
  0
LINE
  5
20532
  8
0
 10
5159.4692234237663797
 20
-26.8773757189978291
 30
0.0
 11
5159.4692234237663797
 21
4.500577036902178
 31
0.0
  0
LINE
  5
20533
  8
0
 10
5165.4925656764662563
 20
4.5990022338021737
 30
0.0
 11
5165.4925656764662563
 21
-26.8576906795978196
 31
0.0
  0
LINE
  5
20534
  8
0
 10
5165.4925656764662563
 20
4.5990022338021737
 30
0.0
 11
5160.7681562276657132
 21
4.5990022338021737
 31
0.0
  0
LINE
  5
20535
  8
0
 10
5160.7405971724656411
 20
-26.8773757189978291
 30
0.0
 11
5160.7405971724656411
 21
4.6186872732021733
 31
0.0
  0
LINE
  5
20536
  8
0
 10
5160.7681562276657132
 20
-26.8576906795978196
 30
0.0
 11
5165.4925656764662563
 21
-26.8576906795978196
 31
0.0
  0
LINE
  5
20537
  8
0
 10
5165.4925656764662563
 20
-26.8576906795978196
 30
0.0
 11
5165.5024081961655611
 21
-26.8675331992978315
 31
0.0
  0
LINE
  5
20538
  8
0
 10
5165.4925656764662563
 20
4.5990022338021737
 30
0.0
 11
5165.5024081961655611
 21
4.6088447534521739
 31
0.0
  0
LINE
  5
20539
  8
0
 10
5160.7484711882661941
 20
4.5990022338021737
 30
0.0
 11
5160.7681562276657132
 21
4.6186872732021733
 31
0.0
  0
LINE
  5
2053A
  8
0
 10
5160.7681562276657132
 20
4.5990022338021737
 30
0.0
 11
5160.7583137079664084
 21
4.6088447535021748
 31
0.0
  0
LINE
  5
2053B
  8
0
 10
5160.7484711882661941
 20
4.5990022338021737
 30
0.0
 11
5160.7484711882661941
 21
-26.8576906795978196
 31
0.0
  0
LINE
  5
2053C
  8
0
 10
5160.7484711882661941
 20
-26.8576906795978196
 30
0.0
 11
5160.7681562276657132
 21
-26.8773757189978291
 31
0.0
  0
LINE
  5
2053D
  8
0
 10
5160.7681562276657132
 20
-26.8576906795978196
 30
0.0
 11
5160.7583137079664084
 21
-26.8675331992978208
 31
0.0
  0
LINE
  5
2053E
  8
0
 10
5160.7681562276657132
 20
-26.8576906795978196
 30
0.0
 11
5160.7681562276657132
 21
4.5990022338021781
 31
0.0
  0
LINE
  5
2053F
  8
0
 10
5160.7405971725656855
 20
4.5556951472021749
 30
0.0
 11
5160.7484711882661941
 21
4.5556951472021749
 31
0.0
  0
ARC
  5
20540
  8
0
 10
5160.7799672519950036
 20
-26.8380056406072605
 30
0.0
 40
0.0393700795285881
 50
143.1528217695469891
 51
179.9999994041450009
  0
LINE
  5
20541
  8
0
 10
5160.3783924481658687
 20
2.197427430602175
 30
0.0
 11
5160.3783924481658687
 21
1.3470337299021751
 31
0.0
  0
LINE
  5
20542
  8
0
 10
5160.3783924481658687
 20
-0.0466670574978245
 30
0.0
 11
5160.3783924481658687
 21
0.8037266432021752
 31
0.0
  0
LINE
  5
20543
  8
0
 10
5165.5122507158657754
 20
4.4218368795021759
 30
0.0
 11
5165.5240617394665605
 21
4.4218368795021759
 31
0.0
  0
LINE
  5
20544
  8
0
 10
5165.5240617394665605
 20
4.4218368795021759
 30
0.0
 11
5165.5240617394665605
 21
-26.8773757189978291
 31
0.0
  0
LINE
  5
20545
  8
0
 10
5160.37625170006595
 20
2.0302069582021751
 30
0.0
 11
5160.3700018823628852
 21
2.0302069582021751
 31
0.0
  0
ARC
  5
20546
  8
0
 10
5160.3761168043483849
 20
2.0289310741625459
 30
0.0
 40
0.0012829952990251
 50
38.9459030458254816
 51
83.964695879449053
  0
ARC
  5
20547
  8
0
 10
5160.369250924908556
 20
2.0233819199172518
 30
0.0
 40
0.0101109856312643
 50
25.2952580677564285
 51
38.9459030458237407
  0
LINE
  5
20548
  8
0
 10
5160.3685452249656009
 20
2.028923407002174
 30
0.0
 11
5160.3665814245659931
 21
2.025558568068905
 31
0.0
  0
ARC
  5
20549
  8
0
 10
5160.3706569053811108
 20
2.027995265086953
 30
0.0
 40
0.0023066515973729
 50
106.497372370576997
 51
156.2731837821802117
  0
LINE
  5
2054A
  8
0
 10
5160.3680599234212423
 20
1.9192702521021721
 30
0.0
 11
5160.3783924481658687
 21
1.9192702521021761
 31
0.0
  0
ARC
  5
2054B
  8
0
 10
5160.6989581109628489
 20
2.0155287271263411
 30
0.0
 40
0.3364950490602782
 50
189.2901451970998892
 51
194.8751303999578113
  0
ARC
  5
2054C
  8
0
 10
5160.4058169172576527
 20
1.937666118810152
 30
0.0
 40
0.0331893530693129
 50
194.8751303999540028
 51
213.6604571640963002
  0
LINE
  5
2054D
  8
0
 10
5160.3665814245659931
 20
1.9168195190021711
 30
0.0
 11
5160.3680599234212423
 21
1.9192702521021761
 31
0.0
  0
LINE
  5
2054E
  8
0
 10
5160.4059515032658965
 20
1.376561288902177
 30
0.0
 11
5160.4038515627662491
 21
1.376561288902177
 31
0.0
  0
LINE
  5
2054F
  8
0
 10
5160.4038515627662491
 20
1.376561288902177
 30
0.0
 11
5160.4038515627662491
 21
1.4375849110021719
 31
0.0
  0
LINE
  5
20550
  8
0
 10
5160.4038515627662491
 20
1.4375849110021719
 30
0.0
 11
5160.4059515032658965
 21
1.4375849110021719
 31
0.0
  0
LINE
  5
20551
  8
0
 10
5160.3783924481658687
 20
1.390340816502174
 30
0.0
 11
5160.3665814245659931
 21
1.390340816502174
 31
0.0
  0
LINE
  5
20552
  8
0
 10
5160.3783924481658687
 20
0.1476167088021718
 30
0.0
 11
5160.3680599234212423
 21
0.1476167088021754
 31
0.0
  0
LINE
  5
20553
  8
0
 10
5160.3665814245659931
 20
0.1451659757021702
 30
0.0
 11
5160.3680599234212423
 21
0.1476167088021789
 31
0.0
  0
LINE
  5
20554
  8
0
 10
5160.3700182212078289
 20
0.2585532217863538
 30
0.0
 11
5160.37625170006595
 21
0.258553414902174
 31
0.0
  0
ARC
  5
20555
  8
0
 10
5160.3749634213208992
 20
0.2551654182777554
 30
0.0
 40
0.0036246631915926
 50
18.9104370778366899
 51
69.180796472133423
  0
LINE
  5
20556
  8
0
 10
5160.3685649183662463
 20
0.2572780693021741
 30
0.0
 11
5160.3665814245659931
 21
0.2539131555021825
 31
0.0
  0
ARC
  5
20557
  8
0
 10
5160.3706199156367802
 20
0.2564017165150858
 30
0.0
 40
0.0022340563985179
 50
105.6242266405447054
 51
156.9041950319486034
  0
ARC
  5
20558
  8
0
 10
5160.513883819721741
 20
0.2067243994066459
 30
0.0
 40
0.1480065401877836
 50
186.6621743851902124
 51
203.5380900920050067
  0
ARC
  5
20559
  8
0
 10
5160.2704573714418075
 20
0.2132982858923285
 30
0.0
 40
0.1093634881773867
 50
9.270474199611435
 51
24.4439562118010016
  0
LINE
  5
2055A
  8
0
 10
5160.3665814245659931
 20
0.391061914102174
 30
0.0
 11
5160.3783924481658687
 21
0.391061914102174
 31
0.0
  0
LINE
  5
2055B
  8
0
 10
5160.3783924481658687
 20
-22.2907615456978299
 30
0.0
 11
5160.4059515032658965
 21
-22.2907615456978299
 31
0.0
  0
LINE
  5
2055C
  8
0
 10
5160.3783924481658687
 20
-23.1411552464978207
 30
0.0
 11
5160.4059515032658965
 21
-23.1411552464978207
 31
0.0
  0
LINE
  5
2055D
  8
0
 10
5160.3783924481658687
 20
-22.2907615456978299
 30
0.0
 11
5160.3783924481658687
 21
-23.1411552463978296
 31
0.0
  0
LINE
  5
2055E
  8
0
 10
5160.37625170006595
 20
-22.4579820180978302
 30
0.0
 11
5160.3700018823628852
 21
-22.4579820180978302
 31
0.0
  0
ARC
  5
2055F
  8
0
 10
5160.3761168043483849
 20
-22.459257902137459
 30
0.0
 40
0.0012829952990251
 50
38.9459030458254816
 51
83.964695879449053
  0
ARC
  5
20560
  8
0
 10
5160.369250924908556
 20
-22.4648070563827496
 30
0.0
 40
0.0101109856312643
 50
25.2952580677564285
 51
38.9459030458237407
  0
LINE
  5
20561
  8
0
 10
5160.3685452249656009
 20
-22.4592655692978305
 30
0.0
 11
5160.3665814245659931
 21
-22.4626304082310995
 31
0.0
  0
ARC
  5
20562
  8
0
 10
5160.3706569053811108
 20
-22.4601937112130514
 30
0.0
 40
0.0023066515973729
 50
106.497372370576997
 51
156.2731837821802117
  0
LINE
  5
20563
  8
0
 10
5160.3680599234212423
 20
-22.5689187241978289
 30
0.0
 11
5160.3783924481658687
 21
-22.5689187241978289
 31
0.0
  0
ARC
  5
20564
  8
0
 10
5160.6989581109628489
 20
-22.4726602491736607
 30
0.0
 40
0.3364950490602782
 50
189.2901451971000881
 51
194.8751303999580102
  0
ARC
  5
20565
  8
0
 10
5160.4058169172576527
 20
-22.5505228574898489
 30
0.0
 40
0.0331893530693129
 50
194.8751303999540028
 51
213.6604571640963002
  0
LINE
  5
20566
  8
0
 10
5160.3665814245659931
 20
-22.5713694572978305
 30
0.0
 11
5160.3680599234212423
 21
-22.5689187241978289
 31
0.0
  0
LINE
  5
20567
  8
0
 10
5160.4059515032658965
 20
-23.1116276873978208
 30
0.0
 11
5160.4038515627662491
 21
-23.1116276873978208
 31
0.0
  0
LINE
  5
20568
  8
0
 10
5160.4038515627662491
 20
-23.1116276873978208
 30
0.0
 11
5160.4038515627662491
 21
-23.0506040652978292
 31
0.0
  0
LINE
  5
20569
  8
0
 10
5160.4038515627662491
 20
-23.0506040652978292
 30
0.0
 11
5160.4059515032658965
 21
-23.0506040652978292
 31
0.0
  0
LINE
  5
2056A
  8
0
 10
5160.3783924481658687
 20
-23.0978481597978309
 30
0.0
 11
5160.3665814245659931
 21
-23.0978481597978309
 31
0.0
  0
ARC
  5
2056B
  8
0
 10
5160.3018453701615726
 20
1.9953619824849831
 30
0.0
 40
0.076547256566984
 50
359.8762430909994237
 51
27.0783619519318002
  0
LINE
  5
2056C
  8
0
 10
5160.3665814245659931
 20
-22.7284905173978302
 30
0.0
 11
5160.3783924481658687
 21
-22.7284905173978302
 31
0.0
  0
LINE
  5
2056D
  8
0
 10
5160.3665814245659931
 20
-22.8891867425978184
 30
0.0
 11
5160.3783924481658687
 21
-22.8891867425978184
 31
0.0
  0
LINE
  5
2056E
  8
0
 10
5160.3665814244659487
 20
-23.6844623331978212
 30
0.0
 11
5160.4059515032658965
 21
-23.6844623331978212
 31
0.0
  0
LINE
  5
2056F
  8
0
 10
5160.4038515627662491
 20
-23.7139898921978194
 30
0.0
 11
5160.4059515032658965
 21
-23.7139898921978194
 31
0.0
  0
LINE
  5
20570
  8
0
 10
5160.4038515627662491
 20
-23.7139898921978194
 30
0.0
 11
5160.4038515627662491
 21
-23.7750135142978216
 31
0.0
  0
LINE
  5
20571
  8
0
 10
5160.4038515627662491
 20
-23.7750135142978216
 30
0.0
 11
5160.4059515032658965
 21
-23.7750135142978216
 31
0.0
  0
LINE
  5
20572
  8
0
 10
5160.3783924481658687
 20
-24.5348560339978192
 30
0.0
 11
5160.4059515032658965
 21
-24.5348560339978192
 31
0.0
  0
LINE
  5
20573
  8
0
 10
5160.3783924481658687
 20
-24.534856033897821
 30
0.0
 11
5160.3783924481658687
 21
-23.6844623331978212
 31
0.0
  0
LINE
  5
20574
  8
0
 10
5160.3783924481658687
 20
-24.3405722675978318
 30
0.0
 11
5160.3680599234212423
 21
-24.3405722675978211
 31
0.0
  0
LINE
  5
20575
  8
0
 10
5160.3665814245659931
 20
-24.3430230006978299
 30
0.0
 11
5160.3680599234212423
 21
-24.3405722675978211
 31
0.0
  0
LINE
  5
20576
  8
0
 10
5160.3700182212078289
 20
-24.2296357546136392
 30
0.0
 11
5160.37625170006595
 21
-24.2296355614978189
 31
0.0
  0
ARC
  5
20577
  8
0
 10
5160.3749634213208992
 20
-24.2330235581222411
 30
0.0
 40
0.0036246631915926
 50
18.9104370778366899
 51
69.180796472133423
  0
LINE
  5
20578
  8
0
 10
5160.3685649183662463
 20
-24.2309109070978188
 30
0.0
 11
5160.3665814245659931
 21
-24.2342758208978104
 31
0.0
  0
ARC
  5
20579
  8
0
 10
5160.3706199156367802
 20
-24.2317872598849107
 30
0.0
 40
0.0022340563985179
 50
105.6242266405447054
 51
156.9041950319486034
  0
ARC
  5
2057A
  8
0
 10
5160.513883819721741
 20
-24.2814645769933506
 30
0.0
 40
0.1480065401877836
 50
186.6621743851902124
 51
203.5380900920050067
  0
ARC
  5
2057B
  8
0
 10
5160.2704573714418075
 20
-24.2748906905076716
 30
0.0
 40
0.1093634881773867
 50
9.2704741996116358
 51
24.4439562118011793
  0
LINE
  5
2057C
  8
0
 10
5160.3665814245659931
 20
-24.0971270622978189
 30
0.0
 11
5160.3783924481658687
 21
-24.0971270622978189
 31
0.0
  0
LINE
  5
2057D
  8
0
 10
5160.3783924481658687
 20
-23.7277694196978288
 30
0.0
 11
5160.3665814245659931
 21
-23.7277694196978288
 31
0.0
  0
LINE
  5
2057E
  8
0
 10
5160.3587074087663495
 20
4.5990022338021737
 30
0.0
 11
5160.3587074087663495
 21
4.5005770369021754
 31
0.0
  0
LINE
  5
2057F
  8
0
 10
5160.3587074087663495
 20
4.5990022338021737
 30
0.0
 11
5160.3662777877925691
 21
4.6128703882026079
 31
0.0
  0
LINE
  5
20580
  8
0
 10
5160.3587074087663495
 20
4.5990022338021737
 30
0.0
 11
5159.4770974491648303
 21
4.5990022338021737
 31
0.0
  0
ENDSEC
  0
EOF
