  0
SECTION
  2
HEADER
  9
$ACADVER
  1
AC1009
  9
$INSBASE
 10
5235.947313111708354
 20
-12.2866634337681493
 30
0.0
  9
$EXTMIN
 10
5223.8856902100378647
 20
-28.0352265123547504
 30
-0.0000000000112498
  9
$EXTMAX
 10
5247.76885191670317
 20
3.4622644328300112
 30
0.0000000000002956
  9
$LIMMIN
 10
0.0
 20
0.0
  9
$LIMMAX
 10
11.6929133858000007
 20
8.2677165353999982
  9
$ORTHOMODE
 70
     0
  9
$REGENMODE
 70
     1
  9
$FILLMODE
 70
     1
  9
$QTEXTMODE
 70
     0
  9
$MIRRTEXT
 70
     0
  9
$DRAGMODE
 70
     2
  9
$LTSCALE
 40
0.6431102362
  9
$OSMODE
 70
  4095
  9
$ATTMODE
 70
     1
  9
$TEXTSIZE
 40
0.2
  9
$TRACEWID
 40
0.05
  9
$TEXTSTYLE
  7
STANDARD
  9
$CLAYER
  8
0
  9
$CELTYPE
  6
BYLAYER
  9
$CECOLOR
 62
   256
  9
$DIMSCALE
 40
1.0
  9
$DIMASZ
 40
0.1875
  9
$DIMEXO
 40
0.0625
  9
$DIMDLI
 40
0.4443307087
  9
$DIMRND
 40
0.0
  9
$DIMDLE
 40
0.0
  9
$DIMEXE
 40
0.125
  9
$DIMTP
 40
0.01
  9
$DIMTM
 40
0.01
  9
$DIMTXT
 40
2.0
  9
$DIMCEN
 40
0.1052362205
  9
$DIMTSZ
 40
0.0
  9
$DIMTOL
 70
     1
  9
$DIMLIM
 70
     0
  9
$DIMTIH
 70
     1
  9
$DIMTOH
 70
     1
  9
$DIMSE1
 70
     0
  9
$DIMSE2
 70
     0
  9
$DIMTAD
 70
     0
  9
$DIMZIN
 70
     0
  9
$DIMBLK
  1

  9
$DIMASO
 70
     1
  9
$DIMSHO
 70
     1
  9
$DIMPOST
  1
\X
  9
$DIMAPOST
  1

  9
$DIMALT
 70
     1
  9
$DIMALTD
 70
     2
  9
$DIMALTF
 40
25.3999999999999986
  9
$DIMLFAC
 40
1.0
  9
$DIMTOFL
 70
     0
  9
$DIMTVP
 40
0.0
  9
$DIMTIX
 70
     0
  9
$DIMSOXD
 70
     0
  9
$DIMSAH
 70
     0
  9
$DIMBLK1
  1

  9
$DIMBLK2
  1

  9
$DIMSTYLE
  2
STANDARD
  9
$DIMCLRD
 70
     0
  9
$DIMCLRE
 70
     0
  9
$DIMCLRT
 70
     0
  9
$DIMTFAC
 40
1.0
  9
$DIMGAP
 40
0.09
  9
$LUNITS
 70
     2
  9
$LUPREC
 70
     4
  9
$SKETCHINC
 40
0.1
  9
$FILLETRAD
 40
0.0
  9
$AUNITS
 70
     0
  9
$AUPREC
 70
     0
  9
$MENU
  1
.
  9
$ELEVATION
 40
0.0
  9
$PELEVATION
 40
0.0
  9
$THICKNESS
 40
0.0
  9
$LIMCHECK
 70
     0
  9
$BLIPMODE
 70
     0
  9
$CHAMFERA
 40
0.0
  9
$CHAMFERB
 40
0.0
  9
$SKPOLY
 70
     0
  9
$TDCREATE
 40
2458060.468368056230247
  9
$TDUPDATE
 40
2460103.6565856481902301
  9
$TDINDWG
 40
0.5875996528
  9
$TDUSRTIMER
 40
0.5875996528
  9
$USRTIMER
 70
     1
  9
$ANGBASE
 50
0.0
  9
$ANGDIR
 70
     0
  9
$PDMODE
 70
     0
  9
$PDSIZE
 40
0.3125
  9
$PLINEWID
 40
0.0
  9
$COORDS
 70
     1
  9
$SPLFRAME
 70
     0
  9
$SPLINETYPE
 70
     6
  9
$SPLINESEGS
 70
     8
  9
$ATTDIA
 70
     1
  9
$ATTREQ
 70
     1
  9
$HANDLING
 70
     1
  9
$HANDSEED
  5
207B1
  9
$SURFTAB1
 70
     6
  9
$SURFTAB2
 70
     6
  9
$SURFTYPE
 70
     6
  9
$SURFU
 70
     6
  9
$SURFV
 70
     6
  9
$UCSNAME
  2

  9
$UCSORG
 10
0.0
 20
0.0
 30
0.0
  9
$UCSXDIR
 10
1.0
 20
0.0
 30
0.0
  9
$UCSYDIR
 10
0.0
 20
1.0
 30
0.0
  9
$PUCSNAME
  2

  9
$PUCSORG
 10
0.0
 20
0.0
 30
0.0
  9
$PUCSXDIR
 10
1.0
 20
0.0
 30
0.0
  9
$PUCSYDIR
 10
0.0
 20
1.0
 30
0.0
  9
$USERI1
 70
     0
  9
$USERI2
 70
     0
  9
$USERI3
 70
     0
  9
$USERI4
 70
     0
  9
$USERI5
 70
     0
  9
$USERR1
 40
0.0
  9
$USERR2
 40
0.0
  9
$USERR3
 40
0.0
  9
$USERR4
 40
0.0
  9
$USERR5
 40
0.0
  9
$WORLDVIEW
 70
     1
  9
$SHADEDGE
 70
     3
  9
$SHADEDIF
 70
    70
  9
$TILEMODE
 70
     1
  9
$MAXACTVP
 70
    64
  9
$PLIMCHECK
 70
     0
  9
$PEXTMIN
 10
1.0000000000000000E+20
 20
1.0000000000000000E+20
 30
1.0000000000000000E+20
  9
$PEXTMAX
 10
-1.0000000000000000E+20
 20
-1.0000000000000000E+20
 30
-1.0000000000000000E+20
  9
$PLIMMIN
 10
0.0
 20
0.0
  9
$PLIMMAX
 10
12.0
 20
9.0
  9
$UNITMODE
 70
     0
  9
$VISRETAIN
 70
     1
  9
$PLINEGEN
 70
     0
  9
$PSLTSCALE
 70
     1
  0
ENDSEC
  0
SECTION
  2
TABLES
  0
TABLE
  2
VPORT
 70
     1
  0
VPORT
  2
*ACTIVE
 70
     0
 10
0.0
 20
0.0
 11
1.0
 21
1.0
 12
1443.4693609071200626
 22
-132.4671374728677904
 13
0.0
 23
0.0
 14
1.0
 24
1.0
 15
0.0
 25
0.0
 16
0.0
 26
0.0
 36
5.1040778033513332
 17
3792.35791015625
 27
120.1806564331053977
 37
0.0
 40
31.7394691086561096
 41
1.4307692307692299
 42
50.0
 43
0.0
 44
0.0
 50
0.0
 51
0.0
 71
     0
 72
   100
 73
     1
 74
     1
 75
     0
 76
     0
 77
     0
 78
     0
  0
ENDTAB
  0
TABLE
  2
LTYPE
 70
     2
  0
LTYPE
  2
CONTINUOUS
 70
     0
  3
Solid line
 72
    65
 73
     0
 40
0.0
  0
LTYPE
  2
PHANTOM2
 70
     0
  3
___ _ _ ___ _ _ ___ _ _ ___ _ _
 72
    65
 73
     6
 40
1.25
 49
0.625
 49
-0.125
 49
0.125
 49
-0.125
 49
0.125
 49
-0.125
  0
ENDTAB
  0
TABLE
  2
LAYER
 70
     2
  0
LAYER
  2
0
 70
     0
 62
   255
  6
CONTINUOUS
  0
LAYER
  2
DEFPOINTS
 70
     0
 62
     7
  6
CONTINUOUS
  0
ENDTAB
  0
TABLE
  2
STYLE
 70
     1
  0
STYLE
  2
STANDARD
 70
     0
 40
0.0
 41
0.8
 50
0.0
 71
     0
 42
0.2
  3
txt
  4

  0
ENDTAB
  0
TABLE
  2
VIEW
 70
     0
  0
ENDTAB
  0
TABLE
  2
UCS
 70
     0
  0
ENDTAB
  0
TABLE
  2
APPID
 70
     9
  0
APPID
  2
ACAD
 70
     0
  0
APPID
  2
ACAD_MLEADERVER
 70
     0
  0
APPID
  2
ACAD_EXEMPT_FROM_CAD_STANDARDS
 70
     0
  0
APPID
  2
ACAD_NAV_VCDISPLAY
 70
     0
  0
APPID
  2
ACAECLAYERSTANDARD
 70
     0
  0
APPID
  2
ACCMTRANSPARENCY
 70
     0
  0
APPID
  2
ACAD_DSTYLE_DIMJAG
 70
     0
  0
APPID
  2
ACAD_DSTYLE_DIMTALN
 70
     0
  0
APPID
  2
ACDBATTR
 70
     0
  0
ENDTAB
  0
TABLE
  2
DIMSTYLE
 70
     1
  0
DIMSTYLE
  2
STANDARD
 70
     0
  3

  4

  5

  6

  7

 40
1.0
 41
0.1875
 42
0.0625
 43
0.38
 44
0.125
 45
0.0
 46
0.0
 47
0.01
 48
0.01
140
0.15625
141
0.09
142
0.0
143
25.3999999999999986
144
1.0
145
0.0
146
1.0
147
0.09
 71
     1
 72
     0
 73
     1
 74
     1
 75
     0
 76
     0
 77
     0
 78
     4
170
     0
171
     2
172
     0
173
     0
174
     0
175
     0
176
     0
177
     0
178
     0
  0
ENDTAB
  0
ENDSEC
  0
SECTION
  2
BLOCKS
  0
BLOCK
  8
0
  2
$MODEL_SPACE
 70
     0
 10
0.0
 20
0.0
 30
0.0
  3
$MODEL_SPACE
  1

  0
ENDBLK
  5
21
  8
0
  0
BLOCK
 67
     1
  8
0
  2
$PAPER_SPACE
 70
     0
 10
0.0
 20
0.0
 30
0.0
  3
$PAPER_SPACE
  1

  0
ENDBLK
  5
1D
 67
     1
  8
0
  0
ENDSEC
  0
SECTION
  2
ENTITIES
  0
ATTDEF
  5
3930
  8
DEFPOINTS
 10
5235.9436749464839522
 20
-12.2826819083228997
 30
0.0
 40
0.001
  1
K-33690K-R
  3

  2
MODELNUMBER
 70
     0
1001
ACDBATTR
1070
     0
1070
     1
  0
ATTDEF
  5
3931
  8
DEFPOINTS
 10
5235.9436749464839522
 20
-12.2843485749895596
 30
0.0
 40
0.001
  1

  3

  2
TRADENAME
 70
     0
1001
ACDBATTR
1070
     0
1070
     1
  0
ATTDEF
  5
3932
  8
DEFPOINTS
 10
5235.9436749464839522
 20
-12.28601524165623
 30
0.0
 40
0.001
  1
MEDICINE CABINET
  3

  2
PRODUCT
 70
     0
1001
ACDBATTR
1070
     0
1070
     1
  0
LINE
  5
206C5
  8
0
 10
5247.6795965761084517
 20
3.461368062381851
 30
0.0
 11
5224.2150296472082118
 21
3.461368062381851
 31
0.0
  0
LINE
  5
206C6
  8
0
 10
5224.5536123243073234
 20
-27.8181594967181489
 30
0.0
 11
5224.5496753164061374
 21
-27.8181594967181489
 31
0.0
  0
LINE
  5
206C7
  8
0
 10
5247.679596576307631
 20
-28.0346949298181514
 30
0.0
 11
5224.2150296471072579
 21
-28.0346949298181514
 31
0.0
  0
LINE
  5
206C8
  8
0
 10
5224.27408476520759
 20
3.441368062381847
 30
0.0
 11
5224.27408476520759
 21
-28.0346949298181514
 31
0.0
  0
ARC
  5
206C9
  8
0
 10
5224.294084765207117
 20
3.441368062381847
 30
0.0
 40
0.02
 50
90.0
 51
179.9999999999897966
  0
LINE
  5
206CA
  8
0
 10
5224.2150296472082118
 20
3.461368062381851
 30
0.0
 11
5224.2150296472045738
 21
-28.0346949298181514
 31
0.0
  0
LINE
  5
206CB
  8
0
 10
5224.3688527487065585
 20
3.4534940465818522
 30
0.0
 11
5224.3688527487065585
 21
3.343257826181854
 31
0.0
  0
ARC
  5
206CC
  8
0
 10
5224.3366782917546516
 20
3.4100346526248688
 30
0.0
 40
0.0540732337050401
 50
53.4862039183857618
 51
71.6828109462593801
  0
LINE
  5
206CD
  8
0
 10
5224.5496753164061374
 20
3.3432578260818531
 30
0.0
 11
5224.5496753164061374
 21
-27.9362697329181486
 31
0.0
  0
LINE
  5
206CE
  8
0
 10
5247.3410138990066116
 20
3.315698771081848
 30
0.0
 11
5247.3449509069068881
 21
3.315698771081848
 31
0.0
  0
LINE
  5
206CF
  8
0
 10
5224.3609787330069594
 20
3.3432578260818531
 30
0.0
 11
5224.3609787330069594
 21
-28.0228839061181496
 31
0.0
  0
LINE
  5
206D0
  8
0
 10
5224.3509476560584517
 20
-28.0305702367531495
 30
0.0
 11
5224.3609787330069594
 21
-28.0228839061181496
 31
0.0
  0
ARC
  5
206D1
  8
0
 10
5224.3387831737545639
 20
-28.0146949298181589
 30
0.0
 40
0.02
 50
270.0
 51
307.4612054055418753
  0
LINE
  5
206D2
  8
0
 10
5224.5536123243073234
 20
-27.0504429613181507
 30
0.0
 11
5247.3410138990066116
 21
-27.0504429613181507
 31
0.0
  0
LINE
  5
206D3
  8
0
 10
5224.5536123243073234
 20
-27.0504429613181507
 30
0.0
 11
5224.5536123243073234
 21
-27.9362697329181486
 31
0.0
  0
LINE
  5
206D4
  8
0
 10
5224.5496753164061374
 20
-27.1685531975181505
 30
0.0
 11
5224.5536123243073234
 21
-27.1685531975181505
 31
0.0
  0
LINE
  5
206D5
  8
0
 10
5247.3410138990066116
 20
-27.1685531975181505
 30
0.0
 11
5247.3449509069068881
 21
-27.1685531975181505
 31
0.0
  0
LINE
  5
206D6
  8
0
 10
5224.5496753164061374
 20
-27.1409941424181511
 30
0.0
 11
5224.5536123243073234
 21
-27.1409941424181511
 31
0.0
  0
LINE
  5
206D7
  8
0
 10
5247.3410138990066116
 20
-27.1409941424181511
 30
0.0
 11
5247.3449509069068881
 21
-27.1409941424181511
 31
0.0
  0
LINE
  5
206D8
  8
0
 10
5224.5536123243073234
 20
-27.9362697329181486
 30
0.0
 11
5224.27408476520759
 21
-27.9362697329181486
 31
0.0
  0
LINE
  5
206D9
  8
0
 10
5247.6205414581081641
 20
3.4416830229818478
 30
0.0
 11
5247.6205414581081641
 21
-28.0346949298181514
 31
0.0
  0
ARC
  5
206DA
  8
0
 10
5247.6005396560331064
 20
3.4413637117899389
 30
0.0
 40
0.0200043506730723
 50
0.9145990757489506
 51
89.9948385605545269
  0
LINE
  5
206DB
  8
0
 10
5247.6795965761084517
 20
3.461368062381851
 30
0.0
 11
5247.6795965761093612
 21
-28.0346949298181514
 31
0.0
  0
LINE
  5
206DC
  8
0
 10
5247.3449509069068881
 20
3.3432578260818531
 30
0.0
 11
5247.3449509069068881
 21
-27.9362697329181486
 31
0.0
  0
LINE
  5
206DD
  8
0
 10
5247.5336474903069757
 20
3.3432578260818531
 30
0.0
 11
5247.5336474903069757
 21
-28.0228839061181496
 31
0.0
  0
LINE
  5
206DE
  8
0
 10
5247.5436785672563929
 20
-28.0305702367531495
 30
0.0
 11
5247.5336474903069757
 21
-28.0228839061181496
 31
0.0
  0
ARC
  5
206DF
  8
0
 10
5247.5558430495611901
 20
-28.0146949298181589
 30
0.0
 40
0.02
 50
232.5387945944580963
 51
270.0
  0
LINE
  5
206E0
  8
0
 10
5247.3410138990066116
 20
-27.0504429613181507
 30
0.0
 11
5247.3410138990066116
 21
-27.9362697329181486
 31
0.0
  0
LINE
  5
206E1
  8
0
 10
5247.3410138990066116
 20
-27.9362697329181486
 30
0.0
 11
5247.6205414581081641
 21
-27.9362697329181486
 31
0.0
  0
LINE
  5
206E2
  8
0
 10
5246.3508564188068704
 20
2.201525542681849
 30
0.0
 11
5225.5437698046071091
 21
2.201525542681849
 31
0.0
  0
LINE
  5
206E3
  8
0
 10
5225.5437698046071091
 20
-26.026820914018149
 30
0.0
 11
5225.5437698046071091
 21
2.2015255426818419
 31
0.0
  0
LINE
  5
206E4
  8
0
 10
5225.5437698046071091
 20
-26.026820914018149
 30
0.0
 11
5246.3508564187068259
 21
-26.026820914018149
 31
0.0
  0
LINE
  5
206E5
  8
0
 10
5246.3508564187068259
 20
-26.026820914018149
 30
0.0
 11
5246.3508564188068704
 21
2.201525542681849
 31
0.0
  0
LINE
  5
206E6
  8
0
 10
5224.5536123243073234
 20
3.3432578260818531
 30
0.0
 11
5224.27408476520759
 21
3.3432578260818531
 31
0.0
  0
LINE
  5
206E7
  8
0
 10
5224.5536123243073234
 20
3.3432578260818531
 30
0.0
 11
5224.5536123243073234
 21
3.185777511181854
 31
0.0
  0
LINE
  5
206E8
  8
0
 10
5224.5536123243073234
 20
3.185777511181854
 30
0.0
 11
5247.3410138991075655
 21
3.185777511181854
 31
0.0
  0
LINE
  5
206E9
  8
0
 10
5224.5496753164061374
 20
3.3156987709818528
 30
0.0
 11
5224.5536123243073234
 21
3.3156987709818528
 31
0.0
  0
LINE
  5
206EA
  8
0
 10
5247.3410138991075655
 20
3.185777511181854
 30
0.0
 11
5247.3410138991075655
 21
3.3432578260818531
 31
0.0
  0
LINE
  5
206EB
  8
0
 10
5247.3410138991075655
 20
3.3432578260818531
 30
0.0
 11
5247.6205414581081641
 21
3.3432578260818451
 31
0.0
  0
LINE
  5
206EC
  8
0
 10
5247.5297104825067436
 20
3.4534940465818522
 30
0.0
 11
5247.5297104825067436
 21
3.3432578260818531
 31
0.0
  0
ARC
  5
206ED
  8
0
 10
5247.5798483534417755
 20
3.378065481352631
 30
0.0
 40
0.0905719302785658
 50
113.1119730723033001
 51
123.6122516199655053
  0
ENDSEC
  0
EOF
