  0
SECTION
  2
HEADER
  9
$ACADVER
  1
AC1009
  9
$INSBASE
 10
4708.4578402450251815
 20
234.7891974157238053
 30
0.0
  9
$EXTMIN
 10
4690.5580820015311474
 20
218.9269344949686058
 30
-0.0000000000000058
  9
$EXTMAX
 10
4726.2804203210098422
 20
250.6361113891177865
 30
0.0000000000000104
  9
$LIMMIN
 10
0.0
 20
0.0
  9
$LIMMAX
 10
11.6929133858000007
 20
8.2677165353999982
  9
$ORTHOMODE
 70
     0
  9
$REGENMODE
 70
     1
  9
$FILLMODE
 70
     1
  9
$QTEXTMODE
 70
     0
  9
$MIRRTEXT
 70
     0
  9
$DRAGMODE
 70
     2
  9
$LTSCALE
 40
0.6431102362
  9
$OSMODE
 70
  4095
  9
$ATTMODE
 70
     1
  9
$TEXTSIZE
 40
0.2
  9
$TRACEWID
 40
0.05
  9
$TEXTSTYLE
  7
STANDARD
  9
$CLAYER
  8
0
  9
$CELTYPE
  6
BYLAYER
  9
$CECOLOR
 62
   256
  9
$DIMSCALE
 40
1.0
  9
$DIMASZ
 40
0.1875
  9
$DIMEXO
 40
0.0625
  9
$DIMDLI
 40
0.4443307087
  9
$DIMRND
 40
0.0
  9
$DIMDLE
 40
0.0
  9
$DIMEXE
 40
0.125
  9
$DIMTP
 40
0.01
  9
$DIMTM
 40
0.01
  9
$DIMTXT
 40
2.0
  9
$DIMCEN
 40
0.1052362205
  9
$DIMTSZ
 40
0.0
  9
$DIMTOL
 70
     1
  9
$DIMLIM
 70
     0
  9
$DIMTIH
 70
     1
  9
$DIMTOH
 70
     1
  9
$DIMSE1
 70
     0
  9
$DIMSE2
 70
     0
  9
$DIMTAD
 70
     0
  9
$DIMZIN
 70
     0
  9
$DIMBLK
  1

  9
$DIMASO
 70
     1
  9
$DIMSHO
 70
     1
  9
$DIMPOST
  1
\X
  9
$DIMAPOST
  1

  9
$DIMALT
 70
     1
  9
$DIMALTD
 70
     2
  9
$DIMALTF
 40
25.3999999999999986
  9
$DIMLFAC
 40
1.0
  9
$DIMTOFL
 70
     0
  9
$DIMTVP
 40
0.0
  9
$DIMTIX
 70
     0
  9
$DIMSOXD
 70
     0
  9
$DIMSAH
 70
     0
  9
$DIMBLK1
  1

  9
$DIMBLK2
  1

  9
$DIMSTYLE
  2
STANDARD
  9
$DIMCLRD
 70
     0
  9
$DIMCLRE
 70
     0
  9
$DIMCLRT
 70
     0
  9
$DIMTFAC
 40
1.0
  9
$DIMGAP
 40
0.09
  9
$LUNITS
 70
     2
  9
$LUPREC
 70
     4
  9
$SKETCHINC
 40
0.1
  9
$FILLETRAD
 40
0.0
  9
$AUNITS
 70
     0
  9
$AUPREC
 70
     0
  9
$MENU
  1
.
  9
$ELEVATION
 40
0.0
  9
$PELEVATION
 40
0.0
  9
$THICKNESS
 40
0.0
  9
$LIMCHECK
 70
     0
  9
$BLIPMODE
 70
     0
  9
$CHAMFERA
 40
0.0
  9
$CHAMFERB
 40
0.0
  9
$SKPOLY
 70
     0
  9
$TDCREATE
 40
2458060.468368056230247
  9
$TDUPDATE
 40
2460090.579386574216187
  9
$TDINDWG
 40
0.5811991898
  9
$TDUSRTIMER
 40
0.5811991898
  9
$USRTIMER
 70
     1
  9
$ANGBASE
 50
0.0
  9
$ANGDIR
 70
     0
  9
$PDMODE
 70
     0
  9
$PDSIZE
 40
0.3125
  9
$PLINEWID
 40
0.0
  9
$COORDS
 70
     1
  9
$SPLFRAME
 70
     0
  9
$SPLINETYPE
 70
     6
  9
$SPLINESEGS
 70
     8
  9
$ATTDIA
 70
     1
  9
$ATTREQ
 70
     1
  9
$HANDLING
 70
     1
  9
$HANDSEED
  5
11B1F
  9
$SURFTAB1
 70
     6
  9
$SURFTAB2
 70
     6
  9
$SURFTYPE
 70
     6
  9
$SURFU
 70
     6
  9
$SURFV
 70
     6
  9
$UCSNAME
  2

  9
$UCSORG
 10
0.0
 20
0.0
 30
0.0
  9
$UCSXDIR
 10
1.0
 20
0.0
 30
0.0
  9
$UCSYDIR
 10
0.0
 20
1.0
 30
0.0
  9
$PUCSNAME
  2

  9
$PUCSORG
 10
0.0
 20
0.0
 30
0.0
  9
$PUCSXDIR
 10
1.0
 20
0.0
 30
0.0
  9
$PUCSYDIR
 10
0.0
 20
1.0
 30
0.0
  9
$USERI1
 70
     0
  9
$USERI2
 70
     0
  9
$USERI3
 70
     0
  9
$USERI4
 70
     0
  9
$USERI5
 70
     0
  9
$USERR1
 40
0.0
  9
$USERR2
 40
0.0
  9
$USERR3
 40
0.0
  9
$USERR4
 40
0.0
  9
$USERR5
 40
0.0
  9
$WORLDVIEW
 70
     1
  9
$SHADEDGE
 70
     3
  9
$SHADEDIF
 70
    70
  9
$TILEMODE
 70
     1
  9
$MAXACTVP
 70
    64
  9
$PLIMCHECK
 70
     0
  9
$PEXTMIN
 10
1.0000000000000000E+20
 20
1.0000000000000000E+20
 30
1.0000000000000000E+20
  9
$PEXTMAX
 10
-1.0000000000000000E+20
 20
-1.0000000000000000E+20
 30
-1.0000000000000000E+20
  9
$PLIMMIN
 10
0.0
 20
0.0
  9
$PLIMMAX
 10
12.0
 20
9.0
  9
$UNITMODE
 70
     0
  9
$VISRETAIN
 70
     1
  9
$PLINEGEN
 70
     0
  9
$PSLTSCALE
 70
     1
  0
ENDSEC
  0
SECTION
  2
TABLES
  0
TABLE
  2
VPORT
 70
     1
  0
VPORT
  2
*ACTIVE
 70
     0
 10
0.0
 20
0.0
 11
1.0
 21
1.0
 12
904.8751837784584495
 22
108.7862607452932053
 13
0.0
 23
0.0
 14
1.0
 24
1.0
 15
0.0
 25
0.0
 16
0.0
 26
0.0
 36
17.1152628219792007
 17
3803.5440673828129547
 27
125.9952621967499056
 37
0.0
 40
31.95278132611449
 41
1.4307692307692299
 42
50.0
 43
0.0
 44
0.0
 50
0.0
 51
0.0
 71
     0
 72
   100
 73
     1
 74
     1
 75
     0
 76
     0
 77
     0
 78
     0
  0
ENDTAB
  0
TABLE
  2
LTYPE
 70
     2
  0
LTYPE
  2
CONTINUOUS
 70
     0
  3
Solid line
 72
    65
 73
     0
 40
0.0
  0
LTYPE
  2
PHANTOM2
 70
     0
  3
___ _ _ ___ _ _ ___ _ _ ___ _ _
 72
    65
 73
     6
 40
1.25
 49
0.625
 49
-0.125
 49
0.125
 49
-0.125
 49
0.125
 49
-0.125
  0
ENDTAB
  0
TABLE
  2
LAYER
 70
     2
  0
LAYER
  2
0
 70
     0
 62
   255
  6
CONTINUOUS
  0
LAYER
  2
DEFPOINTS
 70
     0
 62
     7
  6
CONTINUOUS
  0
ENDTAB
  0
TABLE
  2
STYLE
 70
     1
  0
STYLE
  2
STANDARD
 70
     0
 40
0.0
 41
0.8
 50
0.0
 71
     0
 42
0.2
  3
txt
  4

  0
ENDTAB
  0
TABLE
  2
VIEW
 70
     0
  0
ENDTAB
  0
TABLE
  2
UCS
 70
     0
  0
ENDTAB
  0
TABLE
  2
APPID
 70
     9
  0
APPID
  2
ACAD
 70
     0
  0
APPID
  2
ACAD_MLEADERVER
 70
     0
  0
APPID
  2
ACAD_EXEMPT_FROM_CAD_STANDARDS
 70
     0
  0
APPID
  2
ACAD_NAV_VCDISPLAY
 70
     0
  0
APPID
  2
ACAECLAYERSTANDARD
 70
     0
  0
APPID
  2
ACCMTRANSPARENCY
 70
     0
  0
APPID
  2
ACAD_DSTYLE_DIMJAG
 70
     0
  0
APPID
  2
ACAD_DSTYLE_DIMTALN
 70
     0
  0
APPID
  2
ACDBATTR
 70
     0
  0
ENDTAB
  0
TABLE
  2
DIMSTYLE
 70
     1
  0
DIMSTYLE
  2
STANDARD
 70
     0
  3

  4

  5

  6

  7

 40
1.0
 41
0.1875
 42
0.0625
 43
0.38
 44
0.125
 45
0.0
 46
0.0
 47
0.01
 48
0.01
140
0.15625
141
0.09
142
0.0
143
25.3999999999999986
144
1.0
145
0.0
146
1.0
147
0.09
 71
     1
 72
     0
 73
     1
 74
     1
 75
     0
 76
     0
 77
     0
 78
     4
170
     0
171
     2
172
     0
173
     0
174
     0
175
     0
176
     0
177
     0
178
     0
  0
ENDTAB
  0
ENDSEC
  0
SECTION
  2
BLOCKS
  0
BLOCK
  8
0
  2
$MODEL_SPACE
 70
     0
 10
0.0
 20
0.0
 30
0.0
  3
$MODEL_SPACE
  1

  0
ENDBLK
  5
21
  8
0
  0
BLOCK
 67
     1
  8
0
  2
$PAPER_SPACE
 70
     0
 10
0.0
 20
0.0
 30
0.0
  3
$PAPER_SPACE
  1

  0
ENDBLK
  5
1D
 67
     1
  8
0
  0
ENDSEC
  0
SECTION
  2
ENTITIES
  0
ATTDEF
  5
3930
  8
DEFPOINTS
 10
4708.4530773640035477
 20
234.7930818824827099
 30
0.0
 40
0.001
  1
K-33692K
  3

  2
MODELNUMBER
 70
     0
1001
ACDBATTR
1070
     0
1070
     1
  0
ATTDEF
  5
3931
  8
DEFPOINTS
 10
4708.4530773640035477
 20
234.7914152158159879
 30
0.0
 40
0.001
  1
GROOMING
  3

  2
TRADENAME
 70
     0
1001
ACDBATTR
1070
     0
1070
     1
  0
ATTDEF
  5
3932
  8
DEFPOINTS
 10
4708.4530773640035477
 20
234.7897485491492944
 30
0.0
 40
0.001
  1
MEDICINE CABINET
  3

  2
PRODUCT
 70
     0
1001
ACDBATTR
1070
     0
1070
     1
  0
LINE
  5
11A48
  8
0
 10
4726.0956355206253647
 20
250.635654108623811
 30
0.0
 11
4690.8200449694259078
 21
250.635654108623811
 31
0.0
  0
LINE
  5
11A49
  8
0
 10
4726.0365804025259422
 20
218.9427407228237996
 30
0.0
 11
4714.343667016625659
 21
218.9427407228237996
 31
0.0
  0
LINE
  5
11A4A
  8
0
 10
4714.2255567804259044
 20
219.1395911165238033
 30
0.0
 11
4690.8200449694259078
 21
219.1395911165238033
 31
0.0
  0
LINE
  5
11A4B
  8
0
 10
4690.8200449694259078
 20
250.635654108623811
 30
0.0
 11
4690.8200449694259078
 21
219.1395911165238033
 31
0.0
  0
LINE
  5
11A4C
  8
0
 10
4726.0365804025259422
 20
218.9427407228237996
 30
0.0
 11
4726.0365804025259422
 21
250.635654108623811
 31
0.0
  0
LINE
  5
11A4D
  8
0
 10
4726.0956355206253647
 20
250.635654108623811
 30
0.0
 11
4726.0956355206253647
 21
219.1395911165238033
 31
0.0
  0
LINE
  5
11A4E
  8
0
 10
4691.1586276466250638
 20
250.5175438724238006
 30
0.0
 11
4691.1586276466250638
 21
250.360063557423814
 31
0.0
  0
LINE
  5
11A4F
  8
0
 10
4691.1586276466250638
 20
250.5175438724238006
 30
0.0
 11
4690.8791000875253303
 21
250.5175438724238006
 31
0.0
  0
LINE
  5
11A50
  8
0
 10
4691.1546906387247873
 20
250.5175438724238006
 30
0.0
 11
4691.1546906387247873
 21
219.2380163133238113
 31
0.0
  0
LINE
  5
11A51
  8
0
 10
4691.1586276466250638
 20
219.2380163133238113
 30
0.0
 11
4690.8791000875253303
 21
219.2380163133238113
 31
0.0
  0
LINE
  5
11A52
  8
0
 10
4691.1586276466250638
 20
220.1238430850237933
 30
0.0
 11
4691.1586276466250638
 21
219.2380163133238113
 31
0.0
  0
LINE
  5
11A53
  8
0
 10
4691.1546906387247873
 20
220.0332919039238107
 30
0.0
 11
4691.1586276466250638
 21
220.0332919039238107
 31
0.0
  0
LINE
  5
11A54
  8
0
 10
4690.8791000875253303
 20
250.6159691003238095
 30
0.0
 11
4690.8791000875253303
 21
219.1395911165238033
 31
0.0
  0
ARC
  5
11A55
  8
0
 10
4690.8987851269248495
 20
250.615969069223496
 30
0.0
 40
0.019685039400544
 50
89.9996836165204428
 51
179.9999094788286129
  0
LINE
  5
11A56
  8
0
 10
4713.9460292214253059
 20
250.5175438724238006
 30
0.0
 11
4713.9460292214253059
 21
250.360063557423814
 31
0.0
  0
LINE
  5
11A57
  8
0
 10
4713.9460292214253059
 20
250.5175438724238006
 30
0.0
 11
4714.2255567805250394
 21
250.5175438724238006
 31
0.0
  0
ARC
  5
11A58
  8
0
 10
4714.2058717411237012
 20
250.6159690692236097
 30
0.0
 40
0.0196850394005063
 50
0.0000718361997848
 51
90.0003163835316684
  0
ARC
  5
11A59
  8
0
 10
4714.1595629781013486
 20
250.5894588705691035
 30
0.0
 40
0.0479214938977064
 50
105.4254359405991011
 51
126.9017149284852053
  0
LINE
  5
11A5A
  8
0
 10
4714.1307887969251169
 20
250.627780092823798
 30
0.0
 11
4690.9699310632258857
 21
250.627780092823798
 31
0.0
  0
ARC
  5
11A5B
  8
0
 10
4690.9409525117671365
 20
250.5890428685156053
 30
0.0
 40
0.0483769469038103
 50
53.2005640688007873
 51
74.4722844861957469
  0
LINE
  5
11A5C
  8
0
 10
4691.1586276466250638
 20
250.360063557423814
 30
0.0
 11
4713.9460292214253059
 21
250.360063557423814
 31
0.0
  0
LINE
  5
11A5D
  8
0
 10
4713.9499662293246729
 20
250.5175438724238006
 30
0.0
 11
4713.9499662293246729
 21
219.2380163133238113
 31
0.0
  0
LINE
  5
11A5E
  8
0
 10
4714.2255567804259044
 20
219.1395911165238033
 30
0.0
 11
4714.2255567805250394
 21
250.6159690939043116
 31
0.0
  0
LINE
  5
11A5F
  8
0
 10
4714.343667016625659
 20
250.635654108623811
 30
0.0
 11
4714.343667016625659
 21
226.9348667070237866
 31
0.0
  0
LINE
  5
11A60
  8
0
 10
4714.343667016625659
 20
226.9348667070237866
 30
0.0
 11
4726.0365804025259422
 21
226.9348667070237866
 31
0.0
  0
LINE
  5
11A61
  8
0
 10
4714.343667016625659
 20
226.7419533212238036
 30
0.0
 11
4726.0365804025259422
 21
226.7419533212238036
 31
0.0
  0
LINE
  5
11A62
  8
0
 10
4714.6231945757253925
 20
227.0332919039238107
 30
0.0
 11
4714.6231945757253925
 21
227.3088824550237916
 31
0.0
  0
LINE
  5
11A63
  8
0
 10
4714.6231945757253925
 20
227.3088824550237916
 30
0.0
 11
4725.7570528434252992
 21
227.3088824550237916
 31
0.0
  0
LINE
  5
11A64
  8
0
 10
4714.6231945757253925
 20
227.0332919039238107
 30
0.0
 11
4714.343667016625659
 21
227.0332919039238107
 31
0.0
  0
LINE
  5
11A65
  8
0
 10
4714.343667016625659
 20
250.537228911723787
 30
0.0
 11
4714.6231945757253925
 21
250.537228911723787
 31
0.0
  0
LINE
  5
11A66
  8
0
 10
4714.6231945757253925
 20
250.537228911723787
 30
0.0
 11
4714.6231945757253925
 21
250.360063557423814
 31
0.0
  0
LINE
  5
11A67
  8
0
 10
4714.6192575678242065
 20
250.537228911723787
 30
0.0
 11
4714.6192575678242065
 21
227.0332919039238107
 31
0.0
  0
LINE
  5
11A68
  8
0
 10
4725.7570528434252992
 20
227.0332919039238107
 30
0.0
 11
4725.7570528434252992
 21
227.3088824550237916
 31
0.0
  0
LINE
  5
11A69
  8
0
 10
4725.7570528434252992
 20
227.0332919039238107
 30
0.0
 11
4726.0365804025259422
 21
227.0332919039238107
 31
0.0
  0
LINE
  5
11A6A
  8
0
 10
4726.0365804025259422
 20
250.537228911723787
 30
0.0
 11
4725.7570528434252992
 21
250.537228911723787
 31
0.0
  0
LINE
  5
11A6B
  8
0
 10
4725.7609898513255757
 20
250.537228911723787
 30
0.0
 11
4725.7609898513255757
 21
227.0332919039238107
 31
0.0
  0
LINE
  5
11A6C
  8
0
 10
4725.7570528434252992
 20
250.537228911723787
 30
0.0
 11
4725.7570528434252992
 21
250.360063557423814
 31
0.0
  0
LINE
  5
11A6D
  8
0
 10
4725.7570528434252992
 20
250.360063557423814
 30
0.0
 11
4714.6231945757253925
 21
250.360063557423814
 31
0.0
  0
LINE
  5
11A6E
  8
0
 10
4714.2255567804259044
 20
249.9466777306238043
 30
0.0
 11
4714.343667016625659
 21
249.9466777306238043
 31
0.0
  0
LINE
  5
11A6F
  8
0
 10
4714.9775252844247007
 20
226.9348667070237866
 30
0.0
 11
4714.9775252844247007
 21
226.7419533212238036
 31
0.0
  0
LINE
  5
11A70
  8
0
 10
4715.012958355225237
 20
226.9348667070237866
 30
0.0
 11
4715.012958355225237
 21
226.7419533212238036
 31
0.0
  0
LINE
  5
11A71
  8
0
 10
4716.2531158355259322
 20
226.9348667070237866
 30
0.0
 11
4716.2531158355259322
 21
227.210457258223812
 31
0.0
  0
LINE
  5
11A72
  8
0
 10
4716.2531158355259322
 20
227.210457258223812
 30
0.0
 11
4724.1271315836247595
 21
227.210457258223812
 31
0.0
  0
LINE
  5
11A73
  8
0
 10
4724.1271315836247595
 20
227.210457258223812
 30
0.0
 11
4724.1271315836247595
 21
226.9348667070237866
 31
0.0
  0
LINE
  5
11A74
  8
0
 10
4725.4027221347259911
 20
226.9348667070237866
 30
0.0
 11
4725.4027221347259911
 21
226.7419533212238036
 31
0.0
  0
LINE
  5
11A75
  8
0
 10
4725.3672890639263642
 20
226.9348667070237866
 30
0.0
 11
4725.3672890639263642
 21
226.7419533212238036
 31
0.0
  0
ARC
  5
11A76
  8
0
 10
4723.3987851269248495
 20
226.8206934787237969
 30
0.0
 40
0.3700787402000003
 50
162.030502464632491
 51
192.2844938580284975
  0
ARC
  5
11A77
  8
0
 10
4723.3987851269248495
 20
226.8206934787237969
 30
0.0
 40
0.3700787402000003
 50
347.7155061419715025
 51
17.9694975353674309
  0
ARC
  5
11A78
  8
0
 10
4723.3987851269248495
 20
226.8206934787237969
 30
0.0
 40
0.3070866141999993
 50
158.1736456766082881
 51
194.857165547400399
  0
ARC
  5
11A79
  8
0
 10
4723.3987851269248495
 20
226.8206934787237969
 30
0.0
 40
0.3070866141999993
 50
345.1428344525995158
 51
21.8263543233917083
  0
LINE
  5
11A7A
  8
0
 10
4716.2531158355259322
 20
226.7419533212238036
 30
0.0
 11
4716.2531158355259322
 21
226.4663627700238067
 31
0.0
  0
LINE
  5
11A7B
  8
0
 10
4714.6192575678242065
 20
226.4663627700238067
 30
0.0
 11
4725.7609898513255757
 21
226.4663627700238067
 31
0.0
  0
LINE
  5
11A7C
  8
0
 10
4724.1271315836247595
 20
226.4663627700238067
 30
0.0
 11
4724.1271315836247595
 21
226.7419533212238036
 31
0.0
  0
LINE
  5
11A7D
  8
0
 10
4714.6192575678242065
 20
226.643528124323808
 30
0.0
 11
4714.343667016625659
 21
226.643528124323808
 31
0.0
  0
LINE
  5
11A7E
  8
0
 10
4714.6192575678242065
 20
219.0411659196238077
 30
0.0
 11
4714.6192575678242065
 21
226.643528124323808
 31
0.0
  0
LINE
  5
11A7F
  8
0
 10
4714.343667016625659
 20
226.7419533212238036
 30
0.0
 11
4714.343667016625659
 21
218.9427407228237996
 31
0.0
  0
LINE
  5
11A80
  8
0
 10
4714.6192575678242065
 20
219.0411659196238077
 30
0.0
 11
4714.343667016625659
 21
219.0411659196238077
 31
0.0
  0
LINE
  5
11A81
  8
0
 10
4713.9460292214253059
 20
219.2380163133238113
 30
0.0
 11
4714.2255567804259044
 21
219.2380163133238113
 31
0.0
  0
LINE
  5
11A82
  8
0
 10
4713.9460292214253059
 20
219.2380163133238113
 30
0.0
 11
4713.9460292214253059
 21
220.1238430850237933
 31
0.0
  0
LINE
  5
11A83
  8
0
 10
4713.9460292214253059
 20
220.1238430850237933
 30
0.0
 11
4691.1586276466250638
 21
220.1238430850237933
 31
0.0
  0
LINE
  5
11A84
  8
0
 10
4713.9460292214253059
 20
220.0332919039238107
 30
0.0
 11
4713.9499662293246729
 21
220.0332919039238107
 31
0.0
  0
LINE
  5
11A85
  8
0
 10
4713.9460292214253059
 20
220.0057328487237953
 30
0.0
 11
4713.9499662293246729
 21
220.0057328487237953
 31
0.0
  0
ARC
  5
11A86
  8
0
 10
4714.177014234546732
 20
219.1934503441493973
 30
0.0
 40
0.0569111853328799
 50
227.6326109924912942
 51
251.1510026818289987
  0
LINE
  5
11A87
  8
0
 10
4714.1386628127247604
 20
219.1514021401237926
 30
0.0
 11
4714.1386628127247604
 21
250.5175438724238006
 31
0.0
  0
LINE
  5
11A88
  8
0
 10
4725.7609898513255757
 20
226.643528124323808
 30
0.0
 11
4725.7609898513255757
 21
219.0411659196238077
 31
0.0
  0
LINE
  5
11A89
  8
0
 10
4725.7609898513255757
 20
226.643528124323808
 30
0.0
 11
4726.0365804025259422
 21
226.643528124323808
 31
0.0
  0
LINE
  5
11A8A
  8
0
 10
4725.7609898513255757
 20
219.0411659196238077
 30
0.0
 11
4726.0365804025259422
 21
219.0411659196238077
 31
0.0
  0
LINE
  5
11A8B
  8
0
 10
4714.6192575678242065
 20
219.9073076519237873
 30
0.0
 11
4725.7609898513255757
 21
219.9073076519237873
 31
0.0
  0
LINE
  5
11A8C
  8
0
 10
4726.0365804025259422
 20
219.1395911165238033
 30
0.0
 11
4726.0956355206253647
 21
219.1395911165238033
 31
0.0
  0
LINE
  5
11A8D
  8
0
 10
4714.2255567804268139
 20
219.8482525338237963
 30
0.0
 11
4714.343667016625659
 21
219.8482525338237963
 31
0.0
  0
LINE
  5
11A8E
  8
0
 10
4714.2255567804259044
 20
219.5136068645238083
 30
0.0
 11
4714.343667016625659
 21
219.5136068645238083
 31
0.0
  0
LINE
  5
11A8F
  8
0
 10
4714.2255567804259044
 20
219.3561265495237933
 30
0.0
 11
4714.343667016625659
 21
219.3561265495237933
 31
0.0
  0
LINE
  5
11A90
  8
0
 10
4690.9659940553246997
 20
219.1514021402186927
 30
0.0
 11
4690.9460292214298534
 21
219.1395911165238033
 31
0.0
  0
LINE
  5
11A91
  8
0
 10
4690.9659940553246997
 20
219.1514021402186927
 30
0.0
 11
4690.9659940553246997
 21
250.5175438724238006
 31
0.0
  0
LINE
  5
11A92
  8
0
 10
4690.9699310632258857
 20
250.627780092823798
 30
0.0
 11
4690.9699310632258857
 21
250.5175438724238006
 31
0.0
  0
LINE
  5
11A93
  8
0
 10
4691.1546906387247873
 20
250.4899848172238137
 30
0.0
 11
4691.1586276466250638
 21
250.4899848172238137
 31
0.0
  0
LINE
  5
11A94
  8
0
 10
4713.9460292214253059
 20
250.4899848172238137
 30
0.0
 11
4713.9499662293246729
 21
250.4899848172238137
 31
0.0
  0
LINE
  5
11A95
  8
0
 10
4714.1307887969251169
 20
250.627780092823798
 30
0.0
 11
4714.1307887969251169
 21
250.5175438724238006
 31
0.0
  0
LINE
  5
11A96
  8
0
 10
4692.1487851269248495
 20
249.3758115889237956
 30
0.0
 11
4712.9558717411246107
 21
249.3758115889237956
 31
0.0
  0
LINE
  5
11A97
  8
0
 10
4712.9558717411246107
 20
249.3758115889237956
 30
0.0
 11
4712.9558717411246107
 21
221.1474651322238003
 31
0.0
  0
LINE
  5
11A98
  8
0
 10
4712.9558717411246107
 20
221.1474651322238003
 30
0.0
 11
4692.1487851269248495
 21
221.1474651322238003
 31
0.0
  0
LINE
  5
11A99
  8
0
 10
4692.1487851269248495
 20
221.1474651322238003
 30
0.0
 11
4692.1487851269248495
 21
249.3758115889237956
 31
0.0
  0
ENDSEC
  0
EOF
