  0
SECTION
  2
HEADER
  9
$ACADVER
  1
AC1009
  9
$INSBASE
 10
6688.4418736989828176
 20
293.511811422411995
 30
0.0
  9
$EXTMIN
 10
6687.4969918091828731
 20
293.5065649118628812
 30
0.0
  9
$EXTMAX
 10
6689.3867555887818526
 20
303.7579785058842958
 30
0.0
  9
$LIMMIN
 10
0.0
 20
0.0
  9
$LIMMAX
 10
11.6929133858000007
 20
8.2677165353999982
  9
$ORTHOMODE
 70
     0
  9
$REGENMODE
 70
     1
  9
$FILLMODE
 70
     1
  9
$QTEXTMODE
 70
     0
  9
$MIRRTEXT
 70
     0
  9
$DRAGMODE
 70
     2
  9
$LTSCALE
 40
0.6431102362
  9
$OSMODE
 70
  4095
  9
$ATTMODE
 70
     1
  9
$TEXTSIZE
 40
0.2
  9
$TRACEWID
 40
0.05
  9
$TEXTSTYLE
  7
STANDARD
  9
$CLAYER
  8
0
  9
$CELTYPE
  6
BYLAYER
  9
$CECOLOR
 62
   256
  9
$DIMSCALE
 40
1.0
  9
$DIMASZ
 40
0.1875
  9
$DIMEXO
 40
0.0625
  9
$DIMDLI
 40
0.4443307087
  9
$DIMRND
 40
0.0
  9
$DIMDLE
 40
0.0
  9
$DIMEXE
 40
0.125
  9
$DIMTP
 40
0.01
  9
$DIMTM
 40
0.01
  9
$DIMTXT
 40
2.0
  9
$DIMCEN
 40
0.1052362205
  9
$DIMTSZ
 40
0.0
  9
$DIMTOL
 70
     1
  9
$DIMLIM
 70
     0
  9
$DIMTIH
 70
     1
  9
$DIMTOH
 70
     1
  9
$DIMSE1
 70
     0
  9
$DIMSE2
 70
     0
  9
$DIMTAD
 70
     0
  9
$DIMZIN
 70
     0
  9
$DIMBLK
  1

  9
$DIMASO
 70
     1
  9
$DIMSHO
 70
     1
  9
$DIMPOST
  1
\X
  9
$DIMAPOST
  1

  9
$DIMALT
 70
     1
  9
$DIMALTD
 70
     2
  9
$DIMALTF
 40
25.3999999999999986
  9
$DIMLFAC
 40
1.0
  9
$DIMTOFL
 70
     0
  9
$DIMTVP
 40
0.0
  9
$DIMTIX
 70
     0
  9
$DIMSOXD
 70
     0
  9
$DIMSAH
 70
     0
  9
$DIMBLK1
  1

  9
$DIMBLK2
  1

  9
$DIMSTYLE
  2
STANDARD
  9
$DIMCLRD
 70
     0
  9
$DIMCLRE
 70
     0
  9
$DIMCLRT
 70
     0
  9
$DIMTFAC
 40
1.0
  9
$DIMGAP
 40
0.09
  9
$LUNITS
 70
     2
  9
$LUPREC
 70
     4
  9
$SKETCHINC
 40
0.1
  9
$FILLETRAD
 40
0.0
  9
$AUNITS
 70
     0
  9
$AUPREC
 70
     0
  9
$MENU
  1
.
  9
$ELEVATION
 40
0.0
  9
$PELEVATION
 40
0.0
  9
$THICKNESS
 40
0.0
  9
$LIMCHECK
 70
     0
  9
$BLIPMODE
 70
     0
  9
$CHAMFERA
 40
0.0
  9
$CHAMFERB
 40
0.0
  9
$SKPOLY
 70
     0
  9
$TDCREATE
 40
2458060.468368056230247
  9
$TDUPDATE
 40
2460363.7890393519774079
  9
$TDINDWG
 40
1.1489885417000001
  9
$TDUSRTIMER
 40
1.1489885417000001
  9
$USRTIMER
 70
     1
  9
$ANGBASE
 50
0.0
  9
$ANGDIR
 70
     0
  9
$PDMODE
 70
     0
  9
$PDSIZE
 40
0.3125
  9
$PLINEWID
 40
0.0
  9
$COORDS
 70
     1
  9
$SPLFRAME
 70
     0
  9
$SPLINETYPE
 70
     6
  9
$SPLINESEGS
 70
     8
  9
$ATTDIA
 70
     1
  9
$ATTREQ
 70
     1
  9
$HANDLING
 70
     1
  9
$HANDSEED
  5
31A83
  9
$SURFTAB1
 70
     6
  9
$SURFTAB2
 70
     6
  9
$SURFTYPE
 70
     6
  9
$SURFU
 70
     6
  9
$SURFV
 70
     6
  9
$UCSNAME
  2

  9
$UCSORG
 10
0.0
 20
0.0
 30
0.0
  9
$UCSXDIR
 10
1.0
 20
0.0
 30
0.0
  9
$UCSYDIR
 10
0.0
 20
1.0
 30
0.0
  9
$PUCSNAME
  2

  9
$PUCSORG
 10
0.0
 20
0.0
 30
0.0
  9
$PUCSXDIR
 10
1.0
 20
0.0
 30
0.0
  9
$PUCSYDIR
 10
0.0
 20
1.0
 30
0.0
  9
$USERI1
 70
     0
  9
$USERI2
 70
     0
  9
$USERI3
 70
     0
  9
$USERI4
 70
     0
  9
$USERI5
 70
     0
  9
$USERR1
 40
0.0
  9
$USERR2
 40
0.0
  9
$USERR3
 40
0.0
  9
$USERR4
 40
0.0
  9
$USERR5
 40
0.0
  9
$WORLDVIEW
 70
     1
  9
$SHADEDGE
 70
     3
  9
$SHADEDIF
 70
    70
  9
$TILEMODE
 70
     1
  9
$MAXACTVP
 70
    64
  9
$PLIMCHECK
 70
     0
  9
$PEXTMIN
 10
1.0000000000000000E+20
 20
1.0000000000000000E+20
 30
1.0000000000000000E+20
  9
$PEXTMAX
 10
-1.0000000000000000E+20
 20
-1.0000000000000000E+20
 30
-1.0000000000000000E+20
  9
$PLIMMIN
 10
0.0
 20
0.0
  9
$PLIMMAX
 10
12.0
 20
9.0
  9
$UNITMODE
 70
     0
  9
$VISRETAIN
 70
     1
  9
$PLINEGEN
 70
     0
  9
$PSLTSCALE
 70
     1
  0
ENDSEC
  0
SECTION
  2
TABLES
  0
TABLE
  2
VPORT
 70
     1
  0
VPORT
  2
*ACTIVE
 70
     0
 10
0.0
 20
0.0
 11
1.0
 21
1.0
 12
2777.0765172536698628
 22
166.0526666063344976
 13
0.0
 23
0.0
 14
1.0
 24
1.0
 15
0.0
 25
0.0
 16
0.0
 26
0.0
 36
60.4960186965801583
 17
3911.3653564453120453
 27
132.5796051025390057
 37
0.0
 40
10.3441865677229394
 41
2.8610271903323259
 42
50.0
 43
0.0
 44
0.0
 50
0.0
 51
0.0
 71
     0
 72
   100
 73
     1
 74
     1
 75
     0
 76
     0
 77
     0
 78
     0
  0
ENDTAB
  0
TABLE
  2
LTYPE
 70
     2
  0
LTYPE
  2
CONTINUOUS
 70
     0
  3
Solid line
 72
    65
 73
     0
 40
0.0
  0
LTYPE
  2
PHANTOM2
 70
     0
  3
___ _ _ ___ _ _ ___ _ _ ___ _ _
 72
    65
 73
     6
 40
1.25
 49
0.625
 49
-0.125
 49
0.125
 49
-0.125
 49
0.125
 49
-0.125
  0
ENDTAB
  0
TABLE
  2
LAYER
 70
     2
  0
LAYER
  2
0
 70
     0
 62
   255
  6
CONTINUOUS
  0
LAYER
  2
DEFPOINTS
 70
     0
 62
     7
  6
CONTINUOUS
  0
ENDTAB
  0
TABLE
  2
STYLE
 70
     1
  0
STYLE
  2
STANDARD
 70
     0
 40
0.0
 41
0.8
 50
0.0
 71
     0
 42
0.2
  3
txt
  4

  0
ENDTAB
  0
TABLE
  2
VIEW
 70
     0
  0
ENDTAB
  0
TABLE
  2
UCS
 70
     0
  0
ENDTAB
  0
TABLE
  2
APPID
 70
    11
  0
APPID
  2
ACAD
 70
     0
  0
APPID
  2
ACAD_MLEADERVER
 70
     0
  0
APPID
  2
ACAD_EXEMPT_FROM_CAD_STANDARDS
 70
     0
  0
APPID
  2
ACAD_NAV_VCDISPLAY
 70
     0
  0
APPID
  2
ACAECLAYERSTANDARD
 70
     0
  0
APPID
  2
ACCMTRANSPARENCY
 70
     0
  0
APPID
  2
ACAD_DSTYLE_DIMJAG
 70
     0
  0
APPID
  2
ACAD_DSTYLE_DIMTALN
 70
     0
  0
APPID
  2
ACDBATTR
 70
     0
  0
APPID
  2
ACADANNOTATIVE
 70
     0
  0
APPID
  2
DCO15
 70
     0
  0
ENDTAB
  0
TABLE
  2
DIMSTYLE
 70
     1
  0
DIMSTYLE
  2
STANDARD
 70
     0
  3

  4

  5

  6

  7

 40
1.0
 41
0.1875
 42
0.0625
 43
0.38
 44
0.125
 45
0.0
 46
0.0
 47
0.01
 48
0.01
140
0.15625
141
0.09
142
0.0
143
25.3999999999999986
144
1.0
145
0.0
146
1.0
147
0.09
 71
     1
 72
     0
 73
     1
 74
     1
 75
     0
 76
     0
 77
     0
 78
     4
170
     0
171
     2
172
     0
173
     0
174
     0
175
     0
176
     0
177
     0
178
     0
  0
ENDTAB
  0
ENDSEC
  0
SECTION
  2
BLOCKS
  0
BLOCK
  8
0
  2
$MODEL_SPACE
 70
     0
 10
0.0
 20
0.0
 30
0.0
  3
$MODEL_SPACE
  1

  0
ENDBLK
  5
21
  8
0
  0
BLOCK
 67
     1
  8
0
  2
$PAPER_SPACE
 70
     0
 10
0.0
 20
0.0
 30
0.0
  3
$PAPER_SPACE
  1

  0
ENDBLK
  5
1D
 67
     1
  8
0
  0
BLOCK
  8
0
  2
_FILLED
 70
     0
 10
0.0
 20
0.0
 30
0.0
  3
_FILLED
  1

  0
SOLID
  5
2EA64
  8
0
  6
BYBLOCK
 62
     0
 10
0.0
 20
0.0
 30
0.0
 11
-1.0
 21
0.1666666667
 31
0.0
 12
-1.0
 22
-0.1666666667
 32
0.0
 13
-1.0
 23
-0.1666666667
 33
0.0
  0
ENDBLK
  5
2EA65
  8
0
  6
BYBLOCK
 62
     0
  0
ENDSEC
  0
SECTION
  2
ENTITIES
  0
ATTDEF
  5
26A5B
  8
DEFPOINTS
 10
6688.4427592230476876
 20
293.5098982451962115
 30
0.0
 40
0.001
  1
K-33822T-4
  3

  2
MODELNUMBER
 70
     0
1001
ACDBATTR
1070
     0
1070
     1
  0
ATTDEF
  5
26A5C
  8
DEFPOINTS
 10
6688.4426334133922865
 20
293.5082314048170815
 30
0.0
 40
0.001
  1

  3

  2
TRADENAME
 70
     0
1001
ACDBATTR
1070
     0
1070
     1
  0
ATTDEF
  5
26A5D
  8
DEFPOINTS
 10
6688.4427592230476876
 20
293.5065649118628812
 30
0.0
 40
0.001
  1
BATHROOM SINK FAUCET
  3

  2
PRODUCT
 70
     0
1001
ACDBATTR
1070
     0
1070
     1
  0
ARC
  5
314E2
  8
0
 10
6688.4177286996864495
 20
299.9686704643219741
 30
0.0
 40
2.3201658129351039
 50
92.661550866199434
 51
95.3428975946672495
  0
ARC
  5
314E3
  8
0
 10
6688.3211507813757635
 20
301.0631917404622868
 30
0.0
 40
1.2214205683979169
 50
95.613057749942584
 51
102.8400244775048975
  0
ARC
  5
314E4
  8
0
 10
6688.2325280533577825
 20
301.4540862225970272
 30
0.0
 40
0.8206061888850756
 50
102.8722597017690958
 51
108.5760182030226986
  0
ARC
  5
314E5
  8
0
 10
6688.1019052289511819
 20
301.8427621731149202
 30
0.0
 40
0.4105679994846814
 50
108.5760182030226986
 51
119.0572679947923973
  0
ARC
  5
314E6
  8
0
 10
6687.9985386874823234
 20
302.0288015724576098
 30
0.0
 40
0.1977410744885573
 50
119.0572679947923973
 51
138.4046914210937018
  0
ARC
  5
314E7
  8
0
 10
6687.9420245147939568
 20
302.0789689284537189
 30
0.0
 40
0.1221724611481505
 50
138.4046914210937018
 51
158.7469915042231889
  0
ARC
  5
314E8
  8
0
 10
6696.1366219769506642
 20
299.9253376674387823
 30
0.0
 40
8.5942632819841513
 50
165.1824220007835891
 51
166.9567853820749121
  0
ARC
  5
314E9
  8
0
 10
6688.496857200316299
 20
297.9015252647099032
 30
0.0
 40
3.7788269982196652
 50
90.8337067939184806
 51
92.3466293186990157
  0
ARC
  5
314EA
  8
0
 10
6688.4335776613233975
 20
299.9662434095918115
 30
0.0
 40
1.7133819074156409
 50
93.059368914322377
 51
95.6110160609207043
  0
ARC
  5
314EB
  8
0
 10
6688.3985174595991339
 20
300.3231084949932779
 30
0.0
 40
1.3547987135491311
 50
95.6110160609207043
 51
102.1182897925373965
  0
ARC
  5
314EC
  8
0
 10
6688.2809581243509456
 20
300.8706210195181256
 30
0.0
 40
0.7948074977111246
 50
102.1182897925373965
 51
108.8668393796234
  0
ARC
  5
314ED
  8
0
 10
6688.1601179911913277
 20
301.2242338603040253
 30
0.0
 40
0.4211172798159082
 50
108.8668393796234
 51
119.9325147733620014
  0
ARC
  5
314EE
  8
0
 10
6688.016057615198406
 20
301.4744338586170898
 30
0.0
 40
0.1324073369888611
 50
119.9325147733620014
 51
141.3867229388108058
  0
ARC
  5
314EF
  8
0
 10
6687.9612583612679373
 20
301.5164273805539779
 30
0.0
 40
0.0633971535606596
 50
140.1346140659543948
 51
165.3924972773862976
  0
ARC
  5
314F0
  8
0
 10
6687.9579720421616003
 20
301.518629291198522
 30
0.0
 40
0.0596759514861068
 50
166.642608316189893
 51
190.8671497581775895
  0
ARC
  5
314F1
  8
0
 10
6687.9832656792195849
 20
301.5217304631436264
 30
0.0
 40
0.0851181113017892
 50
189.7071876846007967
 51
220.1979056396043859
  0
ARC
  5
314F2
  8
0
 10
6688.0549990541376246
 20
301.5886965909717787
 30
0.0
 40
0.1831956461260364
 50
221.7153272430070956
 51
245.3701281136337116
  0
ARC
  5
314F3
  8
0
 10
6688.2314071578311996
 20
301.9677058875485045
 30
0.0
 40
0.6012460073213428
 50
245.1410024699677024
 51
258.4941523750759984
  0
ARC
  5
314F4
  8
0
 10
6688.3654564463740826
 20
302.5002542020704936
 30
0.0
 40
1.1501055163083009
 50
257.2421719523489969
 51
265.959159785858219
  0
ARC
  5
314F5
  8
0
 10
6688.4491261798157211
 20
303.9667314808640981
 30
0.0
 40
2.6189086748102759
 50
266.3940336176406731
 51
268.1125459974044816
  0
ARC
  5
314F6
  8
0
 10
6688.0858206706870988
 20
283.2527808422926796
 30
0.0
 40
18.0985834622196506
 50
88.8727486885345428
 51
89.1228972860571957
  0
ARC
  5
314F7
  8
0
 10
6688.4871232623227115
 20
298.7557273710303889
 30
0.0
 40
2.9180574708703229
 50
90.888506461565612
 51
93.3159329164941767
  0
ARC
  5
314F8
  8
0
 10
6688.4236423936126812
 20
300.248106323855211
 30
0.0
 40
1.424690077850332
 50
94.2388192154536029
 51
98.6007360117231144
  0
ARC
  5
314F9
  8
0
 10
6688.3672875971487883
 20
300.6207026785211269
 30
0.0
 40
1.04785602074456
 50
98.6007360117231144
 51
104.0977133819831977
  0
ARC
  5
314FA
  8
0
 10
6688.2912968630762407
 20
300.9232855802827089
 30
0.0
 40
0.7358768481971872
 50
104.0977133819831977
 51
109.8314409317291052
  0
ARC
  5
314FB
  8
0
 10
6688.1903580224916368
 20
301.2031720012594178
 30
0.0
 40
0.4383452394797602
 50
109.8314409317291052
 51
118.7463835335481974
  0
ARC
  5
314FC
  8
0
 10
6688.0688059156873351
 20
301.4247654022352094
 30
0.0
 40
0.1856031772415047
 50
118.7463835335481974
 51
136.4997322990018915
  0
ARC
  5
314FD
  8
0
 10
6687.99395268266926
 20
301.495799132756872
 30
0.0
 40
0.0824101669890182
 50
136.4997322990018915
 51
160.0878981080444987
  0
ARC
  5
314FE
  8
0
 10
6687.9809798859314469
 20
301.5058803639943221
 30
0.0
 40
0.0669709359334884
 50
164.4212647795175997
 51
211.1894737210382971
  0
ARC
  5
314FF
  8
0
 10
6688.0423059059630759
 20
301.5558781386104101
 30
0.0
 40
0.145741829709124
 50
215.5228403925243867
 51
244.9292820743123116
  0
ARC
  5
31500
  8
0
 10
6688.2804903820278923
 20
302.0785257344599017
 30
0.0
 40
0.7200986265477793
 50
245.3844756999868935
 51
256.425620005262374
  0
ARC
  5
31501
  8
0
 10
6688.5035840928812831
 20
299.5751160284327739
 30
0.0
 40
2.0272341884211511
 50
91.74439215167925
 51
95.7730110390173479
  0
ARC
  5
31502
  8
0
 10
6688.4024009184431634
 20
300.8336292043774733
 30
0.0
 40
0.7653652227949994
 50
97.7138383081508834
 51
103.8479698466333048
  0
ARC
  5
31503
  8
0
 10
6688.3244959691619442
 20
301.1496589000865924
 30
0.0
 40
0.4398749008309595
 50
103.8479698466333048
 51
112.5760999183548989
  0
ARC
  5
31504
  8
0
 10
6688.2350851262408469
 20
301.3647074515544091
 30
0.0
 40
0.2069796919483002
 50
112.5760999183548989
 51
125.0745235188446003
  0
ARC
  5
31505
  8
0
 10
6688.1674568143489523
 20
301.4610238135165901
 30
0.0
 40
0.0892918414668551
 50
125.0745235188446003
 51
142.3152067759299086
  0
ARC
  5
31506
  8
0
 10
6688.13205982197087
 20
301.4883667146488051
 30
0.0
 40
0.0445639831260654
 50
142.3152067759299086
 51
177.364002527791996
  0
ARC
  5
31507
  8
0
 10
6688.1770908925327603
 20
301.4953392550156082
 30
0.0
 40
0.0896831218962085
 50
183.1467445577848139
 51
235.2352145838162016
  0
ARC
  5
31508
  8
0
 10
6688.2808585542052242
 20
301.6298039993826023
 30
0.0
 40
0.2594567615308994
 50
233.3418865644808022
 51
257.452864161332684
  0
ARC
  5
31509
  8
0
 10
6688.3962504818618982
 20
302.0329924739227181
 30
0.0
 40
0.6785465997100771
 50
255.3374968096634063
 51
261.7702224456410818
  0
ARC
  5
3150A
  8
0
 10
6688.4360582465360494
 20
302.3082258825157282
 30
0.0
 40
0.9566438620736057
 50
261.7702224456410818
 51
266.2912725686633735
  0
ARC
  5
3150B
  8
0
 10
6689.3564077572345923
 20
330.9683611686282916
 30
0.0
 40
29.6310599813273114
 50
268.1003747874830196
 51
268.2313402063472836
  0
ARC
  5
3150C
  8
0
 10
6688.4641860973979419
 20
300.270911560486411
 30
0.0
 40
1.386218543090886
 50
90.9222654492824773
 51
97.3939883221321736
  0
ARC
  5
3150D
  8
0
 10
6688.382262443912623
 20
300.9964251476283152
 30
0.0
 40
0.6563069711282044
 50
98.452567355284188
 51
107.6508629034296973
  0
ARC
  5
3150E
  8
0
 10
6688.2643776289678499
 20
301.3669037490035976
 30
0.0
 40
0.267525253873722
 50
107.6508629034296973
 51
123.8163123030663968
  0
ARC
  5
3150F
  8
0
 10
6688.1566301024449785
 20
301.5277559984037907
 30
0.0
 40
0.0739200483419148
 50
123.8163123030663968
 51
143.8724972595126985
  0
ARC
  5
31510
  8
0
 10
6688.1433680044001449
 20
301.5374366411525102
 30
0.0
 40
0.0575006059462297
 50
143.8724972595126985
 51
160.0080593399696909
  0
ARC
  5
31511
  8
0
 10
6688.1199815565923927
 20
301.5459448868604113
 30
0.0
 40
0.0326145418510164
 50
160.0080593399696909
 51
180.0
  0
LINE
  5
31512
  8
0
 10
6688.0873670147411758
 20
301.5459448868604113
 30
0.0
 11
6688.0875429932330007
 21
301.4904162392733724
 31
0.0
  0
ARC
  5
31513
  8
0
 10
6688.4760836554505659
 20
299.126973807043214
 30
0.0
 40
2.5328963733466252
 50
90.773875213138723
 51
93.1099588152834059
  0
ARC
  5
31514
  8
0
 10
6688.4261507784303831
 20
300.3729509254712866
 30
0.0
 40
1.2861676034159839
 50
93.900165017421287
 51
101.4709222691399049
  0
ARC
  5
31515
  8
0
 10
6688.3044673049853373
 20
300.9726018612062148
 30
0.0
 40
0.6742949757905377
 50
101.4709222691399049
 51
109.4525840905366039
  0
ARC
  5
31516
  8
0
 10
6688.2133029293690925
 20
301.2307207763215047
 30
0.0
 40
0.4005499891301677
 50
109.4525840905366039
 51
120.4012927488884941
  0
ARC
  5
31517
  8
0
 10
6688.0815521614340469
 20
301.4552729151960762
 30
0.0
 40
0.1402003628105712
 50
120.4012927488884941
 51
140.2969162684981086
  0
ARC
  5
31518
  8
0
 10
6688.020233036616446
 20
301.5061866087128237
 30
0.0
 40
0.0604994264548133
 50
140.2969162684981086
 51
181.4428717963718896
  0
ARC
  5
31519
  8
0
 10
6688.0355447175643349
 20
301.5176265536085225
 30
0.0
 40
0.0768925474421546
 50
189.7058624728165057
 51
234.6385241750267028
  0
ARC
  5
3151A
  8
0
 10
6688.1888684994128198
 20
301.7246027952527925
 30
0.0
 40
0.3344600134337566
 50
233.7384004961446919
 51
253.9295818499884945
  0
ARC
  5
3151B
  8
0
 10
6688.3600263692069348
 20
302.2546188922792112
 30
0.0
 40
0.8913207040457963
 50
252.7884320308826887
 51
263.0981286739141183
  0
ARC
  5
3151C
  8
0
 10
6688.1562746512199737
 20
301.5298915850842718
 30
0.0
 40
0.0997287812767319
 50
117.6129475635266033
 51
142.7080514822746125
  0
ARC
  5
3151D
  8
0
 10
6688.113072842582369
 20
301.5627929507601266
 30
0.0
 40
0.0454250416915252
 50
142.7080514822746125
 51
165.3465988442750927
  0
ARC
  5
3151E
  8
0
 10
6688.1059380698097812
 20
301.5646585225720173
 30
0.0
 40
0.038050399958686
 50
165.3465988442750927
 51
199.0432788957243133
  0
ARC
  5
3151F
  8
0
 10
6688.1209206305784392
 20
301.5698300942592027
 30
0.0
 40
0.0539003930454655
 50
199.0432788957243133
 51
231.5791472147537888
  0
ARC
  5
31520
  8
0
 10
6688.0573909512631872
 20
301.5729171097261201
 30
0.0
 40
0.0695609141357355
 50
190.2562657222069049
 51
228.5197119029922987
  0
ARC
  5
31521
  8
0
 10
6688.1515245514110575
 20
301.679389578329392
 30
0.0
 40
0.211678897682025
 50
228.5197119029922987
 51
242.3917108344463998
  0
ARC
  5
31522
  8
0
 10
6688.2044228470658709
 20
301.7805390409548068
 30
0.0
 40
0.3258254853340143
 50
242.3917108344463998
 51
249.3661513695479925
  0
ARC
  5
31523
  8
0
 10
6688.0494886062388105
 20
301.5677286748464212
 30
0.0
 40
0.095351325373299
 50
205.4077771668756895
 51
230.7351802868932964
  0
ARC
  5
31524
  8
0
 10
6688.1297333504089693
 20
301.6658915048028007
 30
0.0
 40
0.222139180280781
 50
230.7351802868932964
 51
242.691033246628507
  0
ARC
  5
31525
  8
0
 10
6688.2212297734740787
 20
301.8430945277331148
 30
0.0
 40
0.4215696362525371
 50
242.691033246628507
 51
254.5978929068255923
  0
ARC
  5
31526
  8
0
 10
6682.9218813200586737
 20
300.3052549066604229
 30
0.0
 40
5.1385183389813358
 50
16.958332154417981
 51
17.9706074460765315
  0
ARC
  5
31527
  8
0
 10
6685.6144885473950126
 20
301.1874046844956183
 30
0.0
 40
2.306431380152925
 50
12.2274103736299793
 51
15.5068718519968893
  0
ARC
  5
31528
  8
0
 10
6684.4125084683100795
 20
300.958414800408093
 30
0.0
 40
3.52977663342618
 50
8.9877181293366171
 51
11.7278598361715396
  0
LINE
  5
31529
  8
0
 10
6688.4238729692606285
 20
301.5450595554337951
 30
0.0
 11
6688.4238729692606285
 21
301.5183735242297871
 31
0.0
  0
LINE
  5
3152A
  8
0
 10
6688.423873357375669
 20
301.5040830786052197
 30
0.0
 11
6688.423873357375669
 21
301.4812147016456834
 31
0.0
  0
LINE
  5
3152B
  8
0
 10
6688.4238736118313682
 20
301.4692674401587738
 30
0.0
 11
6688.4238736118313682
 21
301.4498326233622265
 31
0.0
  0
LINE
  5
3152C
  8
0
 10
6688.4041879298611093
 20
301.546039342189772
 30
0.0
 11
6688.4041879298611093
 21
301.5193243513539869
 31
0.0
  0
LINE
  5
3152D
  8
0
 10
6688.4041883179779688
 20
301.505018699103573
 30
0.0
 11
6688.4041883179779688
 21
301.4821304548830767
 31
0.0
  0
LINE
  5
3152E
  8
0
 10
6688.4041885724309395
 20
301.4701729299640078
 30
0.0
 11
6688.4041885724309395
 21
301.4507251132906163
 31
0.0
  0
LINE
  5
3152F
  8
0
 10
6688.3960311252330939
 20
301.4376188969046098
 30
0.0
 11
6688.3960311252330939
 21
301.4554493178652024
 31
0.0
  0
LINE
  5
31530
  8
0
 10
6688.3960307120478319
 20
301.466318575472485
 30
0.0
 11
6688.3960307120478319
 21
301.4874590186477121
 31
0.0
  0
LINE
  5
31531
  8
0
 10
6688.396030071484347
 20
301.5005681859919946
 30
0.0
 11
6688.396030071484347
 21
301.5253247680198001
 31
0.0
  0
LINE
  5
31532
  8
0
 10
6688.3960385223572302
 20
301.5418011393124971
 30
0.0
 11
6688.3960385223572302
 21
301.5538324634313199
 31
0.0
  0
LINE
  5
31533
  8
0
 10
6688.3763460858353938
 20
301.4393940403140846
 30
0.0
 11
6688.3763460858353938
 21
301.4572448260046258
 31
0.0
  0
LINE
  5
31534
  8
0
 10
6688.3763456726474033
 20
301.468130703070301
 30
0.0
 11
6688.3763456726474033
 21
301.4893039622879769
 31
0.0
  0
LINE
  5
31535
  8
0
 10
6688.3763450320857373
 20
301.5024385416757013
 30
0.0
 11
6688.3763450320857373
 21
301.5272437929941134
 31
0.0
  0
LINE
  5
31536
  8
0
 10
6688.3763534829577111
 20
301.5437572340148904
 30
0.0
 11
6688.3763534829577111
 21
301.552727243949505
 31
0.0
  0
LINE
  5
31537
  8
0
 10
6688.3681881511720348
 20
301.4540549060627086
 30
0.0
 11
6688.3681881511720348
 21
301.4735508226398792
 31
0.0
  0
LINE
  5
31538
  8
0
 10
6688.3681873537243519
 20
301.4855480667399092
 30
0.0
 11
6688.3681873537243519
 21
301.5085098731132121
 31
0.0
  0
LINE
  5
31539
  8
0
 10
6688.3681869362508223
 20
301.5236931735487929
 30
0.0
 11
6688.3681869362508223
 21
301.5505155096782914
 31
0.0
  0
LINE
  5
3153A
  8
0
 10
6688.3485031117716062
 20
301.4567576655545054
 30
0.0
 11
6688.3485031117716062
 21
301.4762937142235728
 31
0.0
  0
LINE
  5
3153B
  8
0
 10
6688.3485023143230137
 20
301.488322666449676
 30
0.0
 11
6688.3485023143230137
 21
301.5113459128714908
 31
0.0
  0
LINE
  5
3153C
  8
0
 10
6688.3485018968531222
 20
301.5265762948229735
 30
0.0
 11
6688.3485018968531222
 21
301.5504367114297111
 31
0.0
  0
LINE
  5
3153D
  8
0
 10
6688.3403433041903554
 20
301.532630049322222
 30
0.0
 11
6688.3403433041903554
 21
301.5076884795547016
 31
0.0
  0
LINE
  5
3153E
  8
0
 10
6688.340344676337736
 20
301.4944795670235749
 30
0.0
 11
6688.340344676337736
 21
301.4732145270763226
 31
0.0
  0
LINE
  5
3153F
  8
0
 10
6688.3403455579364163
 20
301.4622800426271851
 30
0.0
 11
6688.3403455579364163
 21
301.4443723527620023
 31
0.0
  0
LINE
  5
31540
  8
0
 10
6688.3206596370391708
 20
301.4768921202485217
 30
0.0
 11
6688.3206596370391708
 21
301.4982257886273942
 31
0.0
  0
LINE
  5
31541
  8
0
 10
6688.3206582648908807
 20
301.511487923532286
 30
0.0
 11
6688.3206582648908807
 21
301.5365316173259771
 31
0.0
  0
LINE
  5
31542
  8
0
 10
6688.3125019160770535
 20
301.4635130943192962
 30
0.0
 11
6688.3125019160770535
 21
301.4831496241732793
 31
0.0
  0
LINE
  5
31543
  8
0
 10
6688.3125004617986633
 20
301.4952616446752245
 30
0.0
 11
6688.3125004617986633
 21
301.5184389779092839
 31
0.0
  0
LINE
  5
31544
  8
0
 10
6688.312499693589416
 20
301.5337893811635013
 30
0.0
 11
6688.312499693589416
 21
301.5461624574234065
 31
0.0
  0
LINE
  5
31545
  8
0
 10
6688.2928146541889873
 20
301.543153111416018
 30
0.0
 11
6688.2928146541889873
 21
301.5387018599341786
 31
0.0
  0
LINE
  5
31546
  8
0
 10
6688.2928154224000536
 20
301.5232677045123069
 30
0.0
 11
6688.2928154224000536
 21
301.4999813499060224
 31
0.0
  0
LINE
  5
31547
  8
0
 10
6688.2928168766784438
 20
301.4878131844719746
 30
0.0
 11
6688.2928168766784438
 21
301.4681057063718868
 31
0.0
  0
LINE
  5
31548
  8
0
 10
6688.2847287968934324
 20
301.5417389401731043
 30
0.0
 11
6688.2847287968934324
 21
301.5212380790081284
 31
0.0
  0
LINE
  5
31549
  8
0
 10
6688.2846574724362654
 20
301.5070312417789182
 30
0.0
 11
6688.2846574724362654
 21
301.4855350299728229
 31
0.0
  0
LINE
  5
3154A
  8
0
 10
6688.2846589504451913
 20
301.4744798952722817
 30
0.0
 11
6688.2846589504451913
 21
301.4564292247786739
 31
0.0
  0
LINE
  5
3154B
  8
0
 10
6688.2568719515602425
 20
301.5350347318457125
 30
0.0
 11
6688.2568719515602425
 21
301.5114978984241247
 31
0.0
  0
LINE
  5
3154C
  8
0
 10
6688.2568142008121868
 20
301.4983629606604154
 30
0.0
 11
6688.2568142008121868
 21
301.4784929376064042
 31
0.0
  0
LINE
  5
3154D
  8
0
 10
6688.2371869121607233
 20
301.5312261683408224
 30
0.0
 11
6688.2371869121607233
 21
301.5183222311363807
 31
0.0
  0
LINE
  5
3154E
  8
0
 10
6688.2371291614126676
 20
301.5051007986879767
 30
0.0
 11
6688.2371291614126676
 21
301.4851217660768157
 31
0.0
  0
LINE
  5
3154F
  8
0
 10
6688.229005424332172
 20
301.5264537082994138
 30
0.0
 11
6688.229005424332172
 21
301.5045957759732005
 31
0.0
  0
LINE
  5
31550
  8
0
 10
6688.2289704938066279
 20
301.4924349615005781
 30
0.0
 11
6688.2289704938066279
 21
301.4741615775578794
 31
0.0
  0
LINE
  5
31551
  8
0
 10
6688.2093203850326972
 20
301.5227462887892784
 30
0.0
 11
6688.2093203850326972
 21
301.5124302347518892
 31
0.0
  0
LINE
  5
31552
  8
0
 10
6688.2092854545080627
 20
301.5001856699893779
 30
0.0
 11
6688.2092854545080627
 21
301.481810184402093
 31
0.0
  0
LINE
  5
31553
  8
0
 10
6688.4041879298993081
 20
301.5193243513015204
 30
0.0
 11
6688.3943454102372925
 21
301.5331084579178196
 31
0.0
  0
LINE
  5
31554
  8
0
 10
6688.3943454102372925
 20
301.5331084579178196
 30
0.0
 11
6688.4041879299256834
 21
301.5460393421864751
 31
0.0
  0
LINE
  5
31555
  8
0
 10
6688.4041879299256834
 20
301.5460393421864751
 30
0.0
 11
6688.4238729692333436
 21
301.5450595554352162
 31
0.0
  0
LINE
  5
31556
  8
0
 10
6688.4238729692333436
 20
301.5450595554352162
 30
0.0
 11
6688.4337154889562953
 21
301.5311784929480154
 31
0.0
  0
LINE
  5
31557
  8
0
 10
6688.4337154889562953
 20
301.5311784929480154
 30
0.0
 11
6688.4238729693061032
 21
301.5183735242889043
 31
0.0
  0
LINE
  5
31558
  8
0
 10
6688.4238729693061032
 20
301.5183735242889043
 30
0.0
 11
6688.4041879298611093
 21
301.5193243513539869
 31
0.0
  0
LINE
  5
31559
  8
0
 10
6688.3943457983496046
 20
301.494007770232372
 30
0.0
 11
6688.4041883180134391
 21
301.5050186991431929
 31
0.0
  0
LINE
  5
3155A
  8
0
 10
6688.4041883180134391
 20
301.5050186991431929
 30
0.0
 11
6688.423873357375669
 21
301.5040830786052197
 31
0.0
  0
LINE
  5
3155B
  8
0
 10
6688.423873357375669
 20
301.5040830786052197
 30
0.0
 11
6688.4337158770149472
 21
301.4921567141179821
 31
0.0
  0
LINE
  5
3155C
  8
0
 10
6688.4337158770149472
 20
301.4921567141179821
 30
0.0
 11
6688.423873357375669
 21
301.4812147016456834
 31
0.0
  0
LINE
  5
3155D
  8
0
 10
6688.423873357375669
 20
301.4812147016456834
 30
0.0
 11
6688.4041883180971126
 21
301.4821304548775061
 31
0.0
  0
LINE
  5
3155E
  8
0
 10
6688.4041883180971126
 20
301.4821304548775061
 30
0.0
 11
6688.3943457983496046
 21
301.494007770232372
 31
0.0
  0
LINE
  5
3155F
  8
0
 10
6688.3943460527807474
 20
301.460884937930814
 30
0.0
 11
6688.4041885724309395
 21
301.4701729299640078
 31
0.0
  0
LINE
  5
31560
  8
0
 10
6688.4041885724309395
 20
301.4701729299640078
 30
0.0
 11
6688.4238736118031738
 21
301.4692674401600812
 31
0.0
  0
LINE
  5
31561
  8
0
 10
6688.4238736118031738
 20
301.4692674401600812
 30
0.0
 11
6688.4337161315534104
 21
301.4590870973747769
 31
0.0
  0
LINE
  5
31562
  8
0
 10
6688.4337161315534104
 20
301.4590870973747769
 30
0.0
 11
6688.4238736118313682
 21
301.4498326233622265
 31
0.0
  0
LINE
  5
31563
  8
0
 10
6688.4238736118313682
 20
301.4498326233622265
 30
0.0
 11
6688.4041885725619068
 21
301.4507251132847045
 31
0.0
  0
LINE
  5
31564
  8
0
 10
6688.4041885725619068
 20
301.4507251132847045
 30
0.0
 11
6688.3943460528562355
 21
301.460884937835317
 31
0.0
  0
LINE
  5
31565
  8
0
 10
6688.3707935907450519
 20
301.5523403665094975
 30
0.0
 11
6688.3763534829577111
 21
301.5437572340148904
 31
0.0
  0
LINE
  5
31566
  8
0
 10
6688.3763534829577111
 20
301.5437572340148904
 30
0.0
 11
6688.39603852223172
 21
301.5418011393248889
 31
0.0
  0
LINE
  5
31567
  8
0
 10
6688.39603852223172
 20
301.5418011393248889
 30
0.0
 11
6688.4052239054972233
 21
301.5542136357896084
 31
0.0
  0
LINE
  5
31568
  8
0
 10
6688.3665025124619206
 20
301.5157485458394149
 30
0.0
 11
6688.3763450322003337
 21
301.5272437929829721
 31
0.0
  0
LINE
  5
31569
  8
0
 10
6688.3763450322003337
 20
301.5272437929829721
 30
0.0
 11
6688.396030071484347
 21
301.5253247680198001
 31
0.0
  0
LINE
  5
3156A
  8
0
 10
6688.396030071484347
 20
301.5253247680198001
 30
0.0
 11
6688.4058725911027068
 21
301.511960083378824
 31
0.0
  0
LINE
  5
3156B
  8
0
 10
6688.4058725911027068
 20
301.511960083378824
 30
0.0
 11
6688.3960300714907135
 21
301.5005681859987021
 31
0.0
  0
LINE
  5
3156C
  8
0
 10
6688.3960300714907135
 20
301.5005681859987021
 30
0.0
 11
6688.3763450320857373
 21
301.5024385416757013
 31
0.0
  0
LINE
  5
3156D
  8
0
 10
6688.3763450320857373
 20
301.5024385416757013
 30
0.0
 11
6688.3665025124373642
 21
301.5157485458116184
 31
0.0
  0
LINE
  5
3156E
  8
0
 10
6688.3665031529699263
 20
301.479612442978123
 30
0.0
 11
6688.376345672518255
 21
301.4893039621613866
 31
0.0
  0
LINE
  5
3156F
  8
0
 10
6688.376345672518255
 20
301.4893039621613866
 30
0.0
 11
6688.3960307120478319
 21
301.4874590186477121
 31
0.0
  0
LINE
  5
31570
  8
0
 10
6688.3960307120478319
 20
301.4874590186477121
 30
0.0
 11
6688.4058732317053
 21
301.475955797041081
 31
0.0
  0
LINE
  5
31571
  8
0
 10
6688.4058732317053
 20
301.475955797041081
 30
0.0
 11
6688.3960307120478319
 21
301.466318575472485
 31
0.0
  0
LINE
  5
31572
  8
0
 10
6688.3960307120478319
 20
301.466318575472485
 30
0.0
 11
6688.3763456725337164
 21
301.4681307032038262
 31
0.0
  0
LINE
  5
31573
  8
0
 10
6688.3763456725337164
 20
301.4681307032038262
 30
0.0
 11
6688.3665031529699263
 21
301.479612442978123
 31
0.0
  0
LINE
  5
31574
  8
0
 10
6688.3665035661051661
 20
301.4492054027321046
 30
0.0
 11
6688.3763460858353938
 21
301.4572448260046258
 31
0.0
  0
LINE
  5
31575
  8
0
 10
6688.3763460858353938
 20
301.4572448260046258
 30
0.0
 11
6688.3960311252330939
 21
301.4554493178652024
 31
0.0
  0
LINE
  5
31576
  8
0
 10
6688.3960311252330939
 20
301.4554493178652024
 30
0.0
 11
6688.405873644892381
 21
301.4456349108372137
 31
0.0
  0
LINE
  5
31577
  8
0
 10
6688.405873644892381
 20
301.4456349108372137
 30
0.0
 11
6688.3960311252330939
 21
301.4376188969046098
 31
0.0
  0
LINE
  5
31578
  8
0
 10
6688.3960311252330939
 20
301.4376188969046098
 30
0.0
 11
6688.3763460858535836
 21
301.4393940403123224
 31
0.0
  0
LINE
  5
31579
  8
0
 10
6688.3763460858535836
 20
301.4393940403123224
 30
0.0
 11
6688.3665035660787908
 21
301.4492054027122094
 31
0.0
  0
LINE
  5
3157A
  8
0
 10
6688.3458297055822186
 20
301.5501705260275003
 30
0.0
 11
6688.3386593771392654
 21
301.5414435439541876
 31
0.0
  0
LINE
  5
3157B
  8
0
 10
6688.3386593771392654
 20
301.5414435439541876
 30
0.0
 11
6688.3485018968640361
 21
301.5265762948212114
 31
0.0
  0
LINE
  5
3157C
  8
0
 10
6688.3485018968640361
 20
301.5265762948212114
 30
0.0
 11
6688.3681869362344514
 21
301.5236931735515213
 31
0.0
  0
LINE
  5
3157D
  8
0
 10
6688.3681869362344514
 20
301.5236931735515213
 30
0.0
 11
6688.3780294559428512
 21
301.535589490852999
 31
0.0
  0
LINE
  5
3157E
  8
0
 10
6688.3780294559428512
 20
301.535589490852999
 30
0.0
 11
6688.3681869362508223
 21
301.5505155096782914
 31
0.0
  0
LINE
  5
3157F
  8
0
 10
6688.3681869362508223
 20
301.5505155096782914
 30
0.0
 11
6688.3608419622287329
 21
301.5515603471923214
 31
0.0
  0
LINE
  5
31580
  8
0
 10
6688.3386597947201153
 20
301.5012111403175936
 30
0.0
 11
6688.3485023143230137
 21
301.5113459128714908
 31
0.0
  0
LINE
  5
31581
  8
0
 10
6688.3485023143230137
 20
301.5113459128714908
 30
0.0
 11
6688.36818735369161
 21
301.5085098731178732
 31
0.0
  0
LINE
  5
31582
  8
0
 10
6688.36818735369161
 20
301.5085098731178732
 30
0.0
 11
6688.3780298734036478
 21
301.4956014481792863
 31
0.0
  0
LINE
  5
31583
  8
0
 10
6688.3780298734036478
 20
301.4956014481792863
 30
0.0
 11
6688.3681873537489082
 21
301.4855480667645793
 31
0.0
  0
LINE
  5
31584
  8
0
 10
6688.3681873537489082
 20
301.4855480667645793
 30
0.0
 11
6688.3485023143348371
 21
301.4883226664481981
 31
0.0
  0
LINE
  5
31585
  8
0
 10
6688.3485023143348371
 20
301.4883226664481981
 30
0.0
 11
6688.3386597946537222
 21
301.5012111403008817
 31
0.0
  0
LINE
  5
31586
  8
0
 10
6688.3386605921195951
 20
301.4678776392481723
 30
0.0
 11
6688.3485031117716062
 21
301.4762937142235728
 31
0.0
  0
LINE
  5
31587
  8
0
 10
6688.3485031117716062
 20
301.4762937142235728
 30
0.0
 11
6688.3681881511720348
 21
301.4735508226398792
 31
0.0
  0
LINE
  5
31588
  8
0
 10
6688.3681881511720348
 20
301.4735508226398792
 30
0.0
 11
6688.3780244052895796
 21
301.4624268382024184
 31
0.0
  0
LINE
  5
31589
  8
0
 10
6688.3780244052895796
 20
301.4624268382024184
 30
0.0
 11
6688.3681881511511165
 21
301.4540549060654939
 31
0.0
  0
LINE
  5
3158A
  8
0
 10
6688.3681881511511165
 20
301.4540549060654939
 30
0.0
 11
6688.3485031117716062
 21
301.4567576655545054
 31
0.0
  0
LINE
  5
3158B
  8
0
 10
6688.3485031117716062
 20
301.4567576655545054
 30
0.0
 11
6688.3386605921095907
 21
301.4678776392262876
 31
0.0
  0
LINE
  5
3158C
  8
0
 10
6688.3108179989239943
 20
301.4587585159655987
 30
0.0
 11
6688.3206605185378066
 21
301.4659229210087119
 31
0.0
  0
LINE
  5
3158D
  8
0
 10
6688.3206605185378066
 20
301.4659229210087119
 30
0.0
 11
6688.3403455579364163
 21
301.4622800426271851
 31
0.0
  0
LINE
  5
3158E
  8
0
 10
6688.3403455579364163
 20
301.4622800426271851
 30
0.0
 11
6688.3501880776339021
 21
301.4515155073560777
 31
0.0
  0
LINE
  5
3158F
  8
0
 10
6688.3501880776339021
 20
301.4515155073560777
 30
0.0
 11
6688.3403455579364163
 21
301.4443723527620023
 31
0.0
  0
LINE
  5
31590
  8
0
 10
6688.3403455579364163
 20
301.4443723527620023
 30
0.0
 11
6688.3206605186360321
 21
301.4479727323314933
 31
0.0
  0
LINE
  5
31591
  8
0
 10
6688.3206605186360321
 20
301.4479727323314933
 30
0.0
 11
6688.3108179988912525
 21
301.4587585159424066
 31
0.0
  0
LINE
  5
31592
  8
0
 10
6688.310817117251645
 20
301.4894021200498173
 30
0.0
 11
6688.3206596370391708
 21
301.4982257886273942
 31
0.0
  0
LINE
  5
31593
  8
0
 10
6688.3206596370391708
 20
301.4982257886273942
 30
0.0
 11
6688.3403446764041291
 21
301.4944795669392192
 31
0.0
  0
LINE
  5
31594
  8
0
 10
6688.3403446764041291
 20
301.4944795669392192
 30
0.0
 11
6688.3501871960797871
 21
301.4819791159407032
 31
0.0
  0
LINE
  5
31595
  8
0
 10
6688.3501871960797871
 20
301.4819791159407032
 30
0.0
 11
6688.3403446764823457
 21
301.4732145272038224
 31
0.0
  0
LINE
  5
31596
  8
0
 10
6688.3403446764823457
 20
301.4732145272038224
 30
0.0
 11
6688.3206596370391708
 21
301.4768921202485217
 31
0.0
  0
LINE
  5
31597
  8
0
 10
6688.3206596370391708
 20
301.4768921202485217
 30
0.0
 11
6688.3108171172762013
 21
301.4894021200188945
 31
0.0
  0
LINE
  5
31598
  8
0
 10
6688.310815745171567
 20
301.525900928922681
 30
0.0
 11
6688.3206582648535914
 21
301.5365316172856751
 31
0.0
  0
LINE
  5
31599
  8
0
 10
6688.3206582648535914
 20
301.5365316172856751
 30
0.0
 11
6688.3403433041903554
 21
301.532630049322222
 31
0.0
  0
LINE
  5
3159A
  8
0
 10
6688.3403433041903554
 20
301.532630049322222
 30
0.0
 11
6688.3501858239178546
 21
301.5182017789524025
 31
0.0
  0
LINE
  5
3159B
  8
0
 10
6688.3501858239178546
 20
301.5182017789524025
 30
0.0
 11
6688.3403433041903554
 21
301.5076884795547016
 31
0.0
  0
LINE
  5
3159C
  8
0
 10
6688.3403433041903554
 20
301.5076884795547016
 30
0.0
 11
6688.3206582649063421
 21
301.511487923529387
 31
0.0
  0
LINE
  5
3159D
  8
0
 10
6688.3206582649063421
 20
301.511487923529387
 30
0.0
 11
6688.310815745171567
 21
301.525900928922681
 31
0.0
  0
LINE
  5
3159E
  8
0
 10
6688.2903028442651703
 20
301.5427252190760896
 30
0.0
 11
6688.2928146541889873
 21
301.5387018599341786
 31
0.0
  0
LINE
  5
3159F
  8
0
 10
6688.2928146541889873
 20
301.5387018599341786
 30
0.0
 11
6688.3124996936394382
 21
301.5337893812186962
 31
0.0
  0
LINE
  5
315A0
  8
0
 10
6688.3124996936394382
 20
301.5337893812186962
 30
0.0
 11
6688.3223422132459746
 21
301.5448205919798852
 31
0.0
  0
LINE
  5
315A1
  8
0
 10
6688.3223422132459746
 20
301.5448205919798852
 30
0.0
 11
6688.3208040958197671
 21
301.5472806832736978
 31
0.0
  0
LINE
  5
315A2
  8
0
 10
6688.2829729027725989
 20
301.5139946726152971
 30
0.0
 11
6688.2928154224000536
 21
301.5232677045123069
 31
0.0
  0
LINE
  5
315A3
  8
0
 10
6688.2928154224000536
 20
301.5232677045123069
 30
0.0
 11
6688.3125004617986633
 21
301.5184389779092839
 31
0.0
  0
LINE
  5
315A4
  8
0
 10
6688.3125004617986633
 20
301.5184389779092839
 30
0.0
 11
6688.322342981525253
 21
301.5044477902354743
 31
0.0
  0
LINE
  5
315A5
  8
0
 10
6688.322342981525253
 20
301.5044477902354743
 30
0.0
 11
6688.3125004617422746
 21
301.4952616446890943
 31
0.0
  0
LINE
  5
315A6
  8
0
 10
6688.3125004617422746
 20
301.4952616446890943
 30
0.0
 11
6688.292815422426429
 21
301.4999813498998833
 31
0.0
  0
LINE
  5
315A7
  8
0
 10
6688.292815422426429
 20
301.4999813498998833
 30
0.0
 11
6688.2829729027725989
 21
301.5139946726152971
 31
0.0
  0
LINE
  5
315A8
  8
0
 10
6688.2829743570082428
 20
301.4802732150162115
 30
0.0
 11
6688.2928168767120951
 21
301.4878131844636755
 31
0.0
  0
LINE
  5
315A9
  8
0
 10
6688.2928168767120951
 20
301.4878131844636755
 30
0.0
 11
6688.3125019160443117
 21
301.48314962418101
 31
0.0
  0
LINE
  5
315AA
  8
0
 10
6688.3125019160443117
 20
301.48314962418101
 30
0.0
 11
6688.3222230808905806
 21
301.4709210640069159
 31
0.0
  0
LINE
  5
315AB
  8
0
 10
6688.3222230808905806
 20
301.4709210640069159
 30
0.0
 11
6688.3125019161434466
 21
301.4635130943686931
 31
0.0
  0
LINE
  5
315AC
  8
0
 10
6688.3125019161434466
 20
301.4635130943686931
 30
0.0
 11
6688.2928168766784438
 21
301.4681057063718868
 31
0.0
  0
LINE
  5
315AD
  8
0
 10
6688.2928168766784438
 20
301.4681057063718868
 30
0.0
 11
6688.2829743570082428
 21
301.4802732150162115
 31
0.0
  0
LINE
  5
315AE
  8
0
 10
6688.2650437575921387
 20
301.5378473637063053
 30
0.0
 11
6688.2650437575921387
 21
301.5270937778336133
 31
0.0
  0
LINE
  5
315AF
  8
0
 10
6688.2649724331358811
 20
301.5128004458263717
 30
0.0
 11
6688.2649724331358811
 21
301.4911929949996079
 31
0.0
  0
LINE
  5
315B0
  8
0
 10
6688.2649739111438976
 20
301.4800817154358015
 30
0.0
 11
6688.2649739111438976
 21
301.461962421837427
 31
0.0
  0
LINE
  5
315B1
  8
0
 10
6688.2551313914300408
 20
301.4738181240812764
 30
0.0
 11
6688.2649739111056988
 21
301.4800817154103925
 31
0.0
  0
LINE
  5
315B2
  8
0
 10
6688.2649739111056988
 20
301.4800817154103925
 30
0.0
 11
6688.2846589504451913
 21
301.4744798952722817
 31
0.0
  0
LINE
  5
315B3
  8
0
 10
6688.2846589504451913
 20
301.4744798952722817
 30
0.0
 11
6688.2945014702127082
 21
301.4626832653960946
 31
0.0
  0
LINE
  5
315B4
  8
0
 10
6688.2945014702127082
 20
301.4626832653960946
 30
0.0
 11
6688.2846589504451913
 21
301.4564292247786739
 31
0.0
  0
LINE
  5
315B5
  8
0
 10
6688.2846589504451913
 20
301.4564292247786739
 30
0.0
 11
6688.2649739110793234
 21
301.4619624218560148
 31
0.0
  0
LINE
  5
315B6
  8
0
 10
6688.2649739110793234
 20
301.4619624218560148
 30
0.0
 11
6688.2551313914300408
 21
301.4738181240812764
 31
0.0
  0
LINE
  5
315B7
  8
0
 10
6688.2551299133638167
 20
301.5048529673737789
 30
0.0
 11
6688.2649724330740355
 21
301.5128004457770885
 31
0.0
  0
LINE
  5
315B8
  8
0
 10
6688.2649724330740355
 20
301.5128004457770885
 30
0.0
 11
6688.2846574724362654
 21
301.5070312417789182
 31
0.0
  0
LINE
  5
315B9
  8
0
 10
6688.2846574724362654
 20
301.5070312417789182
 30
0.0
 11
6688.2944999922228817
 21
301.4934268812793903
 31
0.0
  0
LINE
  5
315BA
  8
0
 10
6688.2944999922228817
 20
301.4934268812793903
 30
0.0
 11
6688.2846574724680977
 21
301.485535029998573
 31
0.0
  0
LINE
  5
315BB
  8
0
 10
6688.2846574724680977
 20
301.485535029998573
 30
0.0
 11
6688.2649724330958634
 21
301.491192995055485
 31
0.0
  0
LINE
  5
315BC
  8
0
 10
6688.2649724330958634
 20
301.491192995055485
 30
0.0
 11
6688.2551299134092915
 21
301.5048529673081816
 31
0.0
  0
LINE
  5
315BD
  8
0
 10
6688.2590463446322246
 20
301.5365339355781771
 30
0.0
 11
6688.2650437576421609
 21
301.5270937778191183
 31
0.0
  0
LINE
  5
315BE
  8
0
 10
6688.2650437576421609
 20
301.5270937778191183
 30
0.0
 11
6688.2847287968934324
 21
301.5212380790081284
 31
0.0
  0
LINE
  5
315BF
  8
0
 10
6688.2847287968934324
 20
301.5212380790081284
 30
0.0
 11
6688.2945713166318455
 21
301.5308920968670918
 31
0.0
  0
LINE
  5
315C0
  8
0
 10
6688.2945713166318455
 20
301.5308920968670918
 30
0.0
 11
6688.2873911075448632
 21
301.5422163391775143
 31
0.0
  0
LINE
  5
315C1
  8
0
 10
6688.2300814769023418
 20
301.5292735302447227
 30
0.0
 11
6688.2371869121607233
 21
301.5183222311363807
 31
0.0
  0
LINE
  5
315C2
  8
0
 10
6688.2371869121607233
 20
301.5183222311363807
 30
0.0
 11
6688.2568719515602425
 21
301.5114978984241247
 31
0.0
  0
LINE
  5
315C3
  8
0
 10
6688.2568719515602425
 20
301.5114978984241247
 30
0.0
 11
6688.2667144712386289
 21
301.5198130315872049
 31
0.0
  0
LINE
  5
315C4
  8
0
 10
6688.2667144712386289
 20
301.5198130315872049
 30
0.0
 11
6688.2568719515984412
 21
301.5350347317881869
 31
0.0
  0
LINE
  5
315C5
  8
0
 10
6688.2568719515984412
 20
301.5350347317881869
 30
0.0
 11
6688.255097368513816
 21
301.5356361987933269
 31
0.0
  0
LINE
  5
315C6
  8
0
 10
6688.227286641756109
 20
301.4984688992975066
 30
0.0
 11
6688.2371291614126676
 21
301.5051007986879767
 31
0.0
  0
LINE
  5
315C7
  8
0
 10
6688.2371291614126676
 20
301.5051007986879767
 30
0.0
 11
6688.2568142008121868
 21
301.4983629606604154
 31
0.0
  0
LINE
  5
315C8
  8
0
 10
6688.2568142008121868
 20
301.4983629606604154
 30
0.0
 11
6688.2666567205869796
 21
301.4851026949746142
 31
0.0
  0
LINE
  5
315C9
  8
0
 10
6688.2666567205869796
 20
301.4851026949746142
 30
0.0
 11
6688.2568142008403811
 21
301.4784929375970819
 31
0.0
  0
LINE
  5
315CA
  8
0
 10
6688.2568142008403811
 20
301.4784929375970819
 30
0.0
 11
6688.2371291614126676
 21
301.4851217660768157
 31
0.0
  0
LINE
  5
315CB
  8
0
 10
6688.2371291614126676
 20
301.4851217660768157
 30
0.0
 11
6688.227286641756109
 21
301.4984688992975066
 31
0.0
  0
LINE
  5
315CC
  8
0
 10
6688.1994429347951154
 20
301.4948810859718265
 30
0.0
 11
6688.2092854545080627
 21
301.5001856699893779
 31
0.0
  0
LINE
  5
315CD
  8
0
 10
6688.2092854545080627
 20
301.5001856699893779
 30
0.0
 11
6688.2289704938066279
 21
301.4924349615005781
 31
0.0
  0
LINE
  5
315CE
  8
0
 10
6688.2289704938066279
 20
301.4924349615005781
 30
0.0
 11
6688.2388130134795574
 21
301.4794814320383125
 31
0.0
  0
LINE
  5
315CF
  8
0
 10
6688.2388130134795574
 20
301.4794814320383125
 30
0.0
 11
6688.2289704938430077
 21
301.4741615775769219
 31
0.0
  0
LINE
  5
315D0
  8
0
 10
6688.2289704938430077
 20
301.4741615775769219
 30
0.0
 11
6688.2092854545080627
 21
301.481810184402093
 31
0.0
  0
LINE
  5
315D1
  8
0
 10
6688.2092854545080627
 20
301.481810184402093
 30
0.0
 11
6688.1994429347369078
 21
301.4948810860532262
 31
0.0
  0
LINE
  5
315D2
  8
0
 10
6688.2037655949861801
 20
301.5207864241996276
 30
0.0
 11
6688.2093203850326972
 21
301.5124302347518892
 31
0.0
  0
LINE
  5
315D3
  8
0
 10
6688.2093203850326972
 20
301.5124302347518892
 30
0.0
 11
6688.2290054243221675
 21
301.5045957759660951
 31
0.0
  0
LINE
  5
315D4
  8
0
 10
6688.2290054243221675
 20
301.5045957759660951
 30
0.0
 11
6688.2388479440287483
 21
301.5115874425461016
 31
0.0
  0
LINE
  5
315D5
  8
0
 10
6688.2388479440287483
 20
301.5115874425461016
 30
0.0
 11
6688.2290054244322164
 21
301.5264537081501999
 31
0.0
  0
LINE
  5
315D6
  8
0
 10
6688.2290054244322164
 20
301.5264537081501999
 30
0.0
 11
6688.2253341070390888
 21
301.5278899654380211
 31
0.0
  0
LINE
  5
315D7
  8
0
 10
6688.1802404908967219
 20
301.5111380237539151
 30
0.0
 11
6688.1814815352609003
 21
301.509326270370309
 31
0.0
  0
LINE
  5
315D8
  8
0
 10
6688.1814815352609003
 20
301.509326270370309
 30
0.0
 11
6688.2011665746613289
 21
301.500421815450693
 31
0.0
  0
LINE
  5
315D9
  8
0
 10
6688.2011665746613289
 20
301.500421815450693
 30
0.0
 11
6688.2110090943278919
 21
301.5060834088972115
 31
0.0
  0
LINE
  5
315DA
  8
0
 10
6688.2110090943278919
 20
301.5060834088972115
 30
0.0
 11
6688.2016026682622396
 21
301.5199982889471926
 31
0.0
  0
LINE
  5
315DB
  8
0
 10
6688.1814815352609003
 20
301.509326270370309
 30
0.0
 11
6688.1814815352609003
 21
301.5117203330726738
 31
0.0
  0
LINE
  5
315DC
  8
0
 10
6688.2011665746758808
 20
301.5198376726388005
 30
0.0
 11
6688.2011665746613289
 21
301.500421815450693
 31
0.0
  0
LINE
  5
315DD
  8
0
 10
6688.4320311821329597
 20
301.5400007465731278
 30
0.0
 11
6688.4418736989828176
 21
301.5400007465731278
 31
0.0
  0
LINE
  5
315DE
  8
0
 10
6688.432031182249375
 20
301.5239685476366844
 30
0.0
 11
6688.4418736989828176
 21
301.5239685476366844
 31
0.0
  0
LINE
  5
315DF
  8
0
 10
6688.432031182249375
 20
301.4992583089816094
 30
0.0
 11
6688.4418736989828176
 21
301.4992583089816094
 31
0.0
  0
LINE
  5
315E0
  8
0
 10
6688.4320311822111762
 20
301.4861898382732761
 30
0.0
 11
6688.4418736989828176
 21
301.4861898382732761
 31
0.0
  0
LINE
  5
315E1
  8
0
 10
6688.4320311822111762
 20
301.4650810090377036
 30
0.0
 11
6688.4418736989828176
 21
301.4650810090377036
 31
0.0
  0
LINE
  5
315E2
  8
0
 10
6688.4320311821493306
 20
301.4542431366342043
 30
0.0
 11
6688.4418736989828176
 21
301.4542431366342043
 31
0.0
  0
LINE
  5
315E3
  8
0
 10
6688.4320311821493306
 20
301.4364322804797212
 30
0.0
 11
6688.4418736989828176
 21
301.4364322804797212
 31
0.0
  0
LINE
  5
315E4
  8
0
 10
6688.432031182249375
 20
301.5239685476366844
 30
0.0
 11
6688.432031182249375
 21
301.4992583089816094
 31
0.0
  0
LINE
  5
315E5
  8
0
 10
6688.4320311822111762
 20
301.4861898382732761
 30
0.0
 11
6688.4320311822111762
 21
301.4650810090377036
 31
0.0
  0
LINE
  5
315E6
  8
0
 10
6688.4320311821493306
 20
301.4542431366342043
 30
0.0
 11
6688.4320311821493306
 21
301.4364322804797212
 31
0.0
  0
LINE
  5
315E7
  8
0
 10
6688.4320311821329597
 20
301.5400007465731278
 30
0.0
 11
6688.4320311821329597
 21
301.5548384114983946
 31
0.0
  0
LINE
  5
315E8
  8
0
 10
6688.4320311821493306
 20
301.4542431366342043
 30
0.0
 11
6688.4221886625064144
 21
301.4454076559683244
 31
0.0
  0
LINE
  5
315E9
  8
0
 10
6688.4221886625064144
 20
301.4454076559683244
 30
0.0
 11
6688.4320311821493306
 21
301.4364322804797212
 31
0.0
  0
LINE
  5
315EA
  8
0
 10
6688.4320311822111762
 20
301.4861898382732761
 30
0.0
 11
6688.4221886625145999
 21
301.4756948276818207
 31
0.0
  0
LINE
  5
315EB
  8
0
 10
6688.4221886625145999
 20
301.4756948276818207
 30
0.0
 11
6688.4320311822111762
 21
301.4650810090377036
 31
0.0
  0
LINE
  5
315EC
  8
0
 10
6688.432031182249375
 20
301.5239685476366844
 30
0.0
 11
6688.4221886625273328
 21
301.5116551278167094
 31
0.0
  0
LINE
  5
315ED
  8
0
 10
6688.4221886625273328
 20
301.5116551278167094
 30
0.0
 11
6688.432031182249375
 21
301.4992583089816094
 31
0.0
  0
LINE
  5
315EE
  8
0
 10
6688.4223891874153196
 20
301.5546972821003919
 30
0.0
 11
6688.4221886624536637
 21
301.5544105109715929
 31
0.0
  0
LINE
  5
315EF
  8
0
 10
6688.4221886624536637
 20
301.5544105109715929
 30
0.0
 11
6688.4320311821329597
 21
301.5400007465731278
 31
0.0
  0
LINE
  5
315F0
  8
0
 10
6688.1931880960473791
 20
301.4770539066886954
 30
0.0
 11
6688.1814815352418009
 21
301.4823505812561848
 31
0.0
  0
LINE
  5
315F1
  8
0
 10
6688.1814815352418009
 20
301.4823505812561848
 30
0.0
 11
6688.1716390155434055
 21
301.495179642950518
 31
0.0
  0
LINE
  5
315F2
  8
0
 10
6688.1716390155434055
 20
301.495179642950518
 30
0.0
 11
6688.1814815351617654
 21
301.4991220356652093
 31
0.0
  0
LINE
  5
315F3
  8
0
 10
6688.1814815351617654
 20
301.4991220356652093
 30
0.0
 11
6688.2011665746122162
 21
301.4902955368448261
 31
0.0
  0
LINE
  5
315F4
  8
0
 10
6688.2011665746122162
 20
301.4902955368448261
 30
0.0
 11
6688.2110090943906471
 21
301.4776150363800866
 31
0.0
  0
LINE
  5
315F5
  8
0
 10
6688.2110090943906471
 20
301.4776150363800866
 30
0.0
 11
6688.2105244759259222
 21
301.4774020021488923
 31
0.0
  0
LINE
  5
315F6
  8
0
 10
6688.2105244759259222
 20
301.4774020021488923
 30
0.0
 11
6688.1980969211235788
 21
301.4825950652447091
 31
0.0
  0
LINE
  5
315F7
  8
0
 10
6688.1980969211235788
 20
301.4825950652447091
 30
0.0
 11
6688.1931880960473791
 21
301.4770539066886954
 31
0.0
  0
LINE
  5
315F8
  8
0
 10
6688.198096921009892
 20
301.4825950652447091
 30
0.0
 11
6688.207143629242637
 21
301.4825950652447091
 31
0.0
  0
LINE
  5
315F9
  8
0
 10
6688.1814815351617654
 20
301.4991220356652093
 30
0.0
 11
6688.1814815352418009
 21
301.4823505812561848
 31
0.0
  0
LINE
  5
315FA
  8
0
 10
6688.2011665746122162
 20
301.4902955368448261
 30
0.0
 11
6688.2011665746122162
 21
301.4825950652447091
 31
0.0
  0
LINE
  5
315FB
  8
0
 10
6688.2105244759259222
 20
301.4774020021488923
 30
0.0
 11
6688.2105244759259222
 21
301.4782393891691754
 31
0.0
  0
LINE
  5
315FC
  8
0
 10
6688.1481839138396026
 20
301.4917544269753193
 30
0.0
 11
6688.1536426856673643
 21
301.4848586968029167
 31
0.0
  0
LINE
  5
315FD
  8
0
 10
6688.1536426856673643
 20
301.4848586968029167
 30
0.0
 11
6688.173327724966839
 21
301.4749409822098869
 31
0.0
  0
LINE
  5
315FE
  8
0
 10
6688.1831702446788768
 20
301.4775710212539934
 30
0.0
 11
6688.1733277250432366
 21
301.4900100699632048
 31
0.0
  0
LINE
  5
315FF
  8
0
 10
6688.1733277250432366
 20
301.4900100699632048
 30
0.0
 11
6688.1569109893025598
 21
301.4982803842074759
 31
0.0
  0
LINE
  5
31600
  8
0
 10
6688.1536426856673643
 20
301.4848586968029167
 30
0.0
 11
6688.1536426856673643
 21
301.495995446148072
 31
0.0
  0
LINE
  5
31601
  8
0
 10
6688.1733277250432366
 20
301.4900100699632048
 30
0.0
 11
6688.173327724966839
 21
301.4749409822098869
 31
0.0
  0
LINE
  5
31602
  8
0
 10
6688.1536426856273465
 20
301.4774270565097822
 30
0.0
 11
6688.1438001659807924
 21
301.4766234236672062
 31
0.0
  0
LINE
  5
31603
  8
0
 10
6688.1438001659807924
 20
301.4766234236672062
 30
0.0
 11
6688.1536426856873732
 21
301.4657708186159084
 31
0.0
  0
LINE
  5
31604
  8
0
 10
6688.1536426856873732
 20
301.4657708186159084
 30
0.0
 11
6688.1729132199379819
 21
301.4560743177869995
 31
0.0
  0
LINE
  5
31605
  8
0
 10
6688.1729132199379819
 20
301.4560743177869995
 30
0.0
 11
6688.1831702447016141
 21
301.4568290103455865
 31
0.0
  0
LINE
  5
31606
  8
0
 10
6688.1831702447016141
 20
301.4568290103455865
 30
0.0
 11
6688.1733277249859384
 21
301.467531370136328
 31
0.0
  0
LINE
  5
31607
  8
0
 10
6688.1733277249859384
 20
301.467531370136328
 30
0.0
 11
6688.1536426856873732
 21
301.4774270565059737
 31
0.0
  0
LINE
  5
31608
  8
0
 10
6688.1536426856873732
 20
301.4774270565059737
 30
0.0
 11
6688.1536426856873732
 21
301.4657708186159084
 31
0.0
  0
LINE
  5
31609
  8
0
 10
6688.1733277249859384
 20
301.467531370136328
 30
0.0
 11
6688.1729132199379819
 21
301.4560743177869995
 31
0.0
  0
LINE
  5
3160A
  8
0
 10
6688.1536426856691833
 20
301.45315180794978
 30
0.0
 11
6688.1438001659098518
 21
301.4622894657096026
 31
0.0
  0
LINE
  5
3160B
  8
0
 10
6688.1438001659098518
 20
301.4622894657096026
 30
0.0
 11
6688.1536426855764148
 21
301.4613246163503959
 31
0.0
  0
LINE
  5
3160C
  8
0
 10
6688.1536426855764148
 20
301.4613246163503959
 30
0.0
 11
6688.173327724968658
 21
301.4514069017844804
 31
0.0
  0
LINE
  5
3160D
  8
0
 10
6688.173327724968658
 20
301.4514069017844804
 30
0.0
 11
6688.1831702446261261
 21
301.4423807029900217
 31
0.0
  0
LINE
  5
3160E
  8
0
 10
6688.1831702446261261
 20
301.4423807029900217
 30
0.0
 11
6688.173327725053241
 21
301.4431635139346781
 31
0.0
  0
LINE
  5
3160F
  8
0
 10
6688.173327725053241
 20
301.4431635139346781
 30
0.0
 11
6688.1536426856691833
 21
301.45315180794978
 31
0.0
  0
LINE
  5
31610
  8
0
 10
6688.1536426856691833
 20
301.45315180794978
 30
0.0
 11
6688.1536426855764148
 21
301.4613246163503959
 31
0.0
  0
LINE
  5
31611
  8
0
 10
6688.173327725053241
 20
301.4431635139346781
 30
0.0
 11
6688.173327724968658
 21
301.4514069017844804
 31
0.0
  0
LINE
  5
31612
  8
0
 10
6688.1869416601875855
 20
301.4734803876070828
 30
0.0
 11
6688.185076862085225
 21
301.4723556853705873
 31
0.0
  0
LINE
  5
31613
  8
0
 10
6688.185076862085225
 20
301.4723556853705873
 30
0.0
 11
6688.1814815352936421
 21
301.474007257746905
 31
0.0
  0
LINE
  5
31614
  8
0
 10
6688.1814815352936421
 20
301.474007257746905
 30
0.0
 11
6688.1716390156461784
 21
301.4717353713051011
 31
0.0
  0
LINE
  5
31615
  8
0
 10
6688.1716390156461784
 20
301.4717353713051011
 30
0.0
 11
6688.1814815352936421
 21
301.4606649596254897
 31
0.0
  0
LINE
  5
31616
  8
0
 10
6688.1814815352936421
 20
301.4606649596254897
 30
0.0
 11
6688.1834992841968415
 21
301.4597377154482842
 31
0.0
  0
LINE
  5
31617
  8
0
 10
6688.1834992841968415
 20
301.4597377154482842
 30
0.0
 11
6688.1982660984485847
 21
301.4684450877830955
 31
0.0
  0
LINE
  5
31618
  8
0
 10
6688.1814815352936421
 20
301.474007257746905
 30
0.0
 11
6688.1814815352936421
 21
301.4606649596254897
 31
0.0
  0
LINE
  5
31619
  8
0
 10
6688.2011665746922517
 20
301.4526035013914793
 30
0.0
 11
6688.2105940576520879
 21
301.4632764273720227
 31
0.0
  0
LINE
  5
3161A
  8
0
 10
6688.2092116578833156
 20
301.4638400588152081
 30
0.0
 11
6688.201166574727722
 21
301.4642597391958816
 31
0.0
  0
LINE
  5
3161B
  8
0
 10
6688.201166574727722
 20
301.4642597391958816
 30
0.0
 11
6688.1834867306415617
 21
301.4541519810920249
 31
0.0
  0
LINE
  5
3161C
  8
0
 10
6688.1834867306415617
 20
301.4541519810920249
 30
0.0
 11
6688.1814815352918231
 21
301.4548819427420199
 31
0.0
  0
LINE
  5
3161D
  8
0
 10
6688.1814815352918231
 20
301.4548819427420199
 30
0.0
 11
6688.1716390156389025
 21
301.4542961167073258
 31
0.0
  0
LINE
  5
3161E
  8
0
 10
6688.1716390156389025
 20
301.4542961167073258
 30
0.0
 11
6688.1814815352681762
 21
301.4449117652794143
 31
0.0
  0
LINE
  5
3161F
  8
0
 10
6688.1814815352681762
 20
301.4449117652794143
 30
0.0
 11
6688.1850768619942755
 21
301.4432601928281201
 31
0.0
  0
LINE
  5
31620
  8
0
 10
6688.1850768619942755
 20
301.4432601928281201
 30
0.0
 11
6688.201166574727722
 21
301.452603501263809
 31
0.0
  0
LINE
  5
31621
  8
0
 10
6688.1834992841968415
 20
301.4597377154482842
 30
0.0
 11
6688.1834895222664272
 21
301.4541535770937912
 31
0.0
  0
LINE
  5
31622
  8
0
 10
6688.1814815352918231
 20
301.4548819427420199
 30
0.0
 11
6688.1814815352681762
 21
301.4449117652794143
 31
0.0
  0
LINE
  5
31623
  8
0
 10
6688.2011665746922517
 20
301.4526035013914793
 30
0.0
 11
6688.201166574727722
 21
301.4642597391958816
 31
0.0
  0
LINE
  5
31624
  8
0
 10
6688.2137824624833229
 20
301.4619916466799054
 30
0.0
 11
6688.2093501268318505
 21
301.4596816439196232
 31
0.0
  0
LINE
  5
31625
  8
0
 10
6688.2093501268318505
 20
301.4596816439196232
 30
0.0
 11
6688.2021037186077592
 21
301.4514694708421985
 31
0.0
  0
LINE
  5
31626
  8
0
 10
6688.2021037186077592
 20
301.4514694708421985
 30
0.0
 11
6688.1855822776333298
 21
301.4420316336730821
 31
0.0
  0
LINE
  5
31627
  8
0
 10
6688.2021037185841124
 20
301.4514694708278171
 30
0.0
 11
6688.2021037185841124
 21
301.4401214518231882
 31
0.0
  0
LINE
  5
31628
  8
0
 10
6688.2021037185841124
 20
301.4401214518231882
 30
0.0
 11
6688.2362815744818363
 21
301.4401214518231882
 31
0.0
  0
LINE
  5
31629
  8
0
 10
6688.2362815744818363
 20
301.4401214518231882
 30
0.0
 11
6688.2362815744818363
 21
301.4535168425409779
 31
0.0
  0
LINE
  5
3162A
  8
0
 10
6688.2290351661840759
 20
301.4561346952875738
 30
0.0
 11
6688.2290351661840759
 21
301.4401214518231882
 31
0.0
  0
LINE
  5
3162B
  8
0
 10
6688.2093501268818727
 20
301.4596816439230906
 30
0.0
 11
6688.2093501268818727
 21
301.4401214518231882
 31
0.0
  0
LINE
  5
3162C
  8
0
 10
6688.1850768619942755
 20
301.4432601928281201
 30
0.0
 11
6688.1855822776333298
 21
301.4420316336730821
 31
0.0
  0
LINE
  5
3162D
  8
0
 10
6688.1854488731933088
 20
301.4741650830420099
 30
0.0
 11
6688.185076862085225
 21
301.4723556853705873
 31
0.0
  0
LINE
  5
3162E
  8
0
 10
6688.2272880888313011
 20
301.4700720270449779
 30
0.0
 11
6688.2371306084951357
 21
301.475046750786305
 31
0.0
  0
LINE
  5
3162F
  8
0
 10
6688.2371306084951357
 20
301.475046750786305
 30
0.0
 11
6688.256815647863732
 21
301.4684711438886211
 31
0.0
  0
LINE
  5
31630
  8
0
 10
6688.256815647863732
 20
301.4684711438886211
 30
0.0
 11
6688.266658167620335
 21
301.4569818910413801
 31
0.0
  0
LINE
  5
31631
  8
0
 10
6688.266658167620335
 20
301.4569818910413801
 30
0.0
 11
6688.2661735491592481
 21
301.4567206529087002
 31
0.0
  0
LINE
  5
31632
  8
0
 10
6688.2661735491592481
 20
301.4567206529087002
 30
0.0
 11
6688.227772707218719
 21
301.4694851469413948
 31
0.0
  0
LINE
  5
31633
  8
0
 10
6688.227772707218719
 20
301.4694851469413948
 30
0.0
 11
6688.2272880888313011
 21
301.4700720270449779
 31
0.0
  0
LINE
  5
31634
  8
0
 10
6688.2829752601919608
 20
301.4522492140815757
 30
0.0
 11
6688.2928177798921752
 21
301.4581671150816078
 31
0.0
  0
LINE
  5
31635
  8
0
 10
6688.2928177798921752
 20
301.4581671150816078
 30
0.0
 11
6688.312502819261681
 21
301.4536092177921205
 31
0.0
  0
LINE
  5
31636
  8
0
 10
6688.312502819261681
 20
301.4536092177921205
 30
0.0
 11
6688.3223453389600763
 21
301.4431735691366043
 31
0.0
  0
LINE
  5
31637
  8
0
 10
6688.3223453389600763
 20
301.4431735691366043
 30
0.0
 11
6688.3218607206063098
 21
301.4428673691841141
 31
0.0
  0
LINE
  5
31638
  8
0
 10
6688.3218607206063098
 20
301.4428673691841141
 30
0.0
 11
6688.2834598785921116
 21
301.4517173928604734
 31
0.0
  0
LINE
  5
31639
  8
0
 10
6688.2834598785921116
 20
301.4517173928604734
 30
0.0
 11
6688.2829752601919608
 21
301.4522492140815757
 31
0.0
  0
LINE
  5
3163A
  8
0
 10
6688.3386610897550781
 20
301.4400935727317119
 30
0.0
 11
6688.3485036094652969
 21
301.4469053179665252
 31
0.0
  0
LINE
  5
3163B
  8
0
 10
6688.3485036094652969
 20
301.4469053179665252
 30
0.0
 11
6688.3681886489002864
 21
301.4442222207716213
 31
0.0
  0
LINE
  5
3163C
  8
0
 10
6688.3681886489002864
 20
301.4442222207716213
 30
0.0
 11
6688.3780311685322886
 21
301.4347502256662779
 31
0.0
  0
LINE
  5
3163D
  8
0
 10
6688.3780311685322886
 20
301.4347502256662779
 30
0.0
 11
6688.377546550176703
 21
301.4344006878355913
 31
0.0
  0
LINE
  5
3163E
  8
0
 10
6688.377546550176703
 20
301.4344006878355913
 30
0.0
 11
6688.3391457081552289
 21
301.4396112526317211
 31
0.0
  0
LINE
  5
3163F
  8
0
 10
6688.3391457081552289
 20
301.4396112526317211
 30
0.0
 11
6688.3386610897796345
 21
301.4400935726907278
 31
0.0
  0
LINE
  5
31640
  8
0
 10
6688.3943462118968455
 20
301.4332315115220808
 30
0.0
 11
6688.4041887315597705
 21
301.4409171192244798
 31
0.0
  0
LINE
  5
31641
  8
0
 10
6688.4041887315597705
 20
301.4409171192244798
 30
0.0
 11
6688.4238737710093119
 21
301.4400310024220175
 31
0.0
  0
LINE
  5
31642
  8
0
 10
6688.4238737710093119
 20
301.4400310024220175
 30
0.0
 11
6688.4337162906813319
 21
301.4314666997053109
 31
0.0
  0
LINE
  5
31643
  8
0
 10
6688.4337162906813319
 20
301.4314666997053109
 30
0.0
 11
6688.4332316723312033
 21
301.4310741591718283
 31
0.0
  0
LINE
  5
31644
  8
0
 10
6688.4332316723312033
 20
301.4310741591718283
 30
0.0
 11
6688.3948308302788064
 21
301.4327951237190177
 31
0.0
  0
LINE
  5
31645
  8
0
 10
6688.3948308302788064
 20
301.4327951237190177
 30
0.0
 11
6688.3943462119468677
 21
301.4332315114760945
 31
0.0
  0
LINE
  5
31646
  8
0
 10
6688.227772707218719
 20
301.4694851469413948
 30
0.0
 11
6688.227772707218719
 21
301.4703169686545721
 31
0.0
  0
LINE
  5
31647
  8
0
 10
6688.2661735491592481
 20
301.4567206529087002
 30
0.0
 11
6688.2661735491592481
 21
301.4575475900869037
 31
0.0
  0
LINE
  5
31648
  8
0
 10
6688.2834598785921116
 20
301.4517173928604734
 30
0.0
 11
6688.2834598785921116
 21
301.452540595130472
 31
0.0
  0
LINE
  5
31649
  8
0
 10
6688.3218607206063098
 20
301.4428673691841141
 30
0.0
 11
6688.3218607206063098
 21
301.4436873915158799
 31
0.0
  0
LINE
  5
3164A
  8
0
 10
6688.3391457081552289
 20
301.4396112526317211
 30
0.0
 11
6688.3391457081552289
 21
301.4404289641939272
 31
0.0
  0
LINE
  5
3164B
  8
0
 10
6688.377546550176703
 20
301.4344006878355913
 30
0.0
 11
6688.377546550176703
 21
301.4352166004218248
 31
0.0
  0
LINE
  5
3164C
  8
0
 10
6688.3948308302788064
 20
301.4327951237190177
 30
0.0
 11
6688.3948308302788064
 21
301.4336099295397275
 31
0.0
  0
LINE
  5
3164D
  8
0
 10
6688.4332316723312033
 20
301.4310741591718283
 30
0.0
 11
6688.4332316723312033
 21
301.4318883822010093
 31
0.0
  0
LINE
  5
3164E
  8
0
 10
6688.1831702446788768
 20
301.4775710212539934
 30
0.0
 11
6688.173327725049603
 21
301.4749409822246093
 31
0.0
  0
ARC
  5
3164F
  8
0
 10
6688.4372959376805738
 20
302.0212775559655256
 30
0.0
 40
0.6022947799211045
 50
245.2824173323479044
 51
250.713909765363212
  0
ARC
  5
31650
  8
0
 10
6688.4407805729306347
 20
302.0312358617626955
 30
0.0
 40
0.6128451608229176
 50
250.713909765363212
 51
259.7302736131795768
  0
ARC
  5
31651
  8
0
 10
6688.4564206606200969
 20
302.1997004711637942
 30
0.0
 40
0.7815364347016568
 50
260.8039674802474224
 51
268.9334756459963955
  0
LINE
  5
31652
  8
0
 10
6688.2005712834497899
 20
301.4674540822853146
 30
0.0
 11
6688.1994778652288005
 21
301.4662432177563005
 31
0.0
  0
LINE
  5
31653
  8
0
 10
6688.1994778652288005
 20
301.4662432177563005
 30
0.0
 11
6688.203247190052025
 21
301.4663179307195264
 31
0.0
  0
LINE
  5
31654
  8
0
 10
6688.1814815352536243
 20
301.4413305951038069
 30
0.0
 11
6688.1716390156034322
 21
301.4425034189584949
 31
0.0
  0
LINE
  5
31655
  8
0
 10
6688.1716390156034322
 20
301.4425034189584949
 30
0.0
 11
6688.1814815352536243
 21
301.4347895738425791
 31
0.0
  0
LINE
  5
31656
  8
0
 10
6688.1814815352536243
 20
301.4347895738425791
 30
0.0
 11
6688.201166574654053
 21
301.4259630749585881
 31
0.0
  0
LINE
  5
31657
  8
0
 10
6688.201166574654053
 20
301.4259630749585881
 30
0.0
 11
6688.2110090943706382
 21
301.4249388123300832
 31
0.0
  0
LINE
  5
31658
  8
0
 10
6688.2110090944679541
 20
301.4249388123200788
 30
0.0
 11
6688.2105244760114147
 21
301.4252996989617941
 31
0.0
  0
LINE
  5
31659
  8
0
 10
6688.2105244760114147
 20
301.4252996989617941
 30
0.0
 11
6688.198096921092656
 21
301.4304927619651835
 31
0.0
  0
LINE
  5
3165A
  8
0
 10
6688.198096921092656
 20
301.4304927619651835
 30
0.0
 11
6688.1931880961128627
 21
301.4360339206098161
 31
0.0
  0
LINE
  5
3165B
  8
0
 10
6688.1931880961128627
 20
301.4360339206098161
 30
0.0
 11
6688.1814815352536243
 21
301.4413305950640733
 31
0.0
  0
LINE
  5
3165C
  8
0
 10
6688.201166574654053
 20
301.4259630749585881
 30
0.0
 11
6688.201166574654053
 21
301.4292100555556999
 31
0.0
  0
LINE
  5
3165D
  8
0
 10
6688.1814815352536243
 20
301.4413305950640733
 30
0.0
 11
6688.1814815352536243
 21
301.4347895738425791
 31
0.0
  0
LINE
  5
3165E
  8
0
 10
6688.2577516760329672
 20
301.4463601364632837
 30
0.0
 11
6688.2577516760329672
 21
301.440203844473217
 31
0.0
  0
LINE
  5
3165F
  8
0
 10
6688.2577516760329672
 20
301.440203844473217
 30
0.0
 11
6688.2787301311445844
 21
301.440203844473217
 31
0.0
  0
LINE
  5
31660
  8
0
 10
6688.1814815353318409
 20
301.4310419248261042
 30
0.0
 11
6688.171639015807159
 21
301.4365561644748936
 31
0.0
  0
LINE
  5
31661
  8
0
 10
6688.171639015807159
 20
301.4365561644748936
 30
0.0
 11
6688.1814815352536243
 21
301.4329034463290782
 31
0.0
  0
LINE
  5
31662
  8
0
 10
6688.1814815352536243
 20
301.4329034463290782
 30
0.0
 11
6688.2011665743302729
 21
301.4239048616533978
 31
0.0
  0
LINE
  5
31663
  8
0
 10
6688.2011665743302729
 20
301.4239048616533978
 30
0.0
 11
6688.2110090941741873
 21
301.4183969162594963
 31
0.0
  0
LINE
  5
31664
  8
0
 10
6688.2110090941741873
 20
301.4183969162594963
 30
0.0
 11
6688.2011665748532323
 21
301.4218814344745283
 31
0.0
  0
LINE
  5
31665
  8
0
 10
6688.2011665748532323
 20
301.4218814344745283
 30
0.0
 11
6688.1814815353318409
 21
301.4310419248261042
 31
0.0
  0
LINE
  5
31666
  8
0
 10
6688.1994778652542664
 20
301.4257468159952964
 30
0.0
 11
6688.2093203849317433
 21
301.4237671285731039
 31
0.0
  0
LINE
  5
31667
  8
0
 10
6688.2093203849317433
 20
301.4237671285731039
 30
0.0
 11
6688.229005424324896
 21
301.4160376675932866
 31
0.0
  0
LINE
  5
31668
  8
0
 10
6688.229005424324896
 20
301.4160376675932866
 30
0.0
 11
6688.2388475987427228
 21
301.4101844221358988
 31
0.0
  0
LINE
  5
31669
  8
0
 10
6688.2388475987427228
 20
301.4101844221358988
 30
0.0
 11
6688.229005424332172
 21
301.4120454452731792
 31
0.0
  0
LINE
  5
3166A
  8
0
 10
6688.229005424332172
 20
301.4120454452731792
 30
0.0
 11
6688.2093203849753991
 21
301.4198780872271755
 31
0.0
  0
LINE
  5
3166B
  8
0
 10
6688.2093203849753991
 20
301.4198780872271755
 30
0.0
 11
6688.1994778656153358
 21
301.4257468159227074
 31
0.0
  0
LINE
  5
3166C
  8
0
 10
6688.2371592346325997
 20
301.4073477620731865
 30
0.0
 11
6688.2273167149187429
 21
301.4118751440320807
 31
0.0
  0
LINE
  5
3166D
  8
0
 10
6688.2273167149187429
 20
301.4118751440320807
 30
0.0
 11
6688.2371592346325997
 21
301.4096163049732127
 31
0.0
  0
LINE
  5
3166E
  8
0
 10
6688.2371592346325997
 20
301.4096163049732127
 30
0.0
 11
6688.2568442739329839
 21
301.4029174025448015
 31
0.0
  0
LINE
  5
3166F
  8
0
 10
6688.2568442739329839
 20
301.4029174025448015
 30
0.0
 11
6688.2666867934667607
 21
301.3983676444469779
 31
0.0
  0
LINE
  5
31670
  8
0
 10
6688.2666867934667607
 20
301.3983676444469779
 30
0.0
 11
6688.2568442739948296
 21
301.4005386975655938
 31
0.0
  0
LINE
  5
31671
  8
0
 10
6688.2568442739948296
 20
301.4005386975655938
 30
0.0
 11
6688.2371592346325997
 21
301.4073477620731865
 31
0.0
  0
LINE
  5
31672
  8
0
 10
6688.2273167149332949
 20
301.4183712999732165
 30
0.0
 11
6688.2278013332588671
 21
301.4183311198273145
 31
0.0
  0
LINE
  5
31673
  8
0
 10
6688.2278013332588671
 20
301.4183311198273145
 30
0.0
 11
6688.2662021753330919
 21
301.4054316910732041
 31
0.0
  0
LINE
  5
31674
  8
0
 10
6688.2662021753330919
 20
301.4054316910732041
 30
0.0
 11
6688.2666867936341077
 21
301.4051427868732276
 31
0.0
  0
LINE
  5
31675
  8
0
 10
6688.2666867936341077
 20
301.4051427868732276
 30
0.0
 11
6688.2568442739830061
 21
301.4055241057570811
 31
0.0
  0
LINE
  5
31676
  8
0
 10
6688.2568442739830061
 20
301.4055241057570811
 30
0.0
 11
6688.2371592346325997
 21
301.4121692239930894
 31
0.0
  0
LINE
  5
31677
  8
0
 10
6688.2371592346325997
 20
301.4121692239930894
 30
0.0
 11
6688.2273167149332949
 21
301.4183712999732165
 31
0.0
  0
LINE
  5
31678
  8
0
 10
6688.2371592346325997
 20
301.4151876579775831
 30
0.0
 11
6688.2371592346325997
 21
301.4121692239930894
 31
0.0
  0
LINE
  5
31679
  8
0
 10
6688.2568442739047896
 20
301.4085751529410118
 30
0.0
 11
6688.2568442739830061
 21
301.4055241057570811
 31
0.0
  0
ARC
  5
3167A
  8
0
 10
6688.4417104253952857
 20
300.564107888883882
 30
0.0
 40
0.9907778036421404
 50
89.9905580367973243
 51
93.6204597562897618
  0
ARC
  5
3167B
  8
0
 10
6688.4352796034518178
 20
300.6657437171396055
 30
0.0
 40
0.8889387293334348
 50
93.6204597562897618
 51
98.3628635400861953
  0
ARC
  5
3167C
  8
0
 10
6688.3993185703793642
 20
300.9103683927237967
 30
0.0
 40
0.6416849572602049
 50
98.3628635400861953
 51
104.2999903833854063
  0
ARC
  5
3167D
  8
0
 10
6688.3396066970099128
 20
301.1446275688393257
 30
0.0
 40
0.3999353566080042
 50
104.2999903833854063
 51
110.9884196099899043
  0
ARC
  5
3167E
  8
0
 10
6688.2797109157399973
 20
301.3007557257009239
 30
0.0
 40
0.2327124336010319
 50
110.9884196099899043
 51
120.1016153596369946
  0
ARC
  5
3167F
  8
0
 10
6688.2172703945670946
 20
301.4084642781880916
 30
0.0
 40
0.1082136345577782
 50
120.1016153596369946
 51
137.5913685397185873
  0
ARC
  5
31680
  8
0
 10
6688.1678712825687398
 20
301.45358551478148
 30
0.0
 40
0.0413092381560233
 50
137.5913685397185873
 51
165.7612606146093981
  0
ARC
  5
31681
  8
0
 10
6688.1577876093024315
 20
301.4561443320366152
 30
0.0
 40
0.0309059688480669
 50
165.7612606146093981
 51
201.706096865924593
  0
ARC
  5
31682
  8
0
 10
6688.1769054681935813
 20
301.4637546087009241
 30
0.0
 40
0.0514828694776183
 50
201.706096865924593
 51
230.672304910447906
  0
ARC
  5
31683
  8
0
 10
6688.2524351859947274
 20
301.5559429396053019
 30
0.0
 40
0.1706609992923054
 50
230.672304910447906
 51
245.9223741111015897
  0
ARC
  5
31684
  8
0
 10
6688.3238092378933288
 20
301.7156689400474079
 30
0.0
 40
0.3456085642981783
 50
245.9223741111015897
 51
257.4184548163054274
  0
ARC
  5
31685
  8
0
 10
6688.4397206037574506
 20
302.2350122803094905
 30
0.0
 40
0.8777297439283978
 50
257.4184548163054274
 51
264.1844885205973128
  0
ARC
  5
31686
  8
0
 10
6688.4312377656278841
 20
302.1517245741842999
 30
0.0
 40
0.7940111645430579
 50
264.1844885205973128
 51
269.4491732160403785
  0
ARC
  5
31687
  8
0
 10
6688.5976392429747648
 20
319.4599036711260283
 30
0.0
 40
18.1029901379969793
 50
269.4491732160403785
 51
269.5069975554097255
  0
ARC
  5
31688
  8
0
 10
6688.4382047195140331
 20
301.9917663650808777
 30
0.0
 40
0.6050011347579874
 50
245.3195552787356917
 51
249.4587428106810023
  0
ARC
  5
31689
  8
0
 10
6688.43987992795428
 20
301.9962288248198092
 30
0.0
 40
0.6097676703843558
 50
249.4584700765186085
 51
255.4566679363732931
  0
ARC
  5
3168A
  8
0
 10
6688.4415357007237617
 20
302.0026113062427271
 30
0.0
 40
0.6163614289920833
 50
255.4566679363732931
 51
260.5582214391487241
  0
ARC
  5
3168B
  8
0
 10
6688.441634124698794
 20
302.0032031586500807
 30
0.0
 40
0.6169614094509145
 50
260.5582214391487241
 51
265.8127104403041017
  0
ARC
  5
3168C
  8
0
 10
6688.4577367126030367
 20
302.4434381380481227
 30
0.0
 40
1.0573193892107531
 50
266.6843853686473835
 51
269.1403564140696858
  0
ARC
  5
3168D
  8
0
 10
6688.4655759133893298
 20
300.0754146535423956
 30
0.0
 40
1.496111196177131
 50
90.9077491490125453
 51
95.3984107164727249
  0
ARC
  5
3168E
  8
0
 10
6688.4208460870922863
 20
300.7176909294178131
 30
0.0
 40
0.8526236375710375
 50
96.466564389556865
 51
100.5903038501674018
  0
ARC
  5
3168F
  8
0
 10
6688.3721317860527051
 20
300.9782373434755982
 30
0.0
 40
0.5875622918335707
 50
100.5903038501674018
 51
107.6308488090899971
  0
ARC
  5
31690
  8
0
 10
6688.2862069799775782
 20
301.248601501685414
 30
0.0
 40
0.3038725839775694
 50
107.6308488090899971
 51
117.5575267628535983
  0
ARC
  5
31691
  8
0
 10
6688.212565660997825
 20
301.389719043808725
 30
0.0
 40
0.1446959382152485
 50
117.5575267628535983
 51
129.3828013323351911
  0
ARC
  5
31692
  8
0
 10
6688.169600976354559
 20
301.4420571300776146
 30
0.0
 40
0.0769815423986103
 50
129.3828013323351911
 51
146.1147562304487906
  0
ARC
  5
31693
  8
0
 10
6688.1385020602147051
 20
301.4629431105116737
 30
0.0
 40
0.0395200052747603
 50
146.1147562304487906
 51
170.4360618857986935
  0
ARC
  5
31694
  8
0
 10
6688.1335894239018671
 20
301.4637708406261822
 30
0.0
 40
0.0345381248362207
 50
170.4360618858019052
 51
208.7721989921504075
  0
ARC
  5
31695
  8
0
 10
6688.1726401289361092
 20
301.4859362677216268
 30
0.0
 40
0.079439012214561
 50
209.2285250969331969
 51
234.0051176356786016
  0
LINE
  5
31696
  8
0
 10
6688.2649980842197692
 20
301.3997590441263128
 30
0.0
 11
6688.2551555645723056
 21
301.4046586275699156
 31
0.0
  0
LINE
  5
31697
  8
0
 10
6688.2551555645723056
 20
301.4046586275699156
 30
0.0
 11
6688.2649980840969874
 21
301.4039069855139132
 31
0.0
  0
LINE
  5
31698
  8
0
 10
6688.2649980840969874
 20
301.4039069855139132
 30
0.0
 11
6688.284683123596551
 21
301.3983152964758006
 31
0.0
  0
LINE
  5
31699
  8
0
 10
6688.284683123596551
 20
301.3983152964758006
 30
0.0
 11
6688.2939873332989009
 21
301.3934251689515236
 31
0.0
  0
LINE
  5
3169A
  8
0
 10
6688.2939873332989009
 20
301.3934251689515236
 30
0.0
 11
6688.2846831237820879
 21
301.3940980064327277
 31
0.0
  0
LINE
  5
3169B
  8
0
 10
6688.2846831237820879
 20
301.3940980064327277
 30
0.0
 11
6688.264998084436229
 21
301.3997590440183103
 31
0.0
  0
LINE
  5
3169C
  8
0
 10
6688.2829944142331442
 20
301.4005249104731092
 30
0.0
 11
6688.2834790325332506
 21
301.4005403711731788
 31
0.0
  0
LINE
  5
3169D
  8
0
 10
6688.2834790325332506
 20
301.4005403711731788
 30
0.0
 11
6688.3218798746320317
 21
301.3915967930731767
 31
0.0
  0
LINE
  5
3169E
  8
0
 10
6688.3218798746320317
 20
301.3915967930731767
 30
0.0
 11
6688.3223644929330476
 21
301.3913533259732276
 31
0.0
  0
LINE
  5
3169F
  8
0
 10
6688.3223644929330476
 20
301.3913533259732276
 30
0.0
 11
6688.3125219732646656
 21
301.3906699029960237
 31
0.0
  0
LINE
  5
316A0
  8
0
 10
6688.3125219732646656
 20
301.3906699029960237
 30
0.0
 11
6688.2928369340761492
 21
301.3952759822012126
 31
0.0
  0
LINE
  5
316A1
  8
0
 10
6688.2928369340761492
 20
301.3952759822012126
 30
0.0
 11
6688.2829944142331442
 21
301.4005249104731092
 31
0.0
  0
LINE
  5
316A2
  8
0
 10
6688.2829944142076783
 20
301.393655731438912
 30
0.0
 11
6688.292836933934268
 21
301.3900460188731927
 31
0.0
  0
LINE
  5
316A3
  8
0
 10
6688.292836933934268
 20
301.3900460188731927
 30
0.0
 11
6688.3125219736557483
 21
301.3853331595789768
 31
0.0
  0
LINE
  5
316A4
  8
0
 10
6688.3125219736557483
 20
301.3853331595789768
 30
0.0
 11
6688.3223644928721114
 21
301.3843022610553248
 31
0.0
  0
LINE
  5
316A5
  8
0
 10
6688.3223644928721114
 20
301.3843022610553248
 30
0.0
 11
6688.3125219733256017
 21
301.3879478259289044
 31
0.0
  0
LINE
  5
316A6
  8
0
 10
6688.3125219733256017
 20
301.3879478259289044
 30
0.0
 11
6688.2928369338906123
 21
301.392588986776218
 31
0.0
  0
LINE
  5
316A7
  8
0
 10
6688.2928369338906123
 20
301.392588986776218
 30
0.0
 11
6688.2829944142076783
 21
301.393655731438912
 31
0.0
  0
LINE
  5
316A8
  8
0
 10
6688.3110956285318025
 20
301.3895764625730749
 30
0.0
 11
6688.3206757832713265
 21
301.3899062971256058
 31
0.0
  0
LINE
  5
316A9
  8
0
 10
6688.3206757832713265
 20
301.3899062971256058
 30
0.0
 11
6688.3403608228863959
 21
301.3862678576708163
 31
0.0
  0
LINE
  5
316AA
  8
0
 10
6688.3403608228863959
 20
301.3862678576708163
 30
0.0
 11
6688.3502033425638729
 21
301.3822571352587829
 31
0.0
  0
LINE
  5
316AB
  8
0
 10
6688.3502033425638729
 20
301.3822571352587829
 30
0.0
 11
6688.3403608231392354
 21
301.3819060755376995
 31
0.0
  0
LINE
  5
316AC
  8
0
 10
6688.3403608231392354
 20
301.3819060755376995
 30
0.0
 11
6688.3206757835341705
 21
301.3855874631718166
 31
0.0
  0
LINE
  5
316AD
  8
0
 10
6688.3206757835341705
 20
301.3855874631718166
 30
0.0
 11
6688.3110956285318025
 21
301.3895764625730749
 31
0.0
  0
LINE
  5
316AE
  8
0
 10
6688.3104994265040659
 20
301.3853210289378239
 30
0.0
 11
6688.3208428932866809
 21
301.3838801650256869
 31
0.0
  0
LINE
  5
316AF
  8
0
 10
6688.3208428932866809
 20
301.3838801650256869
 30
0.0
 11
6688.3403608229591555
 21
301.3801978176131797
 31
0.0
  0
LINE
  5
316B0
  8
0
 10
6688.3403608229591555
 20
301.3801978176131797
 30
0.0
 11
6688.3524167254727217
 21
301.3771827827160905
 31
0.0
  0
LINE
  5
316B1
  8
0
 10
6688.3386721135611879
 20
301.3812387874903038
 30
0.0
 11
6688.3485146329621784
 21
301.381230651314695
 31
0.0
  0
LINE
  5
316B2
  8
0
 10
6688.3485146329621784
 20
301.381230651314695
 30
0.0
 11
6688.3681996725326826
 21
301.3784993207116258
 31
0.0
  0
LINE
  5
316B3
  8
0
 10
6688.3681996725326826
 20
301.3784993207116258
 30
0.0
 11
6688.3780421922156165
 21
301.3757359642518168
 31
0.0
  0
LINE
  5
316B4
  8
0
 10
6688.3780421922156165
 20
301.3757359642518168
 30
0.0
 11
6688.3681996725326826
 21
301.3757359642518168
 31
0.0
  0
LINE
  5
316B5
  8
0
 10
6688.3681996725326826
 20
301.3757359642518168
 30
0.0
 11
6688.3485146332332079
 21
301.3785144416730759
 31
0.0
  0
LINE
  5
316B6
  8
0
 10
6688.3485146332332079
 20
301.3785144416730759
 30
0.0
 11
6688.3386721135611879
 21
301.3812387874903038
 31
0.0
  0
LINE
  5
316B7
  8
0
 10
6688.3386721134766049
 20
301.3883480836564104
 30
0.0
 11
6688.3391567318321904
 21
301.3884135688730908
 31
0.0
  0
LINE
  5
316B8
  8
0
 10
6688.3391567318321904
 20
301.3884135688730908
 30
0.0
 11
6688.3773650374223507
 21
301.3831681839022281
 31
0.0
  0
LINE
  5
316B9
  8
0
 10
6688.3773650374223507
 20
301.3831681839022281
 30
0.0
 11
6688.3780421922383539
 21
301.3829482515714062
 31
0.0
  0
LINE
  5
316BA
  8
0
 10
6688.3780421922383539
 20
301.3829482515714062
 30
0.0
 11
6688.3681996726909347
 21
301.3812909881539213
 31
0.0
  0
LINE
  5
316BB
  8
0
 10
6688.3681996726909347
 20
301.3812909881539213
 30
0.0
 11
6688.3485146332332079
 21
301.3840024486731863
 31
0.0
  0
LINE
  5
316BC
  8
0
 10
6688.3485146332332079
 20
301.3840024486731863
 30
0.0
 11
6688.338672113533903
 21
301.3883480837732236
 31
0.0
  0
LINE
  5
316BD
  8
0
 10
6688.3665109632092935
 20
301.3800032072858812
 30
0.0
 11
6688.376353482709419
 21
301.3813175159863249
 31
0.0
  0
LINE
  5
316BE
  8
0
 10
6688.376353482709419
 20
301.3813175159863249
 30
0.0
 11
6688.3960385221962497
 21
301.3795236073029855
 31
0.0
  0
LINE
  5
316BF
  8
0
 10
6688.3960385221962497
 20
301.3795236073029855
 30
0.0
 11
6688.4058810419355723
 21
301.3763949714020214
 31
0.0
  0
LINE
  5
316C0
  8
0
 10
6688.4058810419355723
 20
301.3763949714020214
 30
0.0
 11
6688.3960385224663696
 21
301.3750837396552242
 31
0.0
  0
LINE
  5
316C1
  8
0
 10
6688.3960385224663696
 20
301.3750837396552242
 30
0.0
 11
6688.3763534828904085
 21
301.3768982281840181
 31
0.0
  0
LINE
  5
316C2
  8
0
 10
6688.3763534828904085
 20
301.3768982281840181
 30
0.0
 11
6688.3665109633266184
 21
301.3800032073016837
 31
0.0
  0
LINE
  5
316C3
  8
0
 10
6688.3646376231699833
 20
301.3755266876020187
 30
0.0
 11
6688.3763534828331103
 21
301.375143021561712
 31
0.0
  0
LINE
  5
316C4
  8
0
 10
6688.3763534828331103
 20
301.375143021561712
 30
0.0
 11
6688.3960385221962497
 21
301.3733117375235224
 31
0.0
  0
LINE
  5
316C5
  8
0
 10
6688.3960385221962497
 20
301.3733117375235224
 30
0.0
 11
6688.4068044497817027
 21
301.3716194265406898
 31
0.0
  0
LINE
  5
316C6
  8
0
 10
6688.3943498128155625
 20
301.3742262245099255
 30
0.0
 11
6688.4041923325330572
 21
301.375188387373214
 31
0.0
  0
LINE
  5
316C7
  8
0
 10
6688.4041923325330572
 20
301.375188387373214
 30
0.0
 11
6688.4238773718316224
 21
301.3742864629049905
 31
0.0
  0
LINE
  5
316C8
  8
0
 10
6688.4238773718316224
 20
301.3742864629049905
 30
0.0
 11
6688.4337198915827685
 21
301.3724093787341758
 31
0.0
  0
LINE
  5
316C9
  8
0
 10
6688.4337198915827685
 20
301.3724093787341758
 30
0.0
 11
6688.4238766859343741
 21
301.3714679739438793
 31
0.0
  0
LINE
  5
316CA
  8
0
 10
6688.4238766859343741
 20
301.3714679739438793
 30
0.0
 11
6688.4041923325521566
 21
301.3723830129703742
 31
0.0
  0
LINE
  5
316CB
  8
0
 10
6688.4041923325521566
 20
301.3723830129703742
 30
0.0
 11
6688.3943498128155625
 21
301.3742262245099255
 31
0.0
  0
LINE
  5
316CC
  8
0
 10
6688.3943498128328429
 20
301.3814664134732197
 30
0.0
 11
6688.3948344311329492
 21
301.3815783163731794
 31
0.0
  0
LINE
  5
316CD
  8
0
 10
6688.3948344311329492
 20
301.3815783163731794
 30
0.0
 11
6688.4332352732326399
 21
301.3798391593732049
 31
0.0
  0
LINE
  5
316CE
  8
0
 10
6688.4332352732326399
 20
301.3798391593732049
 30
0.0
 11
6688.4337198915945919
 21
301.379682945552986
 31
0.0
  0
LINE
  5
316CF
  8
0
 10
6688.4337198915945919
 20
301.379682945552986
 30
0.0
 11
6688.4238773718807352
 21
301.3771083945212013
 31
0.0
  0
LINE
  5
316D0
  8
0
 10
6688.4238773718807352
 20
301.3771083945212013
 30
0.0
 11
6688.4041923326076358
 21
301.3780038785690181
 31
0.0
  0
LINE
  5
316D1
  8
0
 10
6688.4041923326076358
 20
301.3780038785690181
 30
0.0
 11
6688.3943498128328429
 21
301.3814664134732197
 31
0.0
  0
LINE
  5
316D2
  8
0
 10
6688.4418738206331909
 20
301.377809766873213
 30
0.0
 11
6688.4320311821802534
 21
301.3778886784454016
 31
0.0
  0
LINE
  5
316D3
  8
0
 10
6688.4320311821802534
 20
301.3778886784454016
 30
0.0
 11
6688.4221886626555715
 21
301.3756506377941946
 31
0.0
  0
LINE
  5
316D4
  8
0
 10
6688.4221886626555715
 20
301.3756506377941946
 30
0.0
 11
6688.4320311821329597
 21
301.373430172873384
 31
0.0
  0
LINE
  5
316D5
  8
0
 10
6688.4320311821329597
 20
301.373430172873384
 30
0.0
 11
6688.4418736989828176
 21
301.373430172873384
 31
0.0
  0
ARC
  5
316D6
  8
0
 10
6688.2002539374407206
 20
301.5137662825022744
 30
0.0
 40
0.0817240818100043
 50
211.4011080116123935
 51
239.2678648693693901
  0
ARC
  5
316D7
  8
0
 10
6688.3162357159362728
 20
301.7067632361333267
 30
0.0
 40
0.3068891179221304
 50
239.0685296689183872
 51
243.9537010095990865
  0
ARC
  5
316D8
  8
0
 10
6688.4656741866247103
 20
302.016879594997306
 30
0.0
 40
0.6511429088229778
 50
246.032366085974104
 51
250.8671377616666121
  0
ARC
  5
316D9
  8
0
 10
6688.4037880597388721
 20
301.8355229711871743
 30
0.0
 40
0.4595214748845363
 50
250.7457172957813043
 51
255.538848188944911
  0
ARC
  5
316DA
  8
0
 10
6688.5015468257206521
 20
302.2145881666399987
 30
0.0
 40
0.8509894796179031
 50
255.538848188944911
 51
257.955173767510928
  0
ARC
  5
316DB
  8
0
 10
6688.4209013347162909
 20
301.8366352024298749
 30
0.0
 40
0.4645284358182874
 50
257.955173767510928
 51
263.1752637926866214
  0
ARC
  5
316DC
  8
0
 10
6688.4577487211190601
 20
302.1445160519115234
 30
0.0
 40
0.7746064056296662
 50
263.1752637926866214
 51
265.9198390131693941
  0
ARC
  5
316DD
  8
0
 10
6688.4466240207384544
 20
302.0612308666147783
 30
0.0
 40
0.6907601150270734
 50
266.3487228135819009
 51
269.6059767677165837
  0
LINE
  5
316DE
  8
0
 10
6688.4254467292721529
 20
301.3707954541117147
 30
0.0
 11
6688.4221886624509352
 21
301.3710593002546148
 31
0.0
  0
LINE
  5
316DF
  8
0
 10
6688.4221886624509352
 20
301.3710593002546148
 30
0.0
 11
6688.432031182072933
 21
301.3716429633395819
 31
0.0
  0
LINE
  5
316E0
  8
0
 10
6688.432031182072933
 20
301.3716429633395819
 30
0.0
 11
6688.4418736989828176
 21
301.3715624244732112
 31
0.0
  0
LINE
  5
316E1
  8
0
 10
6688.432031182072933
 20
301.3716429633395819
 30
0.0
 11
6688.432031182072933
 21
301.3706249112598243
 31
0.0
  0
LINE
  5
316E2
  8
0
 10
6688.4320311821802534
 20
301.3778886784454016
 30
0.0
 11
6688.4320311821329597
 21
301.373430172873384
 31
0.0
  0
LINE
  5
316E3
  8
0
 10
6688.4238773718807352
 20
301.3771083945212013
 30
0.0
 11
6688.4238773718807352
 21
301.3802629745488844
 31
0.0
  0
LINE
  5
316E4
  8
0
 10
6688.4041923326076358
 20
301.3780038785690181
 30
0.0
 11
6688.4041923326076358
 21
301.3811545011918724
 31
0.0
  0
LINE
  5
316E5
  8
0
 10
6688.4238773718316224
 20
301.3742864629049905
 30
0.0
 11
6688.4238766859343741
 21
301.3714679739438793
 31
0.0
  0
LINE
  5
316E6
  8
0
 10
6688.4041923325330572
 20
301.375188387373214
 30
0.0
 11
6688.4041923325521566
 21
301.3723830129703742
 31
0.0
  0
LINE
  5
316E7
  8
0
 10
6688.3960385221962497
 20
301.3733117375235224
 30
0.0
 11
6688.3960385221962497
 21
301.3723716774637182
 31
0.0
  0
LINE
  5
316E8
  8
0
 10
6688.3763534828331103
 20
301.375143021561712
 30
0.0
 11
6688.3763534828331103
 21
301.3741980014759747
 31
0.0
  0
LINE
  5
316E9
  8
0
 10
6688.3681996725326826
 20
301.3784993207116258
 30
0.0
 11
6688.3681996725326826
 21
301.3757359642518168
 31
0.0
  0
LINE
  5
316EA
  8
0
 10
6688.376353482709419
 20
301.3813175159863249
 30
0.0
 11
6688.3763534828904085
 21
301.3768982281840181
 31
0.0
  0
LINE
  5
316EB
  8
0
 10
6688.3960385221962497
 20
301.3795236073029855
 30
0.0
 11
6688.3960385224663696
 21
301.3750837396552242
 31
0.0
  0
LINE
  5
316EC
  8
0
 10
6688.3681996726909347
 20
301.3812909881539213
 30
0.0
 11
6688.3681996726909347
 21
301.3844264408617164
 31
0.0
  0
LINE
  5
316ED
  8
0
 10
6688.3485146332332079
 20
301.3840024486731863
 30
0.0
 11
6688.3485146332332079
 21
301.3871288797301986
 31
0.0
  0
LINE
  5
316EE
  8
0
 10
6688.3485146332332079
 20
301.3785144416730759
 30
0.0
 11
6688.3485146329621784
 21
301.381230651314695
 31
0.0
  0
LINE
  5
316EF
  8
0
 10
6688.3403608229591555
 20
301.3801978176131797
 30
0.0
 11
6688.3403608229591555
 21
301.3791421493136227
 31
0.0
  0
LINE
  5
316F0
  8
0
 10
6688.3208428932866809
 20
301.3838801650256869
 30
0.0
 11
6688.3208428932866809
 21
301.3830058296322818
 31
0.0
  0
LINE
  5
316F1
  8
0
 10
6688.3403608231392354
 20
301.3819060755376995
 30
0.0
 11
6688.3403608228863959
 21
301.3862678576708163
 31
0.0
  0
LINE
  5
316F2
  8
0
 10
6688.3206757832713265
 20
301.3899062971256058
 30
0.0
 11
6688.3206757835341705
 21
301.3855874631718166
 31
0.0
  0
LINE
  5
316F3
  8
0
 10
6688.3125219733256017
 20
301.3879478259289044
 30
0.0
 11
6688.3125219736557483
 21
301.3853331595789768
 31
0.0
  0
LINE
  5
316F4
  8
0
 10
6688.3125219732646656
 20
301.3906699029960237
 30
0.0
 11
6688.3125219732646656
 21
301.3937762536568812
 31
0.0
  0
LINE
  5
316F5
  8
0
 10
6688.2928369340761492
 20
301.3952759822012126
 30
0.0
 11
6688.2928369340761492
 21
301.3983609105486039
 31
0.0
  0
LINE
  5
316F6
  8
0
 10
6688.2928369338906123
 20
301.392588986776218
 30
0.0
 11
6688.292836933934268
 21
301.3900460188731927
 31
0.0
  0
LINE
  5
316F7
  8
0
 10
6688.2846831237820879
 20
301.3940980064327277
 30
0.0
 11
6688.284683123596551
 21
301.3983152964758006
 31
0.0
  0
LINE
  5
316F8
  8
0
 10
6688.2649980840969874
 20
301.4039069855139132
 30
0.0
 11
6688.264998084436229
 21
301.3997590440183103
 31
0.0
  0
LINE
  5
316F9
  8
0
 10
6688.2568442739948296
 20
301.4005386975655938
 30
0.0
 11
6688.2568442739329839
 21
301.4029174025448015
 31
0.0
  0
LINE
  5
316FA
  8
0
 10
6688.2371592346325997
 20
301.4096163049732127
 30
0.0
 11
6688.2371592346325997
 21
301.4073477620731865
 31
0.0
  0
LINE
  5
316FB
  8
0
 10
6688.229005424332172
 20
301.4120454452731792
 30
0.0
 11
6688.229005424324896
 21
301.4160376675932866
 31
0.0
  0
LINE
  5
316FC
  8
0
 10
6688.2093203849317433
 20
301.4237671285731039
 30
0.0
 11
6688.2093203849753991
 21
301.4198780872271755
 31
0.0
  0
LINE
  5
316FD
  8
0
 10
6688.2011665743302729
 20
301.4239048616533978
 30
0.0
 11
6688.2011665748532323
 21
301.4218814344745283
 31
0.0
  0
LINE
  5
316FE
  8
0
 10
6688.1814815353318409
 20
301.4310419248261042
 30
0.0
 11
6688.1814815352536243
 21
301.4329034463290782
 31
0.0
  0
LINE
  5
316FF
  8
0
 10
6688.4418735773342632
 20
301.377809766873213
 30
0.0
 11
6688.4418736989828176
 21
301.3778097678484755
 31
0.0
  0
LINE
  5
31700
  8
0
 10
6689.3867555887818526
 20
293.511811422411995
 30
0.0
 11
6687.4969918091828731
 21
293.511811422411995
 31
0.0
  0
LINE
  5
31701
  8
0
 10
6689.2725823603841491
 20
293.6968507925120093
 30
0.0
 11
6687.6111650375842146
 21
293.6968507925120093
 31
0.0
  0
LINE
  5
31702
  8
0
 10
6689.3783123793573395
 20
293.6640380280786076
 30
0.0
 11
6687.5054350186092051
 21
293.6640380280786076
 31
0.0
  0
LINE
  5
31703
  8
0
 10
6687.5054350186119336
 20
293.6640380280795171
 30
0.0
 11
6687.6111650375842146
 21
293.6968507925120093
 31
0.0
  0
LINE
  5
31704
  8
0
 10
6687.4969918091828731
 20
293.6525772584354854
 30
0.0
 11
6687.4969918091828731
 21
293.511811422411995
 31
0.0
  0
ARC
  5
31705
  8
0
 10
6687.5089918091825893
 20
293.6525772584354854
 30
0.0
 40
0.012
 50
107.2414593615117013
 51
180.0
  0
LINE
  5
31706
  8
0
 10
6688.3099891989340904
 20
302.2863334250412777
 30
0.0
 11
6688.5737581990306353
 21
302.2863334250412777
 31
0.0
  0
LINE
  5
31707
  8
0
 10
6688.3603661853030644
 20
302.2479103151119944
 30
0.0
 11
6688.5233812126625708
 21
302.2479103151119944
 31
0.0
  0
ARC
  5
31708
  8
0
 10
6688.438735199056282
 20
299.3574816538240952
 30
0.0
 40
2.891490886776475
 50
91.5530962520264922
 51
96.0499771586078595
  0
ARC
  5
31709
  8
0
 10
6688.2454464528864264
 20
301.0952897448424892
 30
0.0
 40
1.143025813638932
 50
95.5961115247324642
 51
104.560837744049806
  0
ARC
  5
3170A
  8
0
 10
6688.0249752629797513
 20
301.9301432408611277
 30
0.0
 40
0.2795805132529892
 50
103.8433018751662047
 51
118.2427612441202029
  0
ARC
  5
3170B
  8
0
 10
6687.9708557190670035
 20
302.0239234396307779
 30
0.0
 40
0.171386731367081
 50
117.1397924274339033
 51
147.5656925983954864
  0
LINE
  5
3170C
  8
0
 10
6688.4855098816406098
 20
302.1124164699076005
 30
0.0
 11
6688.3982375163259348
 21
302.1124164699076005
 31
0.0
  0
ARC
  5
3170D
  8
0
 10
6688.5531765007081049
 20
297.7331622126945945
 30
0.0
 40
4.3819942877872409
 50
92.0262921587885216
 51
94.2048204102225242
  0
ARC
  5
3170E
  8
0
 10
6688.399290209415085
 20
300.0208913481023956
 30
0.0
 40
2.0891884678051751
 50
94.5961502414929072
 51
98.575388317838474
  0
ARC
  5
3170F
  8
0
 10
6688.3009342371551611
 20
300.6731347233119891
 30
0.0
 40
1.429570913624143
 50
98.575388317838474
 51
103.3957271922752028
  0
ARC
  5
31710
  8
0
 10
6688.0528554908696606
 20
301.7148048801290088
 30
0.0
 40
0.3587675796911093
 50
103.3957271922752028
 51
119.4720572604365998
  0
ARC
  5
31711
  8
0
 10
6687.959971289639725
 20
301.9121510982039922
 30
0.0
 40
0.1421891274603776
 50
126.0261184984575067
 51
164.5676061033717872
  0
ARC
  5
31712
  8
0
 10
6681.2856669634038553
 20
303.3719123748451238
 30
0.0
 40
6.6900971620113543
 50
346.3707428481662873
 51
347.7286562526848002
  0
ARC
  5
31713
  8
0
 10
6691.0531336844642283
 20
301.0711795836451188
 30
0.0
 40
3.3451106843007792
 50
167.4951833026144925
 51
172.8371400341318918
  0
ARC
  5
31714
  8
0
 10
6675.8513316460002898
 20
302.9387390543653851
 30
0.0
 40
11.9709942066248196
 50
349.5442122682545119
 51
353.040696920787525
  0
ARC
  5
31715
  8
0
 10
6698.5252487855896106
 20
300.0820342666743272
 30
0.0
 40
10.9078551911725707
 50
170.5926979409443902
 51
172.0850380120315037
  0
ARC
  5
31716
  8
0
 10
6684.6224647474773519
 20
302.0149055285569943
 30
0.0
 40
3.1286470556637811
 50
346.8756381284115946
 51
352.0850380120314753
  0
ARC
  5
31717
  8
0
 10
6673.0303750947941808
 20
304.8985960340235124
 30
0.0
 40
15.0737619163026508
 50
345.4795352642860848
 51
346.2058650526190036
  0
ARC
  5
31718
  8
0
 10
6687.9707427517269025
 20
301.0842321941566979
 30
0.0
 40
0.3517388135293062
 50
155.2851291261503945
 51
168.4840231318127053
  0
ARC
  5
31719
  8
0
 10
6688.0132240071143315
 20
301.0989667927643723
 30
0.0
 40
0.3910953763993448
 50
171.8435972479531983
 51
181.1260091053480892
  0
ARC
  5
3171A
  8
0
 10
6618.9309924171948296
 20
300.6442538829293198
 30
0.0
 40
68.6926662989561692
 50
359.4044182651398955
 51
0.3728631334333086
  0
ARC
  5
3171B
  8
0
 10
6764.1163749783208914
 20
299.1350174725802162
 30
0.0
 40
76.5005604850891672
 50
179.4044182651398955
 51
179.660811826367194
  0
ARC
  5
3171C
  8
0
 10
6764.1163749783208914
 20
299.1350174725802162
 30
0.0
 40
76.5005604850891672
 50
180.339188173632806
 51
180.3728631334332988
  0
LINE
  5
3171D
  8
0
 10
6687.6171550014832974
 20
293.6968507925120093
 30
0.0
 11
6687.6171550014832974
 21
299.5878943520240796
 31
0.0
  0
ARC
  5
3171E
  8
0
 10
6688.4578630189853357
 20
303.0795027984833041
 30
0.0
 40
0.6786640876659343
 50
91.350012979293453
 51
102.2015328276038986
  0
ARC
  5
3171F
  8
0
 10
6688.405901057056326
 20
303.3807807832196204
 30
0.0
 40
0.3734321274342047
 50
104.1792167352107015
 51
110.0898788548475977
  0
ARC
  5
31720
  8
0
 10
6688.3555190789338667
 20
303.5185314027032177
 30
0.0
 40
0.2267570549519452
 50
110.0898788548475977
 51
123.1405101609038013
  0
ARC
  5
31721
  8
0
 10
6688.294742967737875
 20
303.6116178374473975
 30
0.0
 40
0.1155868250100878
 50
123.1405101609038013
 51
161.2047443722277933
  0
ARC
  5
31722
  8
0
 10
6670.3490070138977899
 20
307.9543254712942826
 30
0.0
 40
18.3485993087753982
 50
345.8707237487629982
 51
346.4291097804680248
  0
ARC
  5
31723
  8
0
 10
6926.8602778123222379
 20
243.0478924601964934
 30
0.0
 40
246.2471017126653123
 50
165.7949325071124065
 51
166.006162734303814
  0
ARC
  5
31724
  8
0
 10
7368.0407654386917784
 20
112.5287952133810023
 30
0.0
 40
706.1780755140664496
 50
164.3864640362629927
 51
164.4792339529356866
  0
ARC
  5
31725
  8
0
 10
6687.625641351422928
 20
301.4896274249325074
 30
0.0
 40
0.0117430584396626
 50
161.7511436194207022
 51
188.9610404746339896
  0
ARC
  5
31726
  8
0
 10
6687.6296121817567837
 20
301.5062270398668147
 30
0.0
 40
0.024125940625342
 50
229.8053327532757919
 51
266.9643567227263929
  0
ARC
  5
31727
  8
0
 10
6687.6833882637893112
 20
302.0127158075551961
 30
0.0
 40
0.5334294288644689
 50
264.076118158638792
 51
272.3217802762570159
  0
ARC
  5
31728
  8
0
 10
6688.3330774412333994
 20
299.4699310965963832
 30
0.0
 40
2.1464709929756838
 50
106.805713806840302
 51
107.7199721698145964
  0
ARC
  5
31729
  8
0
 10
6687.8374335884100219
 20
301.0211214827401136
 30
0.0
 40
0.5180194453677461
 50
107.7199721698145964
 51
110.5977448502087981
  0
ARC
  5
3172A
  8
0
 10
6687.7067132793999917
 20
301.3689387956080736
 30
0.0
 40
0.1464488836723937
 50
110.5977448502087981
 51
116.204799920528302
  0
ARC
  5
3172B
  8
0
 10
6687.6603759661411459
 20
301.463088739522675
 30
0.0
 40
0.0415138631166532
 50
116.204799920528302
 51
124.5063509714432968
  0
ARC
  5
3172C
  8
0
 10
6687.6386828385566332
 20
301.4946449420185104
 30
0.0
 40
0.0032204472293286
 50
124.5063509714432968
 51
242.420048196555399
  0
ARC
  5
3172D
  8
0
 10
6687.6632370971756245
 20
301.5509330284621115
 30
0.0
 40
0.0646235361172537
 50
246.2322096113647945
 51
268.829404076263927
  0
ARC
  5
3172E
  8
0
 10
6687.6979182570357807
 20
302.0045530099765756
 30
0.0
 40
0.5194790310684466
 50
266.0260539839097191
 51
270.8840183166789188
  0
ARC
  5
3172F
  8
0
 10
6688.4345484631458021
 20
302.9591422391454785
 30
0.0
 40
0.630992145236641
 50
89.3348339937674325
 51
102.8924286833262016
  0
ARC
  5
31730
  8
0
 10
6688.367105975735285
 20
303.2682111398328857
 30
0.0
 40
0.3146832531241643
 50
103.4782721244762058
 51
115.1999857094595967
  0
ARC
  5
31731
  8
0
 10
6688.3332397581571058
 20
303.3631286149159791
 30
0.0
 40
0.2146023639875497
 50
117.8095526066343979
 51
157.5858539060801036
  0
ARC
  5
31732
  8
0
 10
6688.4660186982800951
 20
299.9686704643219741
 30
0.0
 40
2.3201658129351039
 50
84.6571024053327648
 51
87.3384491338005517
  0
ARC
  5
31733
  8
0
 10
6688.5625966165889622
 20
301.0631917404622868
 30
0.0
 40
1.2214205683979169
 50
77.1599755224950314
 51
84.386942250057416
  0
ARC
  5
31734
  8
0
 10
6688.6512193446078527
 20
301.4540862225970272
 30
0.0
 40
0.8206061888850756
 50
71.4239817969773014
 51
77.1277402982308331
  0
ARC
  5
31735
  8
0
 10
6688.7818421690144532
 20
301.8427621731149202
 30
0.0
 40
0.4105679994846814
 50
60.9427320052075601
 51
71.4239817969773014
  0
ARC
  5
31736
  8
0
 10
6688.8852087104842212
 20
302.0288015724576098
 30
0.0
 40
0.1977410744885573
 50
41.5953085789062627
 51
60.9427320052075601
  0
ARC
  5
31737
  8
0
 10
6688.9417228831707689
 20
302.0789689284537189
 30
0.0
 40
0.1221724611481505
 50
21.2530084957767897
 51
41.5953085789062627
  0
ARC
  5
31738
  8
0
 10
6680.7471254210140614
 20
299.9253376674387823
 30
0.0
 40
8.5942632819841513
 50
13.0432146179251198
 51
14.8175779992164003
  0
ARC
  5
31739
  8
0
 10
6688.3868901976502457
 20
297.9015252647099032
 30
0.0
 40
3.7788269982196652
 50
87.6533706813009843
 51
89.1662932060815479
  0
ARC
  5
3173A
  8
0
 10
6688.4501697366440567
 20
299.9662434095918115
 30
0.0
 40
1.7133819074156409
 50
84.3889839390792957
 51
86.940631085677623
  0
ARC
  5
3173B
  8
0
 10
6688.4852299383674108
 20
300.3231084949932779
 30
0.0
 40
1.3547987135491311
 50
77.8817102074625609
 51
84.3889839390792957
  0
ARC
  5
3173C
  8
0
 10
6688.6027892736146896
 20
300.8706210195181256
 30
0.0
 40
0.7948074977111246
 50
71.1331606203765716
 51
77.8817102074625609
  0
ARC
  5
3173D
  8
0
 10
6688.7236294067752169
 20
301.2242338603040253
 30
0.0
 40
0.4211172798159082
 50
60.0674852266380128
 51
71.1331606203765716
  0
ARC
  5
3173E
  8
0
 10
6688.8676897827672292
 20
301.4744338586170898
 30
0.0
 40
0.1324073369888611
 50
38.6132770611891871
 51
60.0674852266380128
  0
ARC
  5
3173F
  8
0
 10
6688.9224890366976979
 20
301.5164273805539779
 30
0.0
 40
0.0633971535606596
 50
14.6075027226137095
 51
39.8653859340455412
  0
ARC
  5
31740
  8
0
 10
6688.9257753558040349
 20
301.518629291198522
 30
0.0
 40
0.0596759514861068
 50
349.1328502418223252
 51
13.3573916838100697
  0
ARC
  5
31741
  8
0
 10
6688.9004817187460503
 20
301.5217304631436264
 30
0.0
 40
0.0851181113017892
 50
319.8020943603955857
 51
350.2928123153992033
  0
ARC
  5
31742
  8
0
 10
6688.8287483438271011
 20
301.5886965909717787
 30
0.0
 40
0.1831956461260364
 50
294.6298718863662884
 51
318.2846727569929044
  0
ARC
  5
31743
  8
0
 10
6688.6523402401353451
 20
301.9677058875485045
 30
0.0
 40
0.6012460073213428
 50
281.5058476249240016
 51
294.8589975300322976
  0
ARC
  5
31744
  8
0
 10
6688.5182909515906431
 20
302.5002542020704936
 30
0.0
 40
1.1501055163083009
 50
274.040840214141781
 51
282.7578280476510031
  0
ARC
  5
31745
  8
0
 10
6688.4346212181490046
 20
303.9667314808640981
 30
0.0
 40
2.6189086748102759
 50
271.8874540025955184
 51
273.6059663823593269
  0
ARC
  5
31746
  8
0
 10
6688.7979267272794459
 20
283.2527808422926796
 30
0.0
 40
18.0985834622196506
 50
90.87710271394279
 51
91.127251311465443
  0
ARC
  5
31747
  8
0
 10
6688.3966241356429236
 20
298.7557273710303889
 30
0.0
 40
2.9180574708703229
 50
86.6840670835058376
 51
89.111493538434388
  0
ARC
  5
31748
  8
0
 10
6688.4601050043520445
 20
300.248106323855211
 30
0.0
 40
1.424690077850332
 50
81.3992639882768856
 51
85.7611807845464114
  0
ARC
  5
31749
  8
0
 10
6688.5164598008168468
 20
300.6207026785211269
 30
0.0
 40
1.04785602074456
 50
75.9022866180168023
 51
81.3992639882768856
  0
ARC
  5
3174A
  8
0
 10
6688.592450534890304
 20
300.9232855802827089
 30
0.0
 40
0.7358768481971872
 50
70.1685590682709091
 51
75.9022866180168023
  0
ARC
  5
3174B
  8
0
 10
6688.6933893754758174
 20
301.2031720012594178
 30
0.0
 40
0.4383452394797602
 50
61.2536164664517386
 51
70.1685590682709091
  0
ARC
  5
3174C
  8
0
 10
6688.8149414822792096
 20
301.4247654022352094
 30
0.0
 40
0.1856031772415047
 50
43.5002677009980587
 51
61.2536164664517386
  0
ARC
  5
3174D
  8
0
 10
6688.8897947152972847
 20
301.495799132756872
 30
0.0
 40
0.0824101669890182
 50
19.9121018919554515
 51
43.5002677009980587
  0
ARC
  5
3174E
  8
0
 10
6688.9027675120341883
 20
301.5058803639943221
 30
0.0
 40
0.0669709359334884
 50
328.8105262789617882
 51
15.5787352204824092
  0
ARC
  5
3174F
  8
0
 10
6688.8414414920016497
 20
301.5558781386104101
 30
0.0
 40
0.145741829709124
 50
295.0707179256875747
 51
324.477159607475528
  0
ARC
  5
31750
  8
0
 10
6688.6032570159377428
 20
302.0785257344599017
 30
0.0
 40
0.7200986265477793
 50
283.574379994737626
 51
294.6155243000130781
  0
ARC
  5
31751
  8
0
 10
6688.3801633050852615
 20
299.5751160284327739
 30
0.0
 40
2.0272341884211511
 50
84.2269889609826379
 51
88.2556078483207642
  0
ARC
  5
31752
  8
0
 10
6688.4813464795233813
 20
300.8336292043774733
 30
0.0
 40
0.7653652227949994
 50
76.1520301533666526
 51
82.2861616918491023
  0
ARC
  5
31753
  8
0
 10
6688.5592514288027814
 20
301.1496589000865924
 30
0.0
 40
0.4398749008309595
 50
67.4239000816450158
 51
76.1520301533666526
  0
ARC
  5
31754
  8
0
 10
6688.6486622717238788
 20
301.3647074515544091
 30
0.0
 40
0.2069796919483002
 50
54.9254764811554281
 51
67.4239000816450158
  0
ARC
  5
31755
  8
0
 10
6688.7162905836166829
 20
301.4610238135165901
 30
0.0
 40
0.0892918414668551
 50
37.6847932240700914
 51
54.9254764811554281
  0
ARC
  5
31756
  8
0
 10
6688.7516875759938557
 20
301.4883667146488051
 30
0.0
 40
0.0445639831260654
 50
2.6359974722080102
 51
37.6847932240700914
  0
ARC
  5
31757
  8
0
 10
6688.7066565054319653
 20
301.4953392550156082
 30
0.0
 40
0.0896831218962085
 50
304.7647854161838268
 51
356.8532554422151861
  0
ARC
  5
31758
  8
0
 10
6688.602888843760411
 20
301.6298039993826023
 30
0.0
 40
0.2594567615308994
 50
282.547135838667316
 51
306.6581134355192262
  0
ARC
  5
31759
  8
0
 10
6688.4874969161028275
 20
302.0329924739227181
 30
0.0
 40
0.6785465997100771
 50
278.2297775543589182
 51
284.6625031903366221
  0
ARC
  5
3175A
  8
0
 10
6688.4476891514295858
 20
302.3082258825157282
 30
0.0
 40
0.9566438620736057
 50
273.7087274313366265
 51
278.2297775543589182
  0
ARC
  5
3175B
  8
0
 10
6687.5273396407301334
 20
330.9683611686282916
 30
0.0
 40
29.6310599813273114
 50
271.7686597936527164
 51
271.8996252125169804
  0
ARC
  5
3175C
  8
0
 10
6688.4195613005667838
 20
300.270911560486411
 30
0.0
 40
1.386218543090886
 50
82.6060116778678264
 51
89.0777345507175085
  0
ARC
  5
3175D
  8
0
 10
6688.5014849540521027
 20
300.9964251476283152
 30
0.0
 40
0.6563069711282044
 50
72.34913709657026
 51
81.5474326447158262
  0
ARC
  5
3175E
  8
0
 10
6688.6193697689968758
 20
301.3669037490035976
 30
0.0
 40
0.267525253873722
 50
56.1836876969336103
 51
72.34913709657026
  0
ARC
  5
3175F
  8
0
 10
6688.7271172955197471
 20
301.5277559984037907
 30
0.0
 40
0.0739200483419148
 50
36.1275027404846725
 51
56.1836876969336103
  0
ARC
  5
31760
  8
0
 10
6688.7403793935663998
 20
301.5374366411525102
 30
0.0
 40
0.0575006059462297
 50
19.9919406600302985
 51
36.1275027404873015
  0
ARC
  5
31761
  8
0
 10
6688.7637658413750614
 20
301.5459448868604113
 30
0.0
 40
0.0326145418510164
 50
0.0
 51
19.9919406600302985
  0
LINE
  5
31762
  8
0
 10
6688.7963803832253689
 20
301.5459448868604113
 30
0.0
 11
6688.7962044047326344
 21
301.4904162392733724
 31
0.0
  0
ARC
  5
31763
  8
0
 10
6688.4076637425141598
 20
299.126973807043214
 30
0.0
 40
2.5328963733466252
 50
86.8900411847165657
 51
89.226124786861277
  0
ARC
  5
31764
  8
0
 10
6688.4575966195352521
 20
300.3729509254712866
 30
0.0
 40
1.2861676034159839
 50
78.5290777308601093
 51
86.0998349825786988
  0
ARC
  5
31765
  8
0
 10
6688.5792800929802979
 20
300.9726018612062148
 30
0.0
 40
0.6742949757905377
 50
70.5474159094633677
 51
78.5290777308601093
  0
ARC
  5
31766
  8
0
 10
6688.6704444685956332
 20
301.2307207763215047
 30
0.0
 40
0.4005499891301677
 50
59.5987072511114704
 51
70.5474159094633677
  0
ARC
  5
31767
  8
0
 10
6688.8021952365315883
 20
301.4552729151960762
 30
0.0
 40
0.1402003628105712
 50
39.7030837315019198
 51
59.5987072511114704
  0
ARC
  5
31768
  8
0
 10
6688.8635143613500986
 20
301.5061866087128237
 30
0.0
 40
0.0604994264548133
 50
358.5571282036279968
 51
39.7030837315019198
  0
ARC
  5
31769
  8
0
 10
6688.8482026804013003
 20
301.5176265536085225
 30
0.0
 40
0.0768925474421546
 50
305.3614758249731835
 51
350.2941375271835227
  0
ARC
  5
3176A
  8
0
 10
6688.6948788985528154
 20
301.7246027952527925
 30
0.0
 40
0.3344600134337566
 50
286.0704181500116192
 51
306.2615995038552228
  0
ARC
  5
3176B
  8
0
 10
6688.5237210287577909
 20
302.2546188922792112
 30
0.0
 40
0.8913207040457963
 50
276.9018713260858817
 51
287.2115679691173113
  0
ARC
  5
3176C
  8
0
 10
6688.7274727467447519
 20
301.5298915850842718
 30
0.0
 40
0.0997287812767319
 50
37.291948517725352
 51
62.3870524364733399
  0
ARC
  5
3176D
  8
0
 10
6688.7706745553841756
 20
301.5627929507601266
 30
0.0
 40
0.0454250416915252
 50
14.6534011557248895
 51
37.291948517725352
  0
ARC
  5
3176E
  8
0
 10
6688.7778093281549445
 20
301.5646585225720173
 30
0.0
 40
0.038050399958686
 50
340.9567211042756867
 51
14.6534011557248895
  0
ARC
  5
3176F
  8
0
 10
6688.762826767389015
 20
301.5698300942592027
 30
0.0
 40
0.0539003930454655
 50
308.4208527852462112
 51
340.9567211042756867
  0
ARC
  5
31770
  8
0
 10
6688.826356446702448
 20
301.5729171097261201
 30
0.0
 40
0.0695609141357355
 50
311.4802880970077013
 51
349.7437342777931235
  0
ARC
  5
31771
  8
0
 10
6688.7322228465545777
 20
301.679389578329392
 30
0.0
 40
0.211678897682025
 50
297.6082891655535718
 51
311.4802880970077013
  0
ARC
  5
31772
  8
0
 10
6688.6793245508997643
 20
301.7805390409548068
 30
0.0
 40
0.3258254853340143
 50
290.6338486304520075
 51
297.6082891655535718
  0
ARC
  5
31773
  8
0
 10
6688.8342587917259152
 20
301.5677286748464212
 30
0.0
 40
0.095351325373299
 50
309.2648197131067036
 51
334.5922228331243105
  0
ARC
  5
31774
  8
0
 10
6688.7540140475566659
 20
301.6658915048028007
 30
0.0
 40
0.222139180280781
 50
297.3089667533715215
 51
309.2648197131067036
  0
ARC
  5
31775
  8
0
 10
6688.6625176244915565
 20
301.8430945277331148
 30
0.0
 40
0.4215696362525371
 50
285.4021070931743225
 51
297.3089667533715215
  0
ARC
  5
31776
  8
0
 10
6690.1491630971122504
 20
301.5859678605120848
 30
0.0
 40
1.133190830834369
 50
162.745576600214207
 51
168.9048313198728977
  0
ARC
  5
31777
  8
0
 10
6695.4369834529816217
 20
300.5490017889077876
 30
0.0
 40
6.5217289210404736
 50
168.9048313198728977
 51
170.0499394373850066
  0
ARC
  5
31778
  8
0
 10
6717.257468546950804
 20
296.7343465924614065
 30
0.0
 40
28.6731425351046312
 50
170.0760726605755053
 51
170.4127359574341938
  0
LINE
  5
31779
  8
0
 10
6688.4598744287050067
 20
301.5450595554337951
 30
0.0
 11
6688.4598744287050067
 21
301.5183735242297871
 31
0.0
  0
LINE
  5
3177A
  8
0
 10
6688.4598740405890567
 20
301.5040830786052197
 30
0.0
 11
6688.4598740405890567
 21
301.4812147016456834
 31
0.0
  0
LINE
  5
3177B
  8
0
 10
6688.459873786134267
 20
301.4692674401587738
 30
0.0
 11
6688.459873786134267
 21
301.4498326233622265
 31
0.0
  0
LINE
  5
3177C
  8
0
 10
6688.4795594681054354
 20
301.546039342189772
 30
0.0
 11
6688.4795594681054354
 21
301.5193243513539869
 31
0.0
  0
LINE
  5
3177D
  8
0
 10
6688.4795590799876663
 20
301.505018699103573
 30
0.0
 11
6688.4795590799876663
 21
301.4821304548830767
 31
0.0
  0
LINE
  5
3177E
  8
0
 10
6688.4795588255337861
 20
301.4701729299640078
 30
0.0
 11
6688.4795588255337861
 21
301.4507251132906163
 31
0.0
  0
LINE
  5
3177F
  8
0
 10
6688.4877162727316318
 20
301.4376188969046098
 30
0.0
 11
6688.4877162727316318
 21
301.4554493178652024
 31
0.0
  0
LINE
  5
31780
  8
0
 10
6688.4877166859178033
 20
301.466318575472485
 30
0.0
 11
6688.4877166859178033
 21
301.4874590186477121
 31
0.0
  0
LINE
  5
31781
  8
0
 10
6688.4877173264812882
 20
301.5005681859919946
 30
0.0
 11
6688.4877173264812882
 21
301.5253247680198001
 31
0.0
  0
LINE
  5
31782
  8
0
 10
6688.4877088756093144
 20
301.5418011393124971
 30
0.0
 11
6688.4877088756093144
 21
301.5538324634313199
 31
0.0
  0
LINE
  5
31783
  8
0
 10
6688.5074013121311509
 20
301.4393940403140846
 30
0.0
 11
6688.5074013121311509
 21
301.4572448260046258
 31
0.0
  0
LINE
  5
31784
  8
0
 10
6688.5074017253191414
 20
301.468130703070301
 30
0.0
 11
6688.5074017253191414
 21
301.4893039622879769
 31
0.0
  0
LINE
  5
31785
  8
0
 10
6688.5074023658798978
 20
301.5024385416757013
 30
0.0
 11
6688.5074023658798978
 21
301.5272437929941134
 31
0.0
  0
LINE
  5
31786
  8
0
 10
6688.5073939150070146
 20
301.5437572340148904
 30
0.0
 11
6688.5073939150070146
 21
301.552727243949505
 31
0.0
  0
LINE
  5
31787
  8
0
 10
6688.5155592467936003
 20
301.4540549060627086
 30
0.0
 11
6688.5155592467936003
 21
301.4735508226398792
 31
0.0
  0
LINE
  5
31788
  8
0
 10
6688.5155600442412833
 20
301.4855480667399092
 30
0.0
 11
6688.5155600442412833
 21
301.5085098731132121
 31
0.0
  0
LINE
  5
31789
  8
0
 10
6688.5155604617139034
 20
301.5236931735487929
 30
0.0
 11
6688.5155604617139034
 21
301.5505155096782914
 31
0.0
  0
LINE
  5
3178A
  8
0
 10
6688.535244286194029
 20
301.4567576655545054
 30
0.0
 11
6688.535244286194029
 21
301.4762937142235728
 31
0.0
  0
LINE
  5
3178B
  8
0
 10
6688.535245083641712
 20
301.488322666449676
 30
0.0
 11
6688.535245083641712
 21
301.5113459128714908
 31
0.0
  0
LINE
  5
3178C
  8
0
 10
6688.535245501114332
 20
301.5265762948229735
 30
0.0
 11
6688.535245501114332
 21
301.5504367114297111
 31
0.0
  0
LINE
  5
3178D
  8
0
 10
6688.5434040937752798
 20
301.532630049322222
 30
0.0
 11
6688.5434040937752798
 21
301.5076884795547016
 31
0.0
  0
LINE
  5
3178E
  8
0
 10
6688.5434027216269897
 20
301.4944795670235749
 30
0.0
 11
6688.5434027216269897
 21
301.4732145270763226
 31
0.0
  0
LINE
  5
3178F
  8
0
 10
6688.5434018400301284
 20
301.4622800426271851
 30
0.0
 11
6688.5434018400301284
 21
301.4443723527620023
 31
0.0
  0
LINE
  5
31790
  8
0
 10
6688.5630877609273739
 20
301.4768921202485217
 30
0.0
 11
6688.5630877609273739
 21
301.4982257886273942
 31
0.0
  0
LINE
  5
31791
  8
0
 10
6688.5630891330747545
 20
301.511487923532286
 30
0.0
 11
6688.5630891330747545
 21
301.5365316173259771
 31
0.0
  0
LINE
  5
31792
  8
0
 10
6688.5712454818876722
 20
301.4635130943192962
 30
0.0
 11
6688.5712454818876722
 21
301.4831496241732793
 31
0.0
  0
LINE
  5
31793
  8
0
 10
6688.5712469361669719
 20
301.4952616446752245
 30
0.0
 11
6688.5712469361669719
 21
301.5184389779092839
 31
0.0
  0
LINE
  5
31794
  8
0
 10
6688.5712477043771287
 20
301.5337893811635013
 30
0.0
 11
6688.5712477043771287
 21
301.5461624574234065
 31
0.0
  0
LINE
  5
31795
  8
0
 10
6688.5909327437766478
 20
301.543153111416018
 30
0.0
 11
6688.5909327437766478
 21
301.5387018599341786
 31
0.0
  0
LINE
  5
31796
  8
0
 10
6688.590931975564672
 20
301.5232677045123069
 30
0.0
 11
6688.590931975564672
 21
301.4999813499060224
 31
0.0
  0
LINE
  5
31797
  8
0
 10
6688.5909305212881009
 20
301.4878131844719746
 30
0.0
 11
6688.5909305212881009
 21
301.4681057063718868
 31
0.0
  0
LINE
  5
31798
  8
0
 10
6688.5990186010731122
 20
301.5417389401731043
 30
0.0
 11
6688.5990186010731122
 21
301.5212380790081284
 31
0.0
  0
LINE
  5
31799
  8
0
 10
6688.5990899255293698
 20
301.5070312417789182
 30
0.0
 11
6688.5990899255293698
 21
301.4855350299728229
 31
0.0
  0
LINE
  5
3179A
  8
0
 10
6688.5990884475213534
 20
301.4744798952722817
 30
0.0
 11
6688.5990884475213534
 21
301.4564292247786739
 31
0.0
  0
LINE
  5
3179B
  8
0
 10
6688.6268754464063022
 20
301.5350347318457125
 30
0.0
 11
6688.6268754464063022
 21
301.5114978984241247
 31
0.0
  0
LINE
  5
3179C
  8
0
 10
6688.6269331971534484
 20
301.4983629606604154
 30
0.0
 11
6688.6269331971534484
 21
301.4784929376064042
 31
0.0
  0
LINE
  5
3179D
  8
0
 10
6688.6465604858040024
 20
301.5312261683408224
 30
0.0
 11
6688.6465604858040024
 21
301.5183222311363807
 31
0.0
  0
LINE
  5
3179E
  8
0
 10
6688.6466182365520581
 20
301.5051007986879767
 30
0.0
 11
6688.6466182365520581
 21
301.4851217660768157
 31
0.0
  0
LINE
  5
3179F
  8
0
 10
6688.6547419736325537
 20
301.5264537082994138
 30
0.0
 11
6688.6547419736325537
 21
301.5045957759732005
 31
0.0
  0
LINE
  5
317A0
  8
0
 10
6688.6547769041580978
 20
301.4924349615005781
 30
0.0
 11
6688.6547769041580978
 21
301.4741615775578794
 31
0.0
  0
LINE
  5
317A1
  8
0
 10
6688.6744270129329379
 20
301.5227462887892784
 30
0.0
 11
6688.6744270129329379
 21
301.5124302347518892
 31
0.0
  0
LINE
  5
317A2
  8
0
 10
6688.6744619434575725
 20
301.5001856699893779
 30
0.0
 11
6688.6744619434575725
 21
301.481810184402093
 31
0.0
  0
LINE
  5
317A3
  8
0
 10
6688.4795594680681461
 20
301.5193243513015204
 30
0.0
 11
6688.4894019877292521
 21
301.5331084579178196
 31
0.0
  0
LINE
  5
317A4
  8
0
 10
6688.4894019877292521
 20
301.5331084579178196
 30
0.0
 11
6688.4795594680390423
 21
301.5460393421864751
 31
0.0
  0
LINE
  5
317A5
  8
0
 10
6688.4795594680390423
 20
301.5460393421864751
 30
0.0
 11
6688.4598744287332011
 21
301.5450595554352162
 31
0.0
  0
LINE
  5
317A6
  8
0
 10
6688.4598744287332011
 20
301.5450595554352162
 30
0.0
 11
6688.4500319090102494
 21
301.5311784929480154
 31
0.0
  0
LINE
  5
317A7
  8
0
 10
6688.4500319090102494
 20
301.5311784929480154
 30
0.0
 11
6688.4598744286586225
 21
301.5183735242889043
 31
0.0
  0
LINE
  5
317A8
  8
0
 10
6688.4598744286586225
 20
301.5183735242889043
 30
0.0
 11
6688.4795594681054354
 21
301.5193243513539869
 31
0.0
  0
LINE
  5
317A9
  8
0
 10
6688.4894015996151211
 20
301.494007770232372
 30
0.0
 11
6688.4795590799531055
 21
301.5050186991431929
 31
0.0
  0
LINE
  5
317AA
  8
0
 10
6688.4795590799531055
 20
301.5050186991431929
 30
0.0
 11
6688.4598740405890567
 21
301.5040830786052197
 31
0.0
  0
LINE
  5
317AB
  8
0
 10
6688.4598740405890567
 20
301.5040830786052197
 30
0.0
 11
6688.4500315209497785
 21
301.4921567141179821
 31
0.0
  0
LINE
  5
317AC
  8
0
 10
6688.4500315209497785
 20
301.4921567141179821
 30
0.0
 11
6688.4598740405890567
 21
301.4812147016456834
 31
0.0
  0
LINE
  5
317AD
  8
0
 10
6688.4598740405890567
 20
301.4812147016456834
 30
0.0
 11
6688.479559079869432
 21
301.4821304548775061
 31
0.0
  0
LINE
  5
317AE
  8
0
 10
6688.479559079869432
 20
301.4821304548775061
 30
0.0
 11
6688.4894015996151211
 21
301.494007770232372
 31
0.0
  0
LINE
  5
317AF
  8
0
 10
6688.4894013451839783
 20
301.460884937930814
 30
0.0
 11
6688.4795588255337861
 21
301.4701729299640078
 31
0.0
  0
LINE
  5
317B0
  8
0
 10
6688.4795588255337861
 20
301.4701729299640078
 30
0.0
 11
6688.4598737861615518
 21
301.4692674401600812
 31
0.0
  0
LINE
  5
317B1
  8
0
 10
6688.4598737861615518
 20
301.4692674401600812
 30
0.0
 11
6688.4500312664131343
 21
301.4590870973747769
 31
0.0
  0
LINE
  5
317B2
  8
0
 10
6688.4500312664131343
 20
301.4590870973747769
 30
0.0
 11
6688.459873786134267
 21
301.4498326233622265
 31
0.0
  0
LINE
  5
317B3
  8
0
 10
6688.459873786134267
 20
301.4498326233622265
 30
0.0
 11
6688.4795588254046379
 21
301.4507251132847045
 31
0.0
  0
LINE
  5
317B4
  8
0
 10
6688.4795588254046379
 20
301.4507251132847045
 30
0.0
 11
6688.4894013451103092
 21
301.460884937835317
 31
0.0
  0
LINE
  5
317B5
  8
0
 10
6688.5129538072196738
 20
301.5523403665094975
 30
0.0
 11
6688.5073939150070146
 21
301.5437572340148904
 31
0.0
  0
LINE
  5
317B6
  8
0
 10
6688.5073939150070146
 20
301.5437572340148904
 30
0.0
 11
6688.4877088757330057
 21
301.5418011393248889
 31
0.0
  0
LINE
  5
317B7
  8
0
 10
6688.4877088757330057
 20
301.5418011393248889
 30
0.0
 11
6688.4785234924702308
 21
301.5542136357896084
 31
0.0
  0
LINE
  5
317B8
  8
0
 10
6688.5172448855037146
 20
301.5157485458394149
 30
0.0
 11
6688.507402365766211
 21
301.5272437929829721
 31
0.0
  0
LINE
  5
317B9
  8
0
 10
6688.507402365766211
 20
301.5272437929829721
 30
0.0
 11
6688.4877173264812882
 21
301.5253247680198001
 31
0.0
  0
LINE
  5
317BA
  8
0
 10
6688.4877173264812882
 20
301.5253247680198001
 30
0.0
 11
6688.4778748068638379
 21
301.511960083378824
 31
0.0
  0
LINE
  5
317BB
  8
0
 10
6688.4778748068638379
 20
301.511960083378824
 30
0.0
 11
6688.4877173264749217
 21
301.5005681859987021
 31
0.0
  0
LINE
  5
317BC
  8
0
 10
6688.4877173264749217
 20
301.5005681859987021
 30
0.0
 11
6688.5074023658798978
 21
301.5024385416757013
 31
0.0
  0
LINE
  5
317BD
  8
0
 10
6688.5074023658798978
 20
301.5024385416757013
 30
0.0
 11
6688.517244885528271
 21
301.5157485458116184
 31
0.0
  0
LINE
  5
317BE
  8
0
 10
6688.5172442449947994
 20
301.479612442978123
 30
0.0
 11
6688.5074017254482897
 21
301.4893039621613866
 31
0.0
  0
LINE
  5
317BF
  8
0
 10
6688.5074017254482897
 20
301.4893039621613866
 30
0.0
 11
6688.4877166859178033
 21
301.4874590186477121
 31
0.0
  0
LINE
  5
317C0
  8
0
 10
6688.4877166859178033
 20
301.4874590186477121
 30
0.0
 11
6688.4778741662603352
 21
301.475955797041081
 31
0.0
  0
LINE
  5
317C1
  8
0
 10
6688.4778741662603352
 20
301.475955797041081
 30
0.0
 11
6688.4877166859178033
 21
301.466318575472485
 31
0.0
  0
LINE
  5
317C2
  8
0
 10
6688.4877166859178033
 20
301.466318575472485
 30
0.0
 11
6688.5074017254337377
 21
301.4681307032038262
 31
0.0
  0
LINE
  5
317C3
  8
0
 10
6688.5074017254337377
 20
301.4681307032038262
 30
0.0
 11
6688.5172442449947994
 21
301.479612442978123
 31
0.0
  0
LINE
  5
317C4
  8
0
 10
6688.5172438318595596
 20
301.4492054027321046
 30
0.0
 11
6688.5074013121311509
 21
301.4572448260046258
 31
0.0
  0
LINE
  5
317C5
  8
0
 10
6688.5074013121311509
 20
301.4572448260046258
 30
0.0
 11
6688.4877162727316318
 21
301.4554493178652024
 31
0.0
  0
LINE
  5
317C6
  8
0
 10
6688.4877162727316318
 20
301.4554493178652024
 30
0.0
 11
6688.4778737530741637
 21
301.4456349108372137
 31
0.0
  0
LINE
  5
317C7
  8
0
 10
6688.4778737530741637
 20
301.4456349108372137
 30
0.0
 11
6688.4877162727316318
 21
301.4376188969046098
 31
0.0
  0
LINE
  5
317C8
  8
0
 10
6688.4877162727316318
 20
301.4376188969046098
 30
0.0
 11
6688.507401312111142
 21
301.4393940403123224
 31
0.0
  0
LINE
  5
317C9
  8
0
 10
6688.507401312111142
 20
301.4393940403123224
 30
0.0
 11
6688.5172438318859349
 21
301.4492054027122094
 31
0.0
  0
LINE
  5
317CA
  8
0
 10
6688.5379176923852356
 20
301.5501705260275003
 30
0.0
 11
6688.5450880208272793
 21
301.5414435439541876
 31
0.0
  0
LINE
  5
317CB
  8
0
 10
6688.5450880208272793
 20
301.5414435439541876
 30
0.0
 11
6688.5352455011015991
 21
301.5265762948212114
 31
0.0
  0
LINE
  5
317CC
  8
0
 10
6688.5352455011015991
 20
301.5265762948212114
 30
0.0
 11
6688.5155604617320932
 21
301.5236931735515213
 31
0.0
  0
LINE
  5
317CD
  8
0
 10
6688.5155604617320932
 20
301.5236931735515213
 30
0.0
 11
6688.505717942022784
 21
301.535589490852999
 31
0.0
  0
LINE
  5
317CE
  8
0
 10
6688.505717942022784
 20
301.535589490852999
 30
0.0
 11
6688.5155604617139034
 21
301.5505155096782914
 31
0.0
  0
LINE
  5
317CF
  8
0
 10
6688.5155604617139034
 20
301.5505155096782914
 30
0.0
 11
6688.5229054357359928
 21
301.5515603471923214
 31
0.0
  0
LINE
  5
317D0
  8
0
 10
6688.5450876032446104
 20
301.5012111403175936
 30
0.0
 11
6688.535245083641712
 21
301.5113459128714908
 31
0.0
  0
LINE
  5
317D1
  8
0
 10
6688.535245083641712
 20
301.5113459128714908
 30
0.0
 11
6688.5155600442740251
 21
301.5085098731178732
 31
0.0
  0
LINE
  5
317D2
  8
0
 10
6688.5155600442740251
 20
301.5085098731178732
 30
0.0
 11
6688.5057175245619874
 21
301.4956014481792863
 31
0.0
  0
LINE
  5
317D3
  8
0
 10
6688.5057175245619874
 20
301.4956014481792863
 30
0.0
 11
6688.515560044216727
 21
301.4855480667645793
 31
0.0
  0
LINE
  5
317D4
  8
0
 10
6688.515560044216727
 20
301.4855480667645793
 30
0.0
 11
6688.535245083630798
 21
301.4883226664481981
 31
0.0
  0
LINE
  5
317D5
  8
0
 10
6688.535245083630798
 20
301.4883226664481981
 30
0.0
 11
6688.5450876033128225
 21
301.5012111403008817
 31
0.0
  0
LINE
  5
317D6
  8
0
 10
6688.5450868058451306
 20
301.4678776392481723
 30
0.0
 11
6688.535244286194029
 21
301.4762937142235728
 31
0.0
  0
LINE
  5
317D7
  8
0
 10
6688.535244286194029
 20
301.4762937142235728
 30
0.0
 11
6688.5155592467936003
 21
301.4735508226398792
 31
0.0
  0
LINE
  5
317D8
  8
0
 10
6688.5155592467936003
 20
301.4735508226398792
 30
0.0
 11
6688.5057229926760556
 21
301.4624268382024184
 31
0.0
  0
LINE
  5
317D9
  8
0
 10
6688.5057229926760556
 20
301.4624268382024184
 30
0.0
 11
6688.5155592468154282
 21
301.4540549060654939
 31
0.0
  0
LINE
  5
317DA
  8
0
 10
6688.5155592468154282
 20
301.4540549060654939
 30
0.0
 11
6688.535244286194029
 21
301.4567576655545054
 31
0.0
  0
LINE
  5
317DB
  8
0
 10
6688.535244286194029
 20
301.4567576655545054
 30
0.0
 11
6688.5450868058560445
 21
301.4678776392262876
 31
0.0
  0
LINE
  5
317DC
  8
0
 10
6688.5729293990416409
 20
301.4587585159655987
 30
0.0
 11
6688.5630868794278285
 21
301.4659229210087119
 31
0.0
  0
LINE
  5
317DD
  8
0
 10
6688.5630868794278285
 20
301.4659229210087119
 30
0.0
 11
6688.5434018400301284
 21
301.4622800426271851
 31
0.0
  0
LINE
  5
317DE
  8
0
 10
6688.5434018400301284
 20
301.4622800426271851
 30
0.0
 11
6688.533559320331733
 21
301.4515155073560777
 31
0.0
  0
LINE
  5
317DF
  8
0
 10
6688.533559320331733
 20
301.4515155073560777
 30
0.0
 11
6688.5434018400301284
 21
301.4443723527620023
 31
0.0
  0
LINE
  5
317E0
  8
0
 10
6688.5434018400301284
 20
301.4443723527620023
 30
0.0
 11
6688.5630868793296031
 21
301.4479727323314933
 31
0.0
  0
LINE
  5
317E1
  8
0
 10
6688.5630868793296031
 20
301.4479727323314933
 30
0.0
 11
6688.5729293990762017
 21
301.4587585159424066
 31
0.0
  0
LINE
  5
317E2
  8
0
 10
6688.5729302807130807
 20
301.4894021200498173
 30
0.0
 11
6688.5630877609273739
 21
301.4982257886273942
 31
0.0
  0
LINE
  5
317E3
  8
0
 10
6688.5630877609273739
 20
301.4982257886273942
 30
0.0
 11
6688.5434027215605965
 21
301.4944795669392192
 31
0.0
  0
LINE
  5
317E4
  8
0
 10
6688.5434027215605965
 20
301.4944795669392192
 30
0.0
 11
6688.5335602018858481
 21
301.4819791159407032
 31
0.0
  0
LINE
  5
317E5
  8
0
 10
6688.5335602018858481
 20
301.4819791159407032
 30
0.0
 11
6688.5434027214851085
 21
301.4732145272038224
 31
0.0
  0
LINE
  5
317E6
  8
0
 10
6688.5434027214851085
 20
301.4732145272038224
 30
0.0
 11
6688.5630877609273739
 21
301.4768921202485217
 31
0.0
  0
LINE
  5
317E7
  8
0
 10
6688.5630877609273739
 20
301.4768921202485217
 30
0.0
 11
6688.5729302806894339
 21
301.4894021200188945
 31
0.0
  0
LINE
  5
317E8
  8
0
 10
6688.5729316527940682
 20
301.525900928922681
 30
0.0
 11
6688.5630891331111343
 21
301.5365316172856751
 31
0.0
  0
LINE
  5
317E9
  8
0
 10
6688.5630891331111343
 20
301.5365316172856751
 30
0.0
 11
6688.5434040937752798
 21
301.532630049322222
 31
0.0
  0
LINE
  5
317EA
  8
0
 10
6688.5434040937752798
 20
301.532630049322222
 30
0.0
 11
6688.5335615740468711
 21
301.5182017789524025
 31
0.0
  0
LINE
  5
317EB
  8
0
 10
6688.5335615740468711
 20
301.5182017789524025
 30
0.0
 11
6688.5434040937752798
 21
301.5076884795547016
 31
0.0
  0
LINE
  5
317EC
  8
0
 10
6688.5434040937752798
 20
301.5076884795547016
 30
0.0
 11
6688.5630891330611121
 21
301.511487923529387
 31
0.0
  0
LINE
  5
317ED
  8
0
 10
6688.5630891330611121
 20
301.511487923529387
 30
0.0
 11
6688.5729316527940682
 21
301.525900928922681
 31
0.0
  0
LINE
  5
317EE
  8
0
 10
6688.5934445536995554
 20
301.5427252190760896
 30
0.0
 11
6688.5909327437766478
 21
301.5387018599341786
 31
0.0
  0
LINE
  5
317EF
  8
0
 10
6688.5909327437766478
 20
301.5387018599341786
 30
0.0
 11
6688.5712477043271065
 21
301.5337893812186962
 31
0.0
  0
LINE
  5
317F0
  8
0
 10
6688.5712477043271065
 20
301.5337893812186962
 30
0.0
 11
6688.5614051847205701
 21
301.5448205919798852
 31
0.0
  0
LINE
  5
317F1
  8
0
 10
6688.5614051847205701
 20
301.5448205919798852
 30
0.0
 11
6688.5629433021458681
 21
301.5472806832736978
 31
0.0
  0
LINE
  5
317F2
  8
0
 10
6688.6007744951921268
 20
301.5139946726152971
 30
0.0
 11
6688.590931975564672
 21
301.5232677045123069
 31
0.0
  0
LINE
  5
317F3
  8
0
 10
6688.590931975564672
 20
301.5232677045123069
 30
0.0
 11
6688.5712469361669719
 21
301.5184389779092839
 31
0.0
  0
LINE
  5
317F4
  8
0
 10
6688.5712469361669719
 20
301.5184389779092839
 30
0.0
 11
6688.5614044164412917
 21
301.5044477902354743
 31
0.0
  0
LINE
  5
317F5
  8
0
 10
6688.5614044164412917
 20
301.5044477902354743
 30
0.0
 11
6688.57124693622427
 21
301.4952616446890943
 31
0.0
  0
LINE
  5
317F6
  8
0
 10
6688.57124693622427
 20
301.4952616446890943
 30
0.0
 11
6688.5909319755392062
 21
301.4999813498998833
 31
0.0
  0
LINE
  5
317F7
  8
0
 10
6688.5909319755392062
 20
301.4999813498998833
 30
0.0
 11
6688.6007744951921268
 21
301.5139946726152971
 31
0.0
  0
LINE
  5
317F8
  8
0
 10
6688.6007730409573924
 20
301.4802732150162115
 30
0.0
 11
6688.5909305212544496
 21
301.4878131844636755
 31
0.0
  0
LINE
  5
317F9
  8
0
 10
6688.5909305212544496
 20
301.4878131844636755
 30
0.0
 11
6688.5712454819213235
 21
301.48314962418101
 31
0.0
  0
LINE
  5
317FA
  8
0
 10
6688.5712454819213235
 20
301.48314962418101
 30
0.0
 11
6688.5615243170750546
 21
301.4709210640069159
 31
0.0
  0
LINE
  5
317FB
  8
0
 10
6688.5615243170750546
 20
301.4709210640069159
 30
0.0
 11
6688.5712454818240076
 21
301.4635130943686931
 31
0.0
  0
LINE
  5
317FC
  8
0
 10
6688.5712454818240076
 20
301.4635130943686931
 30
0.0
 11
6688.5909305212881009
 21
301.4681057063718868
 31
0.0
  0
LINE
  5
317FD
  8
0
 10
6688.5909305212881009
 20
301.4681057063718868
 30
0.0
 11
6688.6007730409573924
 21
301.4802732150162115
 31
0.0
  0
LINE
  5
317FE
  8
0
 10
6688.6187036403744059
 20
301.5378473637063053
 30
0.0
 11
6688.6187036403744059
 21
301.5270937778336133
 31
0.0
  0
LINE
  5
317FF
  8
0
 10
6688.618774964829754
 20
301.5128004458263717
 30
0.0
 11
6688.618774964829754
 21
301.4911929949996079
 31
0.0
  0
LINE
  5
31800
  8
0
 10
6688.6187734868217376
 20
301.4800817154358015
 30
0.0
 11
6688.6187734868217376
 21
301.461962421837427
 31
0.0
  0
LINE
  5
31801
  8
0
 10
6688.6286160065355944
 20
301.4738181240812764
 30
0.0
 11
6688.6187734868617554
 21
301.4800817154103925
 31
0.0
  0
LINE
  5
31802
  8
0
 10
6688.6187734868617554
 20
301.4800817154103925
 30
0.0
 11
6688.5990884475213534
 21
301.4744798952722817
 31
0.0
  0
LINE
  5
31803
  8
0
 10
6688.5990884475213534
 20
301.4744798952722817
 30
0.0
 11
6688.5892459277538364
 21
301.4626832653960946
 31
0.0
  0
LINE
  5
31804
  8
0
 10
6688.5892459277538364
 20
301.4626832653960946
 30
0.0
 11
6688.5990884475213534
 21
301.4564292247786739
 31
0.0
  0
LINE
  5
31805
  8
0
 10
6688.5990884475213534
 20
301.4564292247786739
 30
0.0
 11
6688.6187734868863117
 21
301.4619624218560148
 31
0.0
  0
LINE
  5
31806
  8
0
 10
6688.6187734868863117
 20
301.4619624218560148
 30
0.0
 11
6688.6286160065355944
 21
301.4738181240812764
 31
0.0
  0
LINE
  5
31807
  8
0
 10
6688.6286174846018184
 20
301.5048529673737789
 30
0.0
 11
6688.6187749648906902
 21
301.5128004457770885
 31
0.0
  0
LINE
  5
31808
  8
0
 10
6688.6187749648906902
 20
301.5128004457770885
 30
0.0
 11
6688.5990899255293698
 21
301.5070312417789182
 31
0.0
  0
LINE
  5
31809
  8
0
 10
6688.5990899255293698
 20
301.5070312417789182
 30
0.0
 11
6688.5892474057427535
 21
301.4934268812793903
 31
0.0
  0
LINE
  5
3180A
  8
0
 10
6688.5892474057427535
 20
301.4934268812793903
 30
0.0
 11
6688.599089925498447
 21
301.485535029998573
 31
0.0
  0
LINE
  5
3180B
  8
0
 10
6688.599089925498447
 20
301.485535029998573
 30
0.0
 11
6688.6187749648697718
 21
301.491192995055485
 31
0.0
  0
LINE
  5
3180C
  8
0
 10
6688.6187749648697718
 20
301.491192995055485
 30
0.0
 11
6688.6286174845572532
 21
301.5048529673081816
 31
0.0
  0
LINE
  5
3180D
  8
0
 10
6688.62470105333432
 20
301.5365339355781771
 30
0.0
 11
6688.6187036403243837
 21
301.5270937778191183
 31
0.0
  0
LINE
  5
3180E
  8
0
 10
6688.6187036403243837
 20
301.5270937778191183
 30
0.0
 11
6688.5990186010731122
 21
301.5212380790081284
 31
0.0
  0
LINE
  5
3180F
  8
0
 10
6688.5990186010731122
 20
301.5212380790081284
 30
0.0
 11
6688.5891760813328801
 21
301.5308920968670918
 31
0.0
  0
LINE
  5
31810
  8
0
 10
6688.5891760813328801
 20
301.5308920968670918
 30
0.0
 11
6688.596356290420772
 21
301.5422163391775143
 31
0.0
  0
LINE
  5
31811
  8
0
 10
6688.6536659210651123
 20
301.5292735302447227
 30
0.0
 11
6688.6465604858040024
 21
301.5183222311363807
 31
0.0
  0
LINE
  5
31812
  8
0
 10
6688.6465604858040024
 20
301.5183222311363807
 30
0.0
 11
6688.6268754464063022
 21
301.5114978984241247
 31
0.0
  0
LINE
  5
31813
  8
0
 10
6688.6268754464063022
 20
301.5114978984241247
 30
0.0
 11
6688.6170329267260968
 21
301.5198130315872049
 31
0.0
  0
LINE
  5
31814
  8
0
 10
6688.6170329267260968
 20
301.5198130315872049
 30
0.0
 11
6688.6268754463681034
 21
301.5350347317881869
 31
0.0
  0
LINE
  5
31815
  8
0
 10
6688.6268754463681034
 20
301.5350347317881869
 30
0.0
 11
6688.6286500294518191
 21
301.5356361987933269
 31
0.0
  0
LINE
  5
31816
  8
0
 10
6688.6564607562104356
 20
301.4984688992975066
 30
0.0
 11
6688.6466182365520581
 21
301.5051007986879767
 31
0.0
  0
LINE
  5
31817
  8
0
 10
6688.6466182365520581
 20
301.5051007986879767
 30
0.0
 11
6688.6269331971534484
 21
301.4983629606604154
 31
0.0
  0
LINE
  5
31818
  8
0
 10
6688.6269331971534484
 20
301.4983629606604154
 30
0.0
 11
6688.6170906773786555
 21
301.4851026949746142
 31
0.0
  0
LINE
  5
31819
  8
0
 10
6688.6170906773786555
 20
301.4851026949746142
 30
0.0
 11
6688.6269331971252541
 21
301.4784929375970819
 31
0.0
  0
LINE
  5
3181A
  8
0
 10
6688.6269331971252541
 20
301.4784929375970819
 30
0.0
 11
6688.6466182365520581
 21
301.4851217660768157
 31
0.0
  0
LINE
  5
3181B
  8
0
 10
6688.6466182365520581
 20
301.4851217660768157
 30
0.0
 11
6688.6564607562104356
 21
301.4984688992975066
 31
0.0
  0
LINE
  5
3181C
  8
0
 10
6688.6843044631696102
 20
301.4948810859718265
 30
0.0
 11
6688.6744619434575725
 21
301.5001856699893779
 31
0.0
  0
LINE
  5
3181D
  8
0
 10
6688.6744619434575725
 20
301.5001856699893779
 30
0.0
 11
6688.6547769041580978
 21
301.4924349615005781
 31
0.0
  0
LINE
  5
3181E
  8
0
 10
6688.6547769041580978
 20
301.4924349615005781
 30
0.0
 11
6688.6449343844878968
 21
301.4794814320383125
 31
0.0
  0
LINE
  5
3181F
  8
0
 10
6688.6449343844878968
 20
301.4794814320383125
 30
0.0
 11
6688.654776904121718
 21
301.4741615775769219
 31
0.0
  0
LINE
  5
31820
  8
0
 10
6688.654776904121718
 20
301.4741615775769219
 30
0.0
 11
6688.6744619434575725
 21
301.481810184402093
 31
0.0
  0
LINE
  5
31821
  8
0
 10
6688.6744619434575725
 20
301.481810184402093
 30
0.0
 11
6688.6843044632287274
 21
301.4948810860532262
 31
0.0
  0
LINE
  5
31822
  8
0
 10
6688.6799818029803646
 20
301.5207864241996276
 30
0.0
 11
6688.6744270129329379
 21
301.5124302347518892
 31
0.0
  0
LINE
  5
31823
  8
0
 10
6688.6744270129329379
 20
301.5124302347518892
 30
0.0
 11
6688.6547419736425582
 21
301.5045957759660951
 31
0.0
  0
LINE
  5
31824
  8
0
 10
6688.6547419736425582
 20
301.5045957759660951
 30
0.0
 11
6688.6448994539368869
 21
301.5115874425461016
 31
0.0
  0
LINE
  5
31825
  8
0
 10
6688.6448994539368869
 20
301.5115874425461016
 30
0.0
 11
6688.6547419735352378
 21
301.5264537081501999
 31
0.0
  0
LINE
  5
31826
  8
0
 10
6688.6547419735352378
 20
301.5264537081501999
 30
0.0
 11
6688.6584132909265463
 21
301.5278899654380211
 31
0.0
  0
LINE
  5
31827
  8
0
 10
6688.7035069070689133
 20
301.5111380237539151
 30
0.0
 11
6688.7022658627047349
 21
301.509326270370309
 31
0.0
  0
LINE
  5
31828
  8
0
 10
6688.7022658627047349
 20
301.509326270370309
 30
0.0
 11
6688.6825808233052157
 21
301.500421815450693
 31
0.0
  0
LINE
  5
31829
  8
0
 10
6688.6825808233052157
 20
301.500421815450693
 30
0.0
 11
6688.6727383036368337
 21
301.5060834088972115
 31
0.0
  0
LINE
  5
3182A
  8
0
 10
6688.6727383036368337
 20
301.5060834088972115
 30
0.0
 11
6688.6821447297033956
 21
301.5199982889471926
 31
0.0
  0
LINE
  5
3182B
  8
0
 10
6688.7022658627047349
 20
301.509326270370309
 30
0.0
 11
6688.7022658627047349
 21
301.5117203330726738
 31
0.0
  0
LINE
  5
3182C
  8
0
 10
6688.6825808232888448
 20
301.5198376726388005
 30
0.0
 11
6688.6825808233052157
 21
301.500421815450693
 31
0.0
  0
LINE
  5
3182D
  8
0
 10
6688.4517162158326755
 20
301.5400007465731278
 30
0.0
 11
6688.4418736989828176
 21
301.5400007465731278
 31
0.0
  0
LINE
  5
3182E
  8
0
 10
6688.4517162157162602
 20
301.5239685476366844
 30
0.0
 11
6688.4418736989828176
 21
301.5239685476366844
 31
0.0
  0
LINE
  5
3182F
  8
0
 10
6688.4517162157162602
 20
301.4992583089816094
 30
0.0
 11
6688.4418736989828176
 21
301.4992583089816094
 31
0.0
  0
LINE
  5
31830
  8
0
 10
6688.4517162157553685
 20
301.4861898382732761
 30
0.0
 11
6688.4418736989828176
 21
301.4861898382732761
 31
0.0
  0
LINE
  5
31831
  8
0
 10
6688.4517162157553685
 20
301.4650810090377036
 30
0.0
 11
6688.4418736989828176
 21
301.4650810090377036
 31
0.0
  0
LINE
  5
31832
  8
0
 10
6688.4517162158163046
 20
301.4542431366342043
 30
0.0
 11
6688.4418736989828176
 21
301.4542431366342043
 31
0.0
  0
LINE
  5
31833
  8
0
 10
6688.4517162158163046
 20
301.4364322804797212
 30
0.0
 11
6688.4418736989828176
 21
301.4364322804797212
 31
0.0
  0
LINE
  5
31834
  8
0
 10
6688.4517162157162602
 20
301.5239685476366844
 30
0.0
 11
6688.4517162157162602
 21
301.4992583089816094
 31
0.0
  0
LINE
  5
31835
  8
0
 10
6688.4517162157553685
 20
301.4861898382732761
 30
0.0
 11
6688.4517162157553685
 21
301.4650810090377036
 31
0.0
  0
LINE
  5
31836
  8
0
 10
6688.4517162158163046
 20
301.4542431366342043
 30
0.0
 11
6688.4517162158163046
 21
301.4364322804797212
 31
0.0
  0
LINE
  5
31837
  8
0
 10
6688.4517162158326755
 20
301.5400007465731278
 30
0.0
 11
6688.4517162158326755
 21
301.5548384114983946
 31
0.0
  0
LINE
  5
31838
  8
0
 10
6688.4517162158163046
 20
301.4542431366342043
 30
0.0
 11
6688.4615587354610398
 21
301.4454076559683244
 31
0.0
  0
LINE
  5
31839
  8
0
 10
6688.4615587354610398
 20
301.4454076559683244
 30
0.0
 11
6688.4517162158163046
 21
301.4364322804797212
 31
0.0
  0
LINE
  5
3183A
  8
0
 10
6688.4517162157553685
 20
301.4861898382732761
 30
0.0
 11
6688.4615587354510353
 21
301.4756948276818207
 31
0.0
  0
LINE
  5
3183B
  8
0
 10
6688.4615587354510353
 20
301.4756948276818207
 30
0.0
 11
6688.4517162157553685
 21
301.4650810090377036
 31
0.0
  0
LINE
  5
3183C
  8
0
 10
6688.4517162157162602
 20
301.5239685476366844
 30
0.0
 11
6688.4615587354392119
 21
301.5116551278167094
 31
0.0
  0
LINE
  5
3183D
  8
0
 10
6688.4615587354392119
 20
301.5116551278167094
 30
0.0
 11
6688.4517162157162602
 21
301.4992583089816094
 31
0.0
  0
LINE
  5
3183E
  8
0
 10
6688.4613582105503156
 20
301.5546972821003919
 30
0.0
 11
6688.461558735511062
 21
301.5544105109715929
 31
0.0
  0
LINE
  5
3183F
  8
0
 10
6688.461558735511062
 20
301.5544105109715929
 30
0.0
 11
6688.4517162158326755
 21
301.5400007465731278
 31
0.0
  0
LINE
  5
31840
  8
0
 10
6688.6905593019191656
 20
301.4770539066886954
 30
0.0
 11
6688.7022658627229248
 21
301.4823505812561848
 31
0.0
  0
LINE
  5
31841
  8
0
 10
6688.7022658627229248
 20
301.4823505812561848
 30
0.0
 11
6688.7121083824222296
 21
301.495179642950518
 31
0.0
  0
LINE
  5
31842
  8
0
 10
6688.7121083824222296
 20
301.495179642950518
 30
0.0
 11
6688.7022658628038698
 21
301.4991220356652093
 31
0.0
  0
LINE
  5
31843
  8
0
 10
6688.7022658628038698
 20
301.4991220356652093
 30
0.0
 11
6688.682580823353419
 21
301.4902955368448261
 31
0.0
  0
LINE
  5
31844
  8
0
 10
6688.682580823353419
 20
301.4902955368448261
 30
0.0
 11
6688.6727383035749881
 21
301.4776150363800866
 31
0.0
  0
LINE
  5
31845
  8
0
 10
6688.6727383035749881
 20
301.4776150363800866
 30
0.0
 11
6688.673222922039713
 21
301.4774020021488923
 31
0.0
  0
LINE
  5
31846
  8
0
 10
6688.673222922039713
 20
301.4774020021488923
 30
0.0
 11
6688.6856504768411469
 21
301.4825950652447091
 31
0.0
  0
LINE
  5
31847
  8
0
 10
6688.6856504768411469
 20
301.4825950652447091
 30
0.0
 11
6688.6905593019191656
 21
301.4770539066886954
 31
0.0
  0
LINE
  5
31848
  8
0
 10
6688.6856504769548337
 20
301.4825950652447091
 30
0.0
 11
6688.6766037687229982
 21
301.4825950652447091
 31
0.0
  0
LINE
  5
31849
  8
0
 10
6688.7022658628038698
 20
301.4991220356652093
 30
0.0
 11
6688.7022658627229248
 21
301.4823505812561848
 31
0.0
  0
LINE
  5
3184A
  8
0
 10
6688.682580823353419
 20
301.4902955368448261
 30
0.0
 11
6688.682580823353419
 21
301.4825950652447091
 31
0.0
  0
LINE
  5
3184B
  8
0
 10
6688.673222922039713
 20
301.4774020021488923
 30
0.0
 11
6688.673222922039713
 21
301.4782393891691754
 31
0.0
  0
LINE
  5
3184C
  8
0
 10
6688.7355634841260326
 20
301.4917544269753193
 30
0.0
 11
6688.7301047122982709
 21
301.4848586968029167
 31
0.0
  0
LINE
  5
3184D
  8
0
 10
6688.7301047122982709
 20
301.4848586968029167
 30
0.0
 11
6688.7104196729978867
 21
301.4749409822098869
 31
0.0
  0
LINE
  5
3184E
  8
0
 10
6688.7005771532876679
 20
301.4775710212539934
 30
0.0
 11
6688.7104196729223986
 21
301.4900100699632048
 31
0.0
  0
LINE
  5
3184F
  8
0
 10
6688.7104196729223986
 20
301.4900100699632048
 30
0.0
 11
6688.7268364086621659
 21
301.4982803842074759
 31
0.0
  0
LINE
  5
31850
  8
0
 10
6688.7301047122982709
 20
301.4848586968029167
 30
0.0
 11
6688.7301047122982709
 21
301.495995446148072
 31
0.0
  0
LINE
  5
31851
  8
0
 10
6688.7104196729223986
 20
301.4900100699632048
 30
0.0
 11
6688.7104196729978867
 21
301.4749409822098869
 31
0.0
  0
LINE
  5
31852
  8
0
 10
6688.7301047123382887
 20
301.4774270565097822
 30
0.0
 11
6688.7399472319839333
 21
301.4766234236672062
 31
0.0
  0
LINE
  5
31853
  8
0
 10
6688.7399472319839333
 20
301.4766234236672062
 30
0.0
 11
6688.7301047122791715
 21
301.4657708186159084
 31
0.0
  0
LINE
  5
31854
  8
0
 10
6688.7301047122791715
 20
301.4657708186159084
 30
0.0
 11
6688.7108341780285627
 21
301.4560743177869995
 31
0.0
  0
LINE
  5
31855
  8
0
 10
6688.7108341780285627
 20
301.4560743177869995
 30
0.0
 11
6688.700577153264021
 21
301.4568290103455865
 31
0.0
  0
LINE
  5
31856
  8
0
 10
6688.700577153264021
 20
301.4568290103455865
 30
0.0
 11
6688.7104196729787873
 21
301.467531370136328
 31
0.0
  0
LINE
  5
31857
  8
0
 10
6688.7104196729787873
 20
301.467531370136328
 30
0.0
 11
6688.7301047122791715
 21
301.4774270565059737
 31
0.0
  0
LINE
  5
31858
  8
0
 10
6688.7301047122791715
 20
301.4774270565059737
 30
0.0
 11
6688.7301047122791715
 21
301.4657708186159084
 31
0.0
  0
LINE
  5
31859
  8
0
 10
6688.7104196729787873
 20
301.467531370136328
 30
0.0
 11
6688.7108341780285627
 21
301.4560743177869995
 31
0.0
  0
LINE
  5
3185A
  8
0
 10
6688.7301047122964519
 20
301.45315180794978
 30
0.0
 11
6688.7399472320548739
 21
301.4622894657096026
 31
0.0
  0
LINE
  5
3185B
  8
0
 10
6688.7399472320548739
 20
301.4622894657096026
 30
0.0
 11
6688.7301047123901299
 21
301.4613246163503959
 31
0.0
  0
LINE
  5
3185C
  8
0
 10
6688.7301047123901299
 20
301.4613246163503959
 30
0.0
 11
6688.7104196729969772
 21
301.4514069017844804
 31
0.0
  0
LINE
  5
3185D
  8
0
 10
6688.7104196729969772
 20
301.4514069017844804
 30
0.0
 11
6688.7005771533404186
 21
301.4423807029900217
 31
0.0
  0
LINE
  5
3185E
  8
0
 10
6688.7005771533404186
 20
301.4423807029900217
 30
0.0
 11
6688.7104196729123942
 21
301.4431635139346781
 31
0.0
  0
LINE
  5
3185F
  8
0
 10
6688.7104196729123942
 20
301.4431635139346781
 30
0.0
 11
6688.7301047122964519
 21
301.45315180794978
 31
0.0
  0
LINE
  5
31860
  8
0
 10
6688.7301047122964519
 20
301.45315180794978
 30
0.0
 11
6688.7301047123901299
 21
301.4613246163503959
 31
0.0
  0
LINE
  5
31861
  8
0
 10
6688.7104196729123942
 20
301.4431635139346781
 30
0.0
 11
6688.7104196729969772
 21
301.4514069017844804
 31
0.0
  0
LINE
  5
31862
  8
0
 10
6688.6968057377771402
 20
301.4734803876070828
 30
0.0
 11
6688.6986705358813197
 21
301.4723556853705873
 31
0.0
  0
LINE
  5
31863
  8
0
 10
6688.6986705358813197
 20
301.4723556853705873
 30
0.0
 11
6688.7022658626719931
 21
301.474007257746905
 31
0.0
  0
LINE
  5
31864
  8
0
 10
6688.7022658626719931
 20
301.474007257746905
 30
0.0
 11
6688.7121083823203662
 21
301.4717353713051011
 31
0.0
  0
LINE
  5
31865
  8
0
 10
6688.7121083823203662
 20
301.4717353713051011
 30
0.0
 11
6688.7022658626719931
 21
301.4606649596254897
 31
0.0
  0
LINE
  5
31866
  8
0
 10
6688.7022658626719931
 20
301.4606649596254897
 30
0.0
 11
6688.7002481137678842
 21
301.4597377154482842
 31
0.0
  0
LINE
  5
31867
  8
0
 10
6688.7002481137678842
 20
301.4597377154482842
 30
0.0
 11
6688.6854812995170505
 21
301.4684450877830955
 31
0.0
  0
LINE
  5
31868
  8
0
 10
6688.7022658626719931
 20
301.474007257746905
 30
0.0
 11
6688.7022658626719931
 21
301.4606649596254897
 31
0.0
  0
LINE
  5
31869
  8
0
 10
6688.6825808232733834
 20
301.4526035013914793
 30
0.0
 11
6688.6731533403135472
 21
301.4632764273720227
 31
0.0
  0
LINE
  5
3186A
  8
0
 10
6688.674535740083229
 20
301.4638400588152081
 30
0.0
 11
6688.6825808232388226
 21
301.4642597391958816
 31
0.0
  0
LINE
  5
3186B
  8
0
 10
6688.6825808232388226
 20
301.4642597391958816
 30
0.0
 11
6688.7002606673240734
 21
301.4541519810920249
 31
0.0
  0
LINE
  5
3186C
  8
0
 10
6688.7002606673240734
 20
301.4541519810920249
 30
0.0
 11
6688.7022658626729026
 21
301.4548819427420199
 31
0.0
  0
LINE
  5
3186D
  8
0
 10
6688.7022658626729026
 20
301.4548819427420199
 30
0.0
 11
6688.7121083823285517
 21
301.4542961167073258
 31
0.0
  0
LINE
  5
3186E
  8
0
 10
6688.7121083823285517
 20
301.4542961167073258
 30
0.0
 11
6688.7022658626992779
 21
301.4449117652794143
 31
0.0
  0
LINE
  5
3186F
  8
0
 10
6688.7022658626992779
 20
301.4449117652794143
 30
0.0
 11
6688.6986705359722691
 21
301.4432601928281201
 31
0.0
  0
LINE
  5
31870
  8
0
 10
6688.6986705359722691
 20
301.4432601928281201
 30
0.0
 11
6688.6825808232370036
 21
301.452603501263809
 31
0.0
  0
LINE
  5
31871
  8
0
 10
6688.7002481137678842
 20
301.4597377154482842
 30
0.0
 11
6688.7002578756992079
 21
301.4541535770937912
 31
0.0
  0
LINE
  5
31872
  8
0
 10
6688.7022658626729026
 20
301.4548819427420199
 30
0.0
 11
6688.7022658626992779
 21
301.4449117652794143
 31
0.0
  0
LINE
  5
31873
  8
0
 10
6688.6825808232733834
 20
301.4526035013914793
 30
0.0
 11
6688.6825808232388226
 21
301.4642597391958816
 31
0.0
  0
LINE
  5
31874
  8
0
 10
6688.6699649354823123
 20
301.4619916466799054
 30
0.0
 11
6688.6743972711337847
 21
301.4596816439196232
 31
0.0
  0
LINE
  5
31875
  8
0
 10
6688.6743972711337847
 20
301.4596816439196232
 30
0.0
 11
6688.681643679357876
 21
301.4514694708421985
 31
0.0
  0
LINE
  5
31876
  8
0
 10
6688.681643679357876
 20
301.4514694708421985
 30
0.0
 11
6688.6981651203323054
 21
301.4420316336730821
 31
0.0
  0
LINE
  5
31877
  8
0
 10
6688.6816436793824323
 20
301.4514694708278171
 30
0.0
 11
6688.6816436793824323
 21
301.4401214518231882
 31
0.0
  0
LINE
  5
31878
  8
0
 10
6688.6816436793824323
 20
301.4401214518231882
 30
0.0
 11
6688.6474658234828894
 21
301.4401214518231882
 31
0.0
  0
LINE
  5
31879
  8
0
 10
6688.6474658234828894
 20
301.4401214518231882
 30
0.0
 11
6688.6474658234828894
 21
301.4535168425409779
 31
0.0
  0
LINE
  5
3187A
  8
0
 10
6688.6547122317815592
 20
301.4561346952875738
 30
0.0
 11
6688.6547122317815592
 21
301.4401214518231882
 31
0.0
  0
LINE
  5
3187B
  8
0
 10
6688.674397271082853
 20
301.4596816439230906
 30
0.0
 11
6688.674397271082853
 21
301.4401214518231882
 31
0.0
  0
LINE
  5
3187C
  8
0
 10
6688.6986705359722691
 20
301.4432601928281201
 30
0.0
 11
6688.6981651203323054
 21
301.4420316336730821
 31
0.0
  0
LINE
  5
3187D
  8
0
 10
6688.6982985247741453
 20
301.4741650830420099
 30
0.0
 11
6688.6986705358813197
 21
301.4723556853705873
 31
0.0
  0
LINE
  5
3187E
  8
0
 10
6688.6564593091352435
 20
301.4700720270449779
 30
0.0
 11
6688.646616789471409
 21
301.475046750786305
 31
0.0
  0
LINE
  5
3187F
  8
0
 10
6688.646616789471409
 20
301.475046750786305
 30
0.0
 11
6688.6269317501019032
 21
301.4684711438886211
 31
0.0
  0
LINE
  5
31880
  8
0
 10
6688.6269317501019032
 20
301.4684711438886211
 30
0.0
 11
6688.6170892303453002
 21
301.4569818910413801
 31
0.0
  0
LINE
  5
31881
  8
0
 10
6688.6170892303453002
 20
301.4569818910413801
 30
0.0
 11
6688.6175738488063871
 21
301.4567206529087002
 31
0.0
  0
LINE
  5
31882
  8
0
 10
6688.6175738488063871
 20
301.4567206529087002
 30
0.0
 11
6688.6559746907460067
 21
301.4694851469413948
 31
0.0
  0
LINE
  5
31883
  8
0
 10
6688.6559746907460067
 20
301.4694851469413948
 30
0.0
 11
6688.6564593091352435
 21
301.4700720270449779
 31
0.0
  0
LINE
  5
31884
  8
0
 10
6688.6007721377736743
 20
301.4522492140815757
 30
0.0
 11
6688.5909296180743695
 21
301.4581671150816078
 31
0.0
  0
LINE
  5
31885
  8
0
 10
6688.5909296180743695
 20
301.4581671150816078
 30
0.0
 11
6688.5712445787030447
 21
301.4536092177921205
 31
0.0
  0
LINE
  5
31886
  8
0
 10
6688.5712445787030447
 20
301.4536092177921205
 30
0.0
 11
6688.5614020590046493
 21
301.4431735691366043
 31
0.0
  0
LINE
  5
31887
  8
0
 10
6688.5614020590046493
 20
301.4431735691366043
 30
0.0
 11
6688.5618866773611444
 21
301.4428673691841141
 31
0.0
  0
LINE
  5
31888
  8
0
 10
6688.5618866773611444
 20
301.4428673691841141
 30
0.0
 11
6688.600287519374433
 21
301.4517173928604734
 31
0.0
  0
LINE
  5
31889
  8
0
 10
6688.600287519374433
 20
301.4517173928604734
 30
0.0
 11
6688.6007721377736743
 21
301.4522492140815757
 31
0.0
  0
LINE
  5
3188A
  8
0
 10
6688.545086308210557
 20
301.4400935727317119
 30
0.0
 11
6688.5352437885003383
 21
301.4469053179665252
 31
0.0
  0
LINE
  5
3188B
  8
0
 10
6688.5352437885003383
 20
301.4469053179665252
 30
0.0
 11
6688.5155587490662583
 21
301.4442222207716213
 31
0.0
  0
LINE
  5
3188C
  8
0
 10
6688.5155587490662583
 20
301.4442222207716213
 30
0.0
 11
6688.5057162294333466
 21
301.4347502256662779
 31
0.0
  0
LINE
  5
3188D
  8
0
 10
6688.5057162294333466
 20
301.4347502256662779
 30
0.0
 11
6688.5062008477889322
 21
301.4344006878355913
 31
0.0
  0
LINE
  5
3188E
  8
0
 10
6688.5062008477889322
 20
301.4344006878355913
 30
0.0
 11
6688.5446016898104062
 21
301.4396112526317211
 31
0.0
  0
LINE
  5
3188F
  8
0
 10
6688.5446016898104062
 20
301.4396112526317211
 30
0.0
 11
6688.5450863081850912
 21
301.4400935726907278
 31
0.0
  0
LINE
  5
31890
  8
0
 10
6688.4894011860706087
 20
301.4332315115220808
 30
0.0
 11
6688.4795586664049551
 21
301.4409171192244798
 31
0.0
  0
LINE
  5
31891
  8
0
 10
6688.4795586664049551
 20
301.4409171192244798
 30
0.0
 11
6688.4598736269572328
 21
301.4400310024220175
 31
0.0
  0
LINE
  5
31892
  8
0
 10
6688.4598736269572328
 20
301.4400310024220175
 30
0.0
 11
6688.4500311072843033
 21
301.4314666997053109
 31
0.0
  0
LINE
  5
31893
  8
0
 10
6688.4500311072843033
 20
301.4314666997053109
 30
0.0
 11
6688.4505157256344319
 21
301.4310741591718283
 31
0.0
  0
LINE
  5
31894
  8
0
 10
6688.4505157256344319
 20
301.4310741591718283
 30
0.0
 11
6688.4889165676868288
 21
301.4327951237190177
 31
0.0
  0
LINE
  5
31895
  8
0
 10
6688.4889165676868288
 20
301.4327951237190177
 30
0.0
 11
6688.489401186017858
 21
301.4332315114760945
 31
0.0
  0
LINE
  5
31896
  8
0
 10
6688.6559746907460067
 20
301.4694851469413948
 30
0.0
 11
6688.6559746907460067
 21
301.4703169686545721
 31
0.0
  0
LINE
  5
31897
  8
0
 10
6688.6175738488063871
 20
301.4567206529087002
 30
0.0
 11
6688.6175738488063871
 21
301.4575475900869037
 31
0.0
  0
LINE
  5
31898
  8
0
 10
6688.600287519374433
 20
301.4517173928604734
 30
0.0
 11
6688.600287519374433
 21
301.452540595130472
 31
0.0
  0
LINE
  5
31899
  8
0
 10
6688.5618866773611444
 20
301.4428673691841141
 30
0.0
 11
6688.5618866773611444
 21
301.4436873915158799
 31
0.0
  0
LINE
  5
3189A
  8
0
 10
6688.5446016898104062
 20
301.4396112526317211
 30
0.0
 11
6688.5446016898104062
 21
301.4404289641939272
 31
0.0
  0
LINE
  5
3189B
  8
0
 10
6688.5062008477889322
 20
301.4344006878355913
 30
0.0
 11
6688.5062008477889322
 21
301.4352166004218248
 31
0.0
  0
LINE
  5
3189C
  8
0
 10
6688.4889165676868288
 20
301.4327951237190177
 30
0.0
 11
6688.4889165676868288
 21
301.4336099295397275
 31
0.0
  0
LINE
  5
3189D
  8
0
 10
6688.4505157256344319
 20
301.4310741591718283
 30
0.0
 11
6688.4505157256344319
 21
301.4318883822010093
 31
0.0
  0
LINE
  5
3189E
  8
0
 10
6688.7005771532876679
 20
301.4775710212539934
 30
0.0
 11
6688.7104196729151226
 21
301.4749409822246093
 31
0.0
  0
ARC
  5
3189F
  8
0
 10
6688.4464514602850613
 20
302.0212775559655256
 30
0.0
 40
0.6022947799211045
 50
289.286090234636788
 51
294.7175826676520956
  0
ARC
  5
318A0
  8
0
 10
6688.4429668250350005
 20
302.0312358617626955
 30
0.0
 40
0.6128451608229176
 50
280.2697263868203095
 51
289.286090234636788
  0
ARC
  5
318A1
  8
0
 10
6688.4273267373464478
 20
302.1997004711637942
 30
0.0
 40
0.7815364347016568
 50
271.0665243540034908
 51
279.1960325197525208
  0
LINE
  5
318A2
  8
0
 10
6688.6831761145158453
 20
301.4674540822853146
 30
0.0
 11
6688.6842695327368347
 21
301.4662432177563005
 31
0.0
  0
LINE
  5
318A3
  8
0
 10
6688.6842695327368347
 20
301.4662432177563005
 30
0.0
 11
6688.6805002079136102
 21
301.4663179307195264
 31
0.0
  0
LINE
  5
318A4
  8
0
 10
6688.7022658627120109
 20
301.4413305951038069
 30
0.0
 11
6688.7121083823631125
 21
301.4425034189584949
 31
0.0
  0
LINE
  5
318A5
  8
0
 10
6688.7121083823631125
 20
301.4425034189584949
 30
0.0
 11
6688.7022658627120109
 21
301.4347895738425791
 31
0.0
  0
LINE
  5
318A6
  8
0
 10
6688.7022658627120109
 20
301.4347895738425791
 30
0.0
 11
6688.6825808233106727
 21
301.4259630749585881
 31
0.0
  0
LINE
  5
318A7
  8
0
 10
6688.6825808233106727
 20
301.4259630749585881
 30
0.0
 11
6688.6727383035940875
 21
301.4249388123300832
 31
0.0
  0
LINE
  5
318A8
  8
0
 10
6688.672738303497681
 20
301.4249388123200788
 30
0.0
 11
6688.67322292195513
 21
301.4252996989617941
 31
0.0
  0
LINE
  5
318A9
  8
0
 10
6688.67322292195513
 20
301.4252996989617941
 30
0.0
 11
6688.6856504768729792
 21
301.4304927619651835
 31
0.0
  0
LINE
  5
318AA
  8
0
 10
6688.6856504768729792
 20
301.4304927619651835
 30
0.0
 11
6688.6905593018527725
 21
301.4360339206098161
 31
0.0
  0
LINE
  5
318AB
  8
0
 10
6688.6905593018527725
 20
301.4360339206098161
 30
0.0
 11
6688.7022658627120109
 21
301.4413305950640733
 31
0.0
  0
LINE
  5
318AC
  8
0
 10
6688.6825808233106727
 20
301.4259630749585881
 30
0.0
 11
6688.6825808233106727
 21
301.4292100555556999
 31
0.0
  0
LINE
  5
318AD
  8
0
 10
6688.7022658627120109
 20
301.4413305950640733
 30
0.0
 11
6688.7022658627120109
 21
301.4347895738425791
 31
0.0
  0
LINE
  5
318AE
  8
0
 10
6688.6259957219317585
 20
301.4463601364632837
 30
0.0
 11
6688.6259957219317585
 21
301.440203844473217
 31
0.0
  0
LINE
  5
318AF
  8
0
 10
6688.6259957219317585
 20
301.440203844473217
 30
0.0
 11
6688.6050172668201412
 21
301.440203844473217
 31
0.0
  0
LINE
  5
318B0
  8
0
 10
6688.7022658626337943
 20
301.4310419248261042
 30
0.0
 11
6688.7121083821593857
 21
301.4365561644748936
 31
0.0
  0
LINE
  5
318B1
  8
0
 10
6688.7121083821593857
 20
301.4365561644748936
 30
0.0
 11
6688.7022658627120109
 21
301.4329034463290782
 31
0.0
  0
LINE
  5
318B2
  8
0
 10
6688.7022658627120109
 20
301.4329034463290782
 30
0.0
 11
6688.6825808236353623
 21
301.4239048616533978
 31
0.0
  0
LINE
  5
318B3
  8
0
 10
6688.6825808236353623
 20
301.4239048616533978
 30
0.0
 11
6688.6727383037923573
 21
301.4183969162594963
 31
0.0
  0
LINE
  5
318B4
  8
0
 10
6688.6727383037923573
 20
301.4183969162594963
 30
0.0
 11
6688.6825808231124029
 21
301.4218814344745283
 31
0.0
  0
LINE
  5
318B5
  8
0
 10
6688.6825808231124029
 20
301.4218814344745283
 30
0.0
 11
6688.7022658626337943
 21
301.4310419248261042
 31
0.0
  0
LINE
  5
318B6
  8
0
 10
6688.6842695327122783
 20
301.4257468159952964
 30
0.0
 11
6688.6744270130329824
 21
301.4237671285731039
 31
0.0
  0
LINE
  5
318B7
  8
0
 10
6688.6744270130329824
 20
301.4237671285731039
 30
0.0
 11
6688.6547419736416487
 21
301.4160376675932866
 31
0.0
  0
LINE
  5
318B8
  8
0
 10
6688.6547419736416487
 20
301.4160376675932866
 30
0.0
 11
6688.6448997992229124
 21
301.4101844221358988
 31
0.0
  0
LINE
  5
318B9
  8
0
 10
6688.6448997992229124
 20
301.4101844221358988
 30
0.0
 11
6688.6547419736325537
 21
301.4120454452731792
 31
0.0
  0
LINE
  5
318BA
  8
0
 10
6688.6547419736325537
 20
301.4120454452731792
 30
0.0
 11
6688.6744270129902361
 21
301.4198780872271755
 31
0.0
  0
LINE
  5
318BB
  8
0
 10
6688.6744270129902361
 20
301.4198780872271755
 30
0.0
 11
6688.6842695323512089
 21
301.4257468159227074
 31
0.0
  0
LINE
  5
318BC
  8
0
 10
6688.6465881633330355
 20
301.4073477620731865
 30
0.0
 11
6688.6564306830459827
 21
301.4118751440320807
 31
0.0
  0
LINE
  5
318BD
  8
0
 10
6688.6564306830459827
 20
301.4118751440320807
 30
0.0
 11
6688.6465881633330355
 21
301.4096163049732127
 31
0.0
  0
LINE
  5
318BE
  8
0
 10
6688.6465881633330355
 20
301.4096163049732127
 30
0.0
 11
6688.6269031240326512
 21
301.4029174025448015
 31
0.0
  0
LINE
  5
318BF
  8
0
 10
6688.6269031240326512
 20
301.4029174025448015
 30
0.0
 11
6688.6170606044988745
 21
301.3983676444469779
 31
0.0
  0
LINE
  5
318C0
  8
0
 10
6688.6170606044988745
 20
301.3983676444469779
 30
0.0
 11
6688.6269031239708056
 21
301.4005386975655938
 31
0.0
  0
LINE
  5
318C1
  8
0
 10
6688.6269031239708056
 20
301.4005386975655938
 30
0.0
 11
6688.6465881633330355
 21
301.4073477620731865
 31
0.0
  0
LINE
  5
318C2
  8
0
 10
6688.6564306830341593
 20
301.4183712999732165
 30
0.0
 11
6688.6559460647058586
 21
301.4183311198273145
 31
0.0
  0
LINE
  5
318C3
  8
0
 10
6688.6559460647058586
 20
301.4183311198273145
 30
0.0
 11
6688.6175452226334528
 21
301.4054316910732041
 31
0.0
  0
LINE
  5
318C4
  8
0
 10
6688.6175452226334528
 20
301.4054316910732041
 30
0.0
 11
6688.6170606043324369
 21
301.4051427868732276
 31
0.0
  0
LINE
  5
318C5
  8
0
 10
6688.6170606043324369
 20
301.4051427868732276
 30
0.0
 11
6688.626903123982629
 21
301.4055241057570811
 31
0.0
  0
LINE
  5
318C6
  8
0
 10
6688.626903123982629
 20
301.4055241057570811
 30
0.0
 11
6688.6465881633330355
 21
301.4121692239930894
 31
0.0
  0
LINE
  5
318C7
  8
0
 10
6688.6465881633330355
 20
301.4121692239930894
 30
0.0
 11
6688.6564306830341593
 21
301.4183712999732165
 31
0.0
  0
LINE
  5
318C8
  8
0
 10
6688.6465881633330355
 20
301.4151876579775831
 30
0.0
 11
6688.6465881633330355
 21
301.4121692239930894
 31
0.0
  0
LINE
  5
318C9
  8
0
 10
6688.6269031240599361
 20
301.4085751529410118
 30
0.0
 11
6688.626903123982629
 21
301.4055241057570811
 31
0.0
  0
ARC
  5
318CA
  8
0
 10
6688.442036972571259
 20
300.564107888883882
 30
0.0
 40
0.9907778036421404
 50
86.3795402437102382
 51
90.0094419632026757
  0
ARC
  5
318CB
  8
0
 10
6688.4484677945138174
 20
300.6657437171396055
 30
0.0
 40
0.8889387293334348
 50
81.6371364599138332
 51
86.3795402437102382
  0
ARC
  5
318CC
  8
0
 10
6688.4844288275871804
 20
300.9103683927237967
 30
0.0
 40
0.6416849572602049
 50
75.7000096166145795
 51
81.6371364599138332
  0
ARC
  5
318CD
  8
0
 10
6688.5441407009548129
 20
301.1446275688393257
 30
0.0
 40
0.3999353566080042
 50
69.0115803900100531
 51
75.7000096166145795
  0
ARC
  5
318CE
  8
0
 10
6688.6040364822256379
 20
301.3007557257009239
 30
0.0
 40
0.2327124336010319
 50
59.8983846403629627
 51
69.0115803900100531
  0
ARC
  5
318CF
  8
0
 10
6688.6664770034003595
 20
301.4084642781880916
 30
0.0
 40
0.1082136345577782
 50
42.4086314602814198
 51
59.8983846403629627
  0
ARC
  5
318D0
  8
0
 10
6688.7158761153968953
 20
301.45358551478148
 30
0.0
 40
0.0413092381560233
 50
14.2387393853906001
 51
42.4086314602814198
  0
ARC
  5
318D1
  8
0
 10
6688.7259597886641131
 20
301.4561443320366152
 30
0.0
 40
0.0309059688480669
 50
338.2939031340753786
 51
14.2387393853906001
  0
ARC
  5
318D2
  8
0
 10
6688.7068419297711444
 20
301.4637546087009241
 30
0.0
 40
0.0514828694776183
 50
309.327695089552094
 51
338.2939031340753786
  0
ARC
  5
318D3
  8
0
 10
6688.6313122119699983
 20
301.5559429396053019
 30
0.0
 40
0.1706609992923054
 50
294.0776258888984103
 51
309.327695089552094
  0
ARC
  5
318D4
  8
0
 10
6688.5599381600723063
 20
301.7156689400474079
 30
0.0
 40
0.3456085642981783
 50
282.5815451836945726
 51
294.0776258888984103
  0
ARC
  5
318D5
  8
0
 10
6688.4440267942081846
 20
302.2350122803094905
 30
0.0
 40
0.8777297439283978
 50
275.8155114794026872
 51
282.5815451836945726
  0
ARC
  5
318D6
  8
0
 10
6688.4525096323368416
 20
302.1517245741842999
 30
0.0
 40
0.7940111645430579
 50
270.5508267839596215
 51
275.8155114794026872
  0
ARC
  5
318D7
  8
0
 10
6688.2861081549899609
 20
319.4599036711260283
 30
0.0
 40
18.1029901379969793
 50
270.4930024445903882
 51
270.5508267839596215
  0
ARC
  5
318D8
  8
0
 10
6688.4455426784506926
 20
301.9917663650808777
 30
0.0
 40
0.6050011347579874
 50
290.5412571893190261
 51
294.6804447212642799
  0
ARC
  5
318D9
  8
0
 10
6688.4438674700122647
 20
301.9962288248198092
 30
0.0
 40
0.6097676703843558
 50
284.5433320636266785
 51
290.5415299234813915
  0
ARC
  5
318DA
  8
0
 10
6688.442211697242783
 20
302.0026113062427271
 30
0.0
 40
0.6163614289920833
 50
279.4417785608512759
 51
284.5433320636266785
  0
ARC
  5
318DB
  8
0
 10
6688.4421132732677506
 20
302.0032031586500807
 30
0.0
 40
0.6169614094509145
 50
274.1872895596958983
 51
279.4417785608512759
  0
ARC
  5
318DC
  8
0
 10
6688.4260106853625985
 20
302.4434381380481227
 30
0.0
 40
1.0573193892107531
 50
270.8596435859302005
 51
273.3156146313526165
  0
ARC
  5
318DD
  8
0
 10
6688.4181714845772149
 20
300.0754146535423956
 30
0.0
 40
1.496111196177131
 50
84.6015892835272609
 51
89.0922508509874547
  0
ARC
  5
318DE
  8
0
 10
6688.4629013108742583
 20
300.7176909294178131
 30
0.0
 40
0.8526236375710375
 50
79.4096961498325555
 51
83.5334356104431635
  0
ARC
  5
318DF
  8
0
 10
6688.5116156119120205
 20
300.9782373434755982
 30
0.0
 40
0.5875622918335707
 50
72.3691511909100029
 51
79.4096961498325555
  0
ARC
  5
318E0
  8
0
 10
6688.5975404179871475
 20
301.248601501685414
 30
0.0
 40
0.3038725839775694
 50
62.4424732371463875
 51
72.3691511909100029
  0
ARC
  5
318E1
  8
0
 10
6688.6711817369669006
 20
301.389719043808725
 30
0.0
 40
0.1446959382152485
 50
50.6171986676647734
 51
62.4424732371463875
  0
ARC
  5
318E2
  8
0
 10
6688.7141464216110762
 20
301.4420571300776146
 30
0.0
 40
0.0769815423986103
 50
33.8852437695512165
 51
50.6171986676647734
  0
ARC
  5
318E3
  8
0
 10
6688.7452453377500206
 20
301.4629431105116737
 30
0.0
 40
0.0395200052747603
 50
9.563938114201294
 51
33.8852437695512165
  0
ARC
  5
318E4
  8
0
 10
6688.7501579740637681
 20
301.4637708406261822
 30
0.0
 40
0.0345381248362207
 50
331.2278010078496209
 51
9.5639381141980842
  0
ARC
  5
318E5
  8
0
 10
6688.7111072690304354
 20
301.4859362677216268
 30
0.0
 40
0.079439012214561
 50
305.9948823643214268
 51
330.7714749030668031
  0
LINE
  5
318E6
  8
0
 10
6688.6187493137467754
 20
301.3997590441263128
 30
0.0
 11
6688.6285918333942391
 21
301.4046586275699156
 31
0.0
  0
LINE
  5
318E7
  8
0
 10
6688.6285918333942391
 20
301.4046586275699156
 30
0.0
 11
6688.6187493138686477
 21
301.4039069855139132
 31
0.0
  0
LINE
  5
318E8
  8
0
 10
6688.6187493138686477
 20
301.4039069855139132
 30
0.0
 11
6688.5990642743699937
 21
301.3983152964758006
 31
0.0
  0
LINE
  5
318E9
  8
0
 10
6688.5990642743699937
 20
301.3983152964758006
 30
0.0
 11
6688.5897600646667343
 21
301.3934251689515236
 31
0.0
  0
LINE
  5
318EA
  8
0
 10
6688.5897600646667343
 20
301.3934251689515236
 30
0.0
 11
6688.5990642741826377
 21
301.3940980064327277
 31
0.0
  0
LINE
  5
318EB
  8
0
 10
6688.5990642741826377
 20
301.3940980064327277
 30
0.0
 11
6688.6187493135303157
 21
301.3997590440183103
 31
0.0
  0
LINE
  5
318EC
  8
0
 10
6688.6007529837334005
 20
301.4005249104731092
 30
0.0
 11
6688.6002683654332941
 21
301.4005403711731788
 31
0.0
  0
LINE
  5
318ED
  8
0
 10
6688.6002683654332941
 20
301.4005403711731788
 30
0.0
 11
6688.561867523332694
 21
301.3915967930731767
 31
0.0
  0
LINE
  5
318EE
  8
0
 10
6688.561867523332694
 20
301.3915967930731767
 30
0.0
 11
6688.5613829050316781
 21
301.3913533259732276
 31
0.0
  0
LINE
  5
318EF
  8
0
 10
6688.5613829050316781
 20
301.3913533259732276
 30
0.0
 11
6688.5712254247009696
 21
301.3906699029960237
 31
0.0
  0
LINE
  5
318F0
  8
0
 10
6688.5712254247009696
 20
301.3906699029960237
 30
0.0
 11
6688.5909104638903955
 21
301.3952759822012126
 31
0.0
  0
LINE
  5
318F1
  8
0
 10
6688.5909104638903955
 20
301.3952759822012126
 30
0.0
 11
6688.6007529837334005
 21
301.4005249104731092
 31
0.0
  0
LINE
  5
318F2
  8
0
 10
6688.6007529837570473
 20
301.393655731438912
 30
0.0
 11
6688.5909104640331861
 21
301.3900460188731927
 31
0.0
  0
LINE
  5
318F3
  8
0
 10
6688.5909104640331861
 20
301.3900460188731927
 30
0.0
 11
6688.5712254243098869
 21
301.3853331595789768
 31
0.0
  0
LINE
  5
318F4
  8
0
 10
6688.5712254243098869
 20
301.3853331595789768
 30
0.0
 11
6688.5613829050944332
 21
301.3843022610553248
 31
0.0
  0
LINE
  5
318F5
  8
0
 10
6688.5613829050944332
 20
301.3843022610553248
 30
0.0
 11
6688.5712254246400335
 21
301.3879478259289044
 31
0.0
  0
LINE
  5
318F6
  8
0
 10
6688.5712254246400335
 20
301.3879478259289044
 30
0.0
 11
6688.5909104640750229
 21
301.392588986776218
 31
0.0
  0
LINE
  5
318F7
  8
0
 10
6688.5909104640750229
 20
301.392588986776218
 30
0.0
 11
6688.6007529837570473
 21
301.393655731438912
 31
0.0
  0
LINE
  5
318F8
  8
0
 10
6688.5726517694329232
 20
301.3895764625730749
 30
0.0
 11
6688.5630716146943087
 21
301.3899062971256058
 31
0.0
  0
LINE
  5
318F9
  8
0
 10
6688.5630716146943087
 20
301.3899062971256058
 30
0.0
 11
6688.5433865750801488
 21
301.3862678576708163
 31
0.0
  0
LINE
  5
318FA
  8
0
 10
6688.5433865750801488
 20
301.3862678576708163
 30
0.0
 11
6688.5335440554017623
 21
301.3822571352587829
 31
0.0
  0
LINE
  5
318FB
  8
0
 10
6688.5335440554017623
 20
301.3822571352587829
 30
0.0
 11
6688.5433865748273092
 21
301.3819060755376995
 31
0.0
  0
LINE
  5
318FC
  8
0
 10
6688.5433865748273092
 20
301.3819060755376995
 30
0.0
 11
6688.5630716144332837
 21
301.3855874631718166
 31
0.0
  0
LINE
  5
318FD
  8
0
 10
6688.5630716144332837
 20
301.3855874631718166
 30
0.0
 11
6688.5726517694329232
 21
301.3895764625730749
 31
0.0
  0
LINE
  5
318FE
  8
0
 10
6688.5732479714606598
 20
301.3853210289378239
 30
0.0
 11
6688.5629045046780448
 21
301.3838801650256869
 31
0.0
  0
LINE
  5
318FF
  8
0
 10
6688.5629045046780448
 20
301.3838801650256869
 30
0.0
 11
6688.5433865750092082
 21
301.3801978176131797
 31
0.0
  0
LINE
  5
31900
  8
0
 10
6688.5433865750092082
 20
301.3801978176131797
 30
0.0
 11
6688.5313306724929134
 21
301.3771827827160905
 31
0.0
  0
LINE
  5
31901
  8
0
 10
6688.5450752844053568
 20
301.3812387874903038
 30
0.0
 11
6688.5352327650043662
 21
301.381230651314695
 31
0.0
  0
LINE
  5
31902
  8
0
 10
6688.5352327650043662
 20
301.381230651314695
 30
0.0
 11
6688.5155477254329526
 21
301.3784993207116258
 31
0.0
  0
LINE
  5
31903
  8
0
 10
6688.5155477254329526
 20
301.3784993207116258
 30
0.0
 11
6688.5057052057491092
 21
301.3757359642518168
 31
0.0
  0
LINE
  5
31904
  8
0
 10
6688.5057052057491092
 20
301.3757359642518168
 30
0.0
 11
6688.5155477254329526
 21
301.3757359642518168
 31
0.0
  0
LINE
  5
31905
  8
0
 10
6688.5155477254329526
 20
301.3757359642518168
 30
0.0
 11
6688.5352327647324273
 21
301.3785144416730759
 31
0.0
  0
LINE
  5
31906
  8
0
 10
6688.5352327647324273
 20
301.3785144416730759
 30
0.0
 11
6688.5450752844053568
 21
301.3812387874903038
 31
0.0
  0
LINE
  5
31907
  8
0
 10
6688.5450752844890303
 20
301.3883480836564104
 30
0.0
 11
6688.5445906661334448
 21
301.3884135688730908
 31
0.0
  0
LINE
  5
31908
  8
0
 10
6688.5445906661334448
 20
301.3884135688730908
 30
0.0
 11
6688.5063823605432844
 21
301.3831681839022281
 31
0.0
  0
LINE
  5
31909
  8
0
 10
6688.5063823605432844
 20
301.3831681839022281
 30
0.0
 11
6688.5057052057272813
 21
301.3829482515714062
 31
0.0
  0
LINE
  5
3190A
  8
0
 10
6688.5057052057272813
 20
301.3829482515714062
 30
0.0
 11
6688.5155477252747005
 21
301.3812909881539213
 31
0.0
  0
LINE
  5
3190B
  8
0
 10
6688.5155477252747005
 20
301.3812909881539213
 30
0.0
 11
6688.5352327647324273
 21
301.3840024486731863
 31
0.0
  0
LINE
  5
3190C
  8
0
 10
6688.5352327647324273
 20
301.3840024486731863
 30
0.0
 11
6688.5450752844317321
 21
301.3883480837732236
 31
0.0
  0
LINE
  5
3190D
  8
0
 10
6688.5172364347572511
 20
301.3800032072858812
 30
0.0
 11
6688.5073939152562161
 21
301.3813175159863249
 31
0.0
  0
LINE
  5
3190E
  8
0
 10
6688.5073939152562161
 20
301.3813175159863249
 30
0.0
 11
6688.4877088757693855
 21
301.3795236073029855
 31
0.0
  0
LINE
  5
3190F
  8
0
 10
6688.4877088757693855
 20
301.3795236073029855
 30
0.0
 11
6688.4778663560300629
 21
301.3763949714020214
 31
0.0
  0
LINE
  5
31910
  8
0
 10
6688.4778663560300629
 20
301.3763949714020214
 30
0.0
 11
6688.4877088755001751
 21
301.3750837396552242
 31
0.0
  0
LINE
  5
31911
  8
0
 10
6688.4877088755001751
 20
301.3750837396552242
 30
0.0
 11
6688.5073939150761362
 21
301.3768982281840181
 31
0.0
  0
LINE
  5
31912
  8
0
 10
6688.5073939150761362
 20
301.3768982281840181
 30
0.0
 11
6688.5172364346390168
 21
301.3800032073016837
 31
0.0
  0
LINE
  5
31913
  8
0
 10
6688.5191097747983804
 20
301.3755266876020187
 30
0.0
 11
6688.5073939151316154
 21
301.375143021561712
 31
0.0
  0
LINE
  5
31914
  8
0
 10
6688.5073939151316154
 20
301.375143021561712
 30
0.0
 11
6688.4877088757693855
 21
301.3733117375235224
 31
0.0
  0
LINE
  5
31915
  8
0
 10
6688.4877088757693855
 20
301.3733117375235224
 30
0.0
 11
6688.4769429481839325
 21
301.3716194265406898
 31
0.0
  0
LINE
  5
31916
  8
0
 10
6688.4893975851500727
 20
301.3742262245099255
 30
0.0
 11
6688.479555065432578
 21
301.375188387373214
 31
0.0
  0
LINE
  5
31917
  8
0
 10
6688.479555065432578
 20
301.375188387373214
 30
0.0
 11
6688.4598700261331032
 21
301.3742864629049905
 31
0.0
  0
LINE
  5
31918
  8
0
 10
6688.4598700261331032
 20
301.3742864629049905
 30
0.0
 11
6688.4500275063837762
 21
301.3724093787341758
 31
0.0
  0
LINE
  5
31919
  8
0
 10
6688.4500275063837762
 20
301.3724093787341758
 30
0.0
 11
6688.4598707120321706
 21
301.3714679739438793
 31
0.0
  0
LINE
  5
3191A
  8
0
 10
6688.4598707120321706
 20
301.3714679739438793
 30
0.0
 11
6688.4795550654125691
 21
301.3723830129703742
 31
0.0
  0
LINE
  5
3191B
  8
0
 10
6688.4795550654125691
 20
301.3723830129703742
 30
0.0
 11
6688.4893975851500727
 21
301.3742262245099255
 31
0.0
  0
LINE
  5
3191C
  8
0
 10
6688.4893975851327923
 20
301.3814664134732197
 30
0.0
 11
6688.4889129668317764
 21
301.3815783163731794
 31
0.0
  0
LINE
  5
3191D
  8
0
 10
6688.4889129668317764
 20
301.3815783163731794
 30
0.0
 11
6688.4505121247329953
 21
301.3798391593732049
 31
0.0
  0
LINE
  5
3191E
  8
0
 10
6688.4505121247329953
 20
301.3798391593732049
 30
0.0
 11
6688.4500275063701338
 21
301.379682945552986
 31
0.0
  0
LINE
  5
3191F
  8
0
 10
6688.4500275063701338
 20
301.379682945552986
 30
0.0
 11
6688.4598700260849
 21
301.3771083945212013
 31
0.0
  0
LINE
  5
31920
  8
0
 10
6688.4598700260849
 20
301.3771083945212013
 30
0.0
 11
6688.4795550653579994
 21
301.3780038785690181
 31
0.0
  0
LINE
  5
31921
  8
0
 10
6688.4795550653579994
 20
301.3780038785690181
 30
0.0
 11
6688.4893975851327923
 21
301.3814664134732197
 31
0.0
  0
LINE
  5
31922
  8
0
 10
6688.4418735773324443
 20
301.377809766873213
 30
0.0
 11
6688.4517162157853818
 21
301.3778886784454016
 31
0.0
  0
LINE
  5
31923
  8
0
 10
6688.4517162157853818
 20
301.3778886784454016
 30
0.0
 11
6688.4615587353091541
 21
301.3756506377941946
 31
0.0
  0
LINE
  5
31924
  8
0
 10
6688.4615587353091541
 20
301.3756506377941946
 30
0.0
 11
6688.4517162158326755
 21
301.373430172873384
 31
0.0
  0
LINE
  5
31925
  8
0
 10
6688.4517162158326755
 20
301.373430172873384
 30
0.0
 11
6688.4418736989828176
 21
301.373430172873384
 31
0.0
  0
ARC
  5
31926
  8
0
 10
6688.6834934605249146
 20
301.5137662825022744
 30
0.0
 40
0.0817240818100043
 50
300.7321351306305814
 51
328.5988919883876065
  0
ARC
  5
31927
  8
0
 10
6688.5675116820302719
 20
301.7067632361333267
 30
0.0
 40
0.3068891179221304
 50
296.046298990400885
 51
300.9314703310815844
  0
ARC
  5
31928
  8
0
 10
6688.4180732113409249
 20
302.016879594997306
 30
0.0
 40
0.6511429088229778
 50
289.1328622383333027
 51
293.967633914025896
  0
ARC
  5
31929
  8
0
 10
6688.4799593382267631
 20
301.8355229711871743
 30
0.0
 40
0.4595214748845363
 50
284.4611518110551174
 51
289.2542827042187241
  0
ARC
  5
3192A
  8
0
 10
6688.3822005722449831
 20
302.2145881666399987
 30
0.0
 40
0.8509894796179031
 50
282.044826232489072
 51
284.4611518110551174
  0
ARC
  5
3192B
  8
0
 10
6688.4628460632502538
 20
301.8366352024298749
 30
0.0
 40
0.4645284358182874
 50
276.8247362073133786
 51
282.044826232489072
  0
ARC
  5
3192C
  8
0
 10
6688.4259986768465751
 20
302.1445160519115234
 30
0.0
 40
0.7746064056296662
 50
274.0801609868304922
 51
276.8247362073133786
  0
ARC
  5
3192D
  8
0
 10
6688.4371233772271808
 20
302.0612308666147783
 30
0.0
 40
0.6907601150270734
 50
270.3940232322834163
 51
273.6512771864182128
  0
LINE
  5
3192E
  8
0
 10
6688.4583006686943918
 20
301.3707954541117147
 30
0.0
 11
6688.4615587355137905
 21
301.3710593002546148
 31
0.0
  0
LINE
  5
3192F
  8
0
 10
6688.4615587355137905
 20
301.3710593002546148
 30
0.0
 11
6688.4517162158927022
 21
301.3716429633395819
 31
0.0
  0
LINE
  5
31930
  8
0
 10
6688.4517162158927022
 20
301.3716429633395819
 30
0.0
 11
6688.4418736989828176
 21
301.3715624244732112
 31
0.0
  0
LINE
  5
31931
  8
0
 10
6688.4517162158927022
 20
301.3716429633395819
 30
0.0
 11
6688.4517162158927022
 21
301.3706249112598243
 31
0.0
  0
LINE
  5
31932
  8
0
 10
6688.4517162157853818
 20
301.3778886784454016
 30
0.0
 11
6688.4517162158326755
 21
301.373430172873384
 31
0.0
  0
LINE
  5
31933
  8
0
 10
6688.4598700260849
 20
301.3771083945212013
 30
0.0
 11
6688.4598700260849
 21
301.3802629745488844
 31
0.0
  0
LINE
  5
31934
  8
0
 10
6688.4795550653579994
 20
301.3780038785690181
 30
0.0
 11
6688.4795550653579994
 21
301.3811545011918724
 31
0.0
  0
LINE
  5
31935
  8
0
 10
6688.4598700261331032
 20
301.3742864629049905
 30
0.0
 11
6688.4598707120321706
 21
301.3714679739438793
 31
0.0
  0
LINE
  5
31936
  8
0
 10
6688.479555065432578
 20
301.375188387373214
 30
0.0
 11
6688.4795550654125691
 21
301.3723830129703742
 31
0.0
  0
LINE
  5
31937
  8
0
 10
6688.4877088757693855
 20
301.3733117375235224
 30
0.0
 11
6688.4877088757693855
 21
301.3723716774637182
 31
0.0
  0
LINE
  5
31938
  8
0
 10
6688.5073939151316154
 20
301.375143021561712
 30
0.0
 11
6688.5073939151316154
 21
301.3741980014759747
 31
0.0
  0
LINE
  5
31939
  8
0
 10
6688.5155477254329526
 20
301.3784993207116258
 30
0.0
 11
6688.5155477254329526
 21
301.3757359642518168
 31
0.0
  0
LINE
  5
3193A
  8
0
 10
6688.5073939152562161
 20
301.3813175159863249
 30
0.0
 11
6688.5073939150761362
 21
301.3768982281840181
 31
0.0
  0
LINE
  5
3193B
  8
0
 10
6688.4877088757693855
 20
301.3795236073029855
 30
0.0
 11
6688.4877088755001751
 21
301.3750837396552242
 31
0.0
  0
LINE
  5
3193C
  8
0
 10
6688.5155477252747005
 20
301.3812909881539213
 30
0.0
 11
6688.5155477252747005
 21
301.3844264408617164
 31
0.0
  0
LINE
  5
3193D
  8
0
 10
6688.5352327647324273
 20
301.3840024486731863
 30
0.0
 11
6688.5352327647324273
 21
301.3871288797301986
 31
0.0
  0
LINE
  5
3193E
  8
0
 10
6688.5352327647324273
 20
301.3785144416730759
 30
0.0
 11
6688.5352327650043662
 21
301.381230651314695
 31
0.0
  0
LINE
  5
3193F
  8
0
 10
6688.5433865750092082
 20
301.3801978176131797
 30
0.0
 11
6688.5433865750092082
 21
301.3791421493136227
 31
0.0
  0
LINE
  5
31940
  8
0
 10
6688.5629045046780448
 20
301.3838801650256869
 30
0.0
 11
6688.5629045046780448
 21
301.3830058296322818
 31
0.0
  0
LINE
  5
31941
  8
0
 10
6688.5433865748273092
 20
301.3819060755376995
 30
0.0
 11
6688.5433865750801488
 21
301.3862678576708163
 31
0.0
  0
LINE
  5
31942
  8
0
 10
6688.5630716146943087
 20
301.3899062971256058
 30
0.0
 11
6688.5630716144332837
 21
301.3855874631718166
 31
0.0
  0
LINE
  5
31943
  8
0
 10
6688.5712254246400335
 20
301.3879478259289044
 30
0.0
 11
6688.5712254243098869
 21
301.3853331595789768
 31
0.0
  0
LINE
  5
31944
  8
0
 10
6688.5712254247009696
 20
301.3906699029960237
 30
0.0
 11
6688.5712254247009696
 21
301.3937762536568812
 31
0.0
  0
LINE
  5
31945
  8
0
 10
6688.5909104638903955
 20
301.3952759822012126
 30
0.0
 11
6688.5909104638903955
 21
301.3983609105486039
 31
0.0
  0
LINE
  5
31946
  8
0
 10
6688.5909104640750229
 20
301.392588986776218
 30
0.0
 11
6688.5909104640331861
 21
301.3900460188731927
 31
0.0
  0
LINE
  5
31947
  8
0
 10
6688.5990642741826377
 20
301.3940980064327277
 30
0.0
 11
6688.5990642743699937
 21
301.3983152964758006
 31
0.0
  0
LINE
  5
31948
  8
0
 10
6688.6187493138686477
 20
301.4039069855139132
 30
0.0
 11
6688.6187493135303157
 21
301.3997590440183103
 31
0.0
  0
LINE
  5
31949
  8
0
 10
6688.6269031239708056
 20
301.4005386975655938
 30
0.0
 11
6688.6269031240326512
 21
301.4029174025448015
 31
0.0
  0
LINE
  5
3194A
  8
0
 10
6688.6465881633330355
 20
301.4096163049732127
 30
0.0
 11
6688.6465881633330355
 21
301.4073477620731865
 31
0.0
  0
LINE
  5
3194B
  8
0
 10
6688.6547419736325537
 20
301.4120454452731792
 30
0.0
 11
6688.6547419736416487
 21
301.4160376675932866
 31
0.0
  0
LINE
  5
3194C
  8
0
 10
6688.6744270130329824
 20
301.4237671285731039
 30
0.0
 11
6688.6744270129902361
 21
301.4198780872271755
 31
0.0
  0
LINE
  5
3194D
  8
0
 10
6688.6825808236353623
 20
301.4239048616533978
 30
0.0
 11
6688.6825808231124029
 21
301.4218814344745283
 31
0.0
  0
LINE
  5
3194E
  8
0
 10
6688.7022658626337943
 20
301.4310419248261042
 30
0.0
 11
6688.7022658627120109
 21
301.4329034463290782
 31
0.0
  0
LINE
  5
3194F
  8
0
 10
6688.4418738206331909
 20
301.377809766873213
 30
0.0
 11
6688.4418736989828176
 21
301.3778097678484755
 31
0.0
  0
LINE
  5
31950
  8
0
 10
6689.378312379352792
 20
293.6640380280795171
 30
0.0
 11
6689.2725823603841491
 21
293.6968507925120093
 31
0.0
  0
LINE
  5
31951
  8
0
 10
6689.3867555887818526
 20
293.6525772584354854
 30
0.0
 11
6689.3867555887818526
 21
293.511811422411995
 31
0.0
  0
ARC
  5
31952
  8
0
 10
6689.3747555887830458
 20
293.6525772584354854
 30
0.0
 40
0.012
 50
359.9999999999968168
 51
72.758540638488256
  0
ARC
  5
31953
  8
0
 10
6688.4450121989093532
 20
299.3574816538240952
 30
0.0
 40
2.891490886776475
 50
83.9500228413921548
 51
88.4469037479734936
  0
ARC
  5
31954
  8
0
 10
6688.6383009450792088
 20
301.0952897448424892
 30
0.0
 40
1.143025813638932
 50
75.4391622559501513
 51
84.40388847526755
  0
ARC
  5
31955
  8
0
 10
6688.8587721349858839
 20
301.9301432408611277
 30
0.0
 40
0.2795805132529892
 50
61.7572387558797402
 51
76.1566981248338095
  0
ARC
  5
31956
  8
0
 10
6688.9128916788986317
 20
302.0239234396307779
 30
0.0
 40
0.171386731367081
 50
32.434307401604471
 51
62.8602075725660967
  0
ARC
  5
31957
  8
0
 10
6688.3305708972584398
 20
297.7331622126945945
 30
0.0
 40
4.3819942877872409
 50
85.7951795897774758
 51
87.9737078412114926
  0
ARC
  5
31958
  8
0
 10
6688.4844571885496407
 20
300.0208913481023956
 30
0.0
 40
2.0891884678051751
 50
81.4246116821615402
 51
85.4038497585070928
  0
ARC
  5
31959
  8
0
 10
6688.5828131608095646
 20
300.6731347233119891
 30
0.0
 40
1.429570913624143
 50
76.6042728077247546
 51
81.4246116821615402
  0
ARC
  5
3195A
  8
0
 10
6688.8308919070959746
 20
301.7148048801290088
 30
0.0
 40
0.3587675796911093
 50
60.5279427395633718
 51
76.6042728077247546
  0
ARC
  5
3195B
  8
0
 10
6688.9237761083259102
 20
301.9121510982039922
 30
0.0
 40
0.1421891274603776
 50
15.4323938966281897
 51
53.9738815015424507
  0
ARC
  5
3195C
  8
0
 10
6695.5980804345608703
 20
303.3719123748451238
 30
0.0
 40
6.6900971620113543
 50
192.2713437473153135
 51
193.6292571518337127
  0
ARC
  5
3195D
  8
0
 10
6685.8306137135023164
 20
301.0711795836451188
 30
0.0
 40
3.3451106843007792
 50
7.1628599658681091
 51
12.5048166973854595
  0
ARC
  5
3195E
  8
0
 10
6701.0324157519662549
 20
302.9387390543653851
 30
0.0
 40
11.9709942066248196
 50
186.9593030792125035
 51
190.4557877317454881
  0
ARC
  5
3195F
  8
0
 10
6678.358498612375115
 20
300.0820342666743272
 30
0.0
 40
10.9078551911725707
 50
7.9149619879684936
 51
9.407302059055608
  0
ARC
  5
31960
  8
0
 10
6692.2612826504891927
 20
302.0149055285569943
 30
0.0
 40
3.1286470556637811
 50
187.9149619879684963
 51
193.1243618715884054
  0
ARC
  5
31961
  8
0
 10
6703.8533723031714544
 20
304.8985960340235124
 30
0.0
 40
15.0737619163026508
 50
193.7941349473809964
 51
194.5204647357138015
  0
ARC
  5
31962
  8
0
 10
6688.9130046462378232
 20
301.0842321941566979
 30
0.0
 40
0.3517388135293062
 50
11.5159768681872503
 51
24.7148708738495486
  0
ARC
  5
31963
  8
0
 10
6688.8705233908513037
 20
301.0989667927643723
 30
0.0
 40
0.3910953763993448
 50
358.8739908946486139
 51
8.1564027520467537
  0
ARC
  5
31964
  8
0
 10
6757.9527549807698961
 20
300.6442538829293198
 30
0.0
 40
68.6926662989561692
 50
179.6271368665667012
 51
180.5955817348601045
  0
ARC
  5
31965
  8
0
 10
6612.7673724196438343
 20
299.1350174725802162
 30
0.0
 40
76.5005604850891672
 50
0.3391881736327998
 51
0.5955817348601185
  0
ARC
  5
31966
  8
0
 10
6612.7673724196438343
 20
299.1350174725802162
 30
0.0
 40
76.5005604850891672
 50
359.6271368665666728
 51
359.660811826367194
  0
LINE
  5
31967
  8
0
 10
6689.2665923964823378
 20
293.6968507925120093
 30
0.0
 11
6689.2665923964823378
 21
299.5878943520240796
 31
0.0
  0
ARC
  5
31968
  8
0
 10
6688.425884378981209
 20
303.0795027984833041
 30
0.0
 40
0.6786640876659343
 50
77.7984671723960588
 51
88.649987020706547
  0
ARC
  5
31969
  8
0
 10
6688.4778463409102187
 20
303.3807807832196204
 30
0.0
 40
0.3734321274342047
 50
69.9101211451523739
 51
75.8207832647892701
  0
ARC
  5
3196A
  8
0
 10
6688.5282283190317685
 20
303.5185314027032177
 30
0.0
 40
0.2267570549519452
 50
56.8594898390961418
 51
69.9101211451523739
  0
ARC
  5
3196B
  8
0
 10
6688.5890044302268507
 20
303.6116178374473975
 30
0.0
 40
0.1155868250100878
 50
18.7952556277722103
 51
56.8594898390961418
  0
ARC
  5
3196C
  8
0
 10
6706.5347403840678453
 20
307.9543254712942826
 30
0.0
 40
18.3485993087753982
 50
193.5708902195320036
 51
194.1292762512370018
  0
ARC
  5
3196D
  8
0
 10
6450.0234695856443068
 20
243.0478924601964934
 30
0.0
 40
246.2471017126653123
 50
13.9938372656962002
 51
14.2050674928876308
  0
ARC
  5
3196E
  8
0
 10
6008.8429819592738568
 20
112.5287952133810023
 30
0.0
 40
706.1780755140664496
 50
15.5207660470642903
 51
15.6135359637370001
  0
ARC
  5
3196F
  8
0
 10
6689.2581060465427072
 20
301.4896274249325074
 30
0.0
 40
0.0117430584396626
 50
351.0389595253660104
 51
18.248856380579241
  0
ARC
  5
31970
  8
0
 10
6689.254135216207942
 20
301.5062270398668147
 30
0.0
 40
0.024125940625342
 50
273.0356432772737207
 51
310.1946672467241797
  0
ARC
  5
31971
  8
0
 10
6689.200359134176324
 20
302.0127158075551961
 30
0.0
 40
0.5334294288644689
 50
267.6782197237430978
 51
275.923881841361208
  0
ARC
  5
31972
  8
0
 10
6688.5506699567322357
 20
299.4699310965963832
 30
0.0
 40
2.1464709929756838
 50
72.2800278301853467
 51
73.1942861931596553
  0
ARC
  5
31973
  8
0
 10
6689.0463138095574323
 20
301.0211214827401136
 30
0.0
 40
0.5180194453677461
 50
69.4022551497911735
 51
72.2800278301853467
  0
ARC
  5
31974
  8
0
 10
6689.1770341185656434
 20
301.3689387956080736
 30
0.0
 40
0.1464488836723937
 50
63.795200079471698
 51
69.4022551497911735
  0
ARC
  5
31975
  8
0
 10
6689.2233714318253988
 20
301.463088739522675
 30
0.0
 40
0.0415138631166532
 50
55.4936490285567032
 51
63.795200079471698
  0
ARC
  5
31976
  8
0
 10
6689.2450645594080925
 20
301.4946449420185104
 30
0.0
 40
0.0032204472293286
 50
297.579951803444601
 51
55.4936490285567032
  0
ARC
  5
31977
  8
0
 10
6689.2205103007891012
 20
301.5509330284621115
 30
0.0
 40
0.0646235361172537
 50
271.170595923736073
 51
293.7677903886353192
  0
ARC
  5
31978
  8
0
 10
6689.185829140928945
 20
302.0045530099765756
 30
0.0
 40
0.5194790310684466
 50
269.1159816833211949
 51
273.9739460160902809
  0
ARC
  5
31979
  8
0
 10
6688.4491989348189236
 20
302.9591422391454785
 30
0.0
 40
0.630992145236641
 50
77.1075713166737415
 51
90.6651660062325675
  0
ARC
  5
3197A
  8
0
 10
6688.5166414222312596
 20
303.2682111398328857
 30
0.0
 40
0.3146832531241643
 50
64.8000142905404033
 51
76.5217278755237515
  0
ARC
  5
3197B
  8
0
 10
6688.5505076398094388
 20
303.3631286149159791
 30
0.0
 40
0.2146023639875497
 50
22.4141460939199213
 51
62.1904473933656092
  0
ENDSEC
  0
EOF
