  0
SECTION
  2
HEADER
  9
$ACADVER
  1
AC1009
  9
$INSBASE
 10
6663.2097203674593402
 20
286.2524028193544723
 30
0.0
  9
$EXTMIN
 10
6662.2648384776575767
 20
286.2468731056770253
 30
0.0
  9
$EXTMAX
 10
6664.1546022572592847
 20
299.6757251035546119
 30
0.0
  9
$LIMMIN
 10
0.0
 20
0.0
  9
$LIMMAX
 10
11.6929133858000007
 20
8.2677165353999982
  9
$ORTHOMODE
 70
     0
  9
$REGENMODE
 70
     1
  9
$FILLMODE
 70
     1
  9
$QTEXTMODE
 70
     0
  9
$MIRRTEXT
 70
     0
  9
$DRAGMODE
 70
     2
  9
$LTSCALE
 40
0.6431102362
  9
$OSMODE
 70
  4095
  9
$ATTMODE
 70
     1
  9
$TEXTSIZE
 40
0.2
  9
$TRACEWID
 40
0.05
  9
$TEXTSTYLE
  7
STANDARD
  9
$CLAYER
  8
0
  9
$CELTYPE
  6
BYLAYER
  9
$CECOLOR
 62
   256
  9
$DIMSCALE
 40
1.0
  9
$DIMASZ
 40
0.1875
  9
$DIMEXO
 40
0.0625
  9
$DIMDLI
 40
0.4443307087
  9
$DIMRND
 40
0.0
  9
$DIMDLE
 40
0.0
  9
$DIMEXE
 40
0.125
  9
$DIMTP
 40
0.01
  9
$DIMTM
 40
0.01
  9
$DIMTXT
 40
2.0
  9
$DIMCEN
 40
0.1052362205
  9
$DIMTSZ
 40
0.0
  9
$DIMTOL
 70
     1
  9
$DIMLIM
 70
     0
  9
$DIMTIH
 70
     1
  9
$DIMTOH
 70
     1
  9
$DIMSE1
 70
     0
  9
$DIMSE2
 70
     0
  9
$DIMTAD
 70
     0
  9
$DIMZIN
 70
     0
  9
$DIMBLK
  1

  9
$DIMASO
 70
     1
  9
$DIMSHO
 70
     1
  9
$DIMPOST
  1
\X
  9
$DIMAPOST
  1

  9
$DIMALT
 70
     1
  9
$DIMALTD
 70
     2
  9
$DIMALTF
 40
25.3999999999999986
  9
$DIMLFAC
 40
1.0
  9
$DIMTOFL
 70
     0
  9
$DIMTVP
 40
0.0
  9
$DIMTIX
 70
     0
  9
$DIMSOXD
 70
     0
  9
$DIMSAH
 70
     0
  9
$DIMBLK1
  1

  9
$DIMBLK2
  1

  9
$DIMSTYLE
  2
STANDARD
  9
$DIMCLRD
 70
     0
  9
$DIMCLRE
 70
     0
  9
$DIMCLRT
 70
     0
  9
$DIMTFAC
 40
1.0
  9
$DIMGAP
 40
0.09
  9
$LUNITS
 70
     2
  9
$LUPREC
 70
     4
  9
$SKETCHINC
 40
0.1
  9
$FILLETRAD
 40
0.0
  9
$AUNITS
 70
     0
  9
$AUPREC
 70
     0
  9
$MENU
  1
.
  9
$ELEVATION
 40
0.0
  9
$PELEVATION
 40
0.0
  9
$THICKNESS
 40
0.0
  9
$LIMCHECK
 70
     0
  9
$BLIPMODE
 70
     0
  9
$CHAMFERA
 40
0.0
  9
$CHAMFERB
 40
0.0
  9
$SKPOLY
 70
     0
  9
$TDCREATE
 40
2458060.468368056230247
  9
$TDUPDATE
 40
2460413.39172453712672
  9
$TDINDWG
 40
1.1556783564999999
  9
$TDUSRTIMER
 40
1.1556783564999999
  9
$USRTIMER
 70
     1
  9
$ANGBASE
 50
0.0
  9
$ANGDIR
 70
     0
  9
$PDMODE
 70
     0
  9
$PDSIZE
 40
0.3125
  9
$PLINEWID
 40
0.0
  9
$COORDS
 70
     1
  9
$SPLFRAME
 70
     0
  9
$SPLINETYPE
 70
     6
  9
$SPLINESEGS
 70
     8
  9
$ATTDIA
 70
     1
  9
$ATTREQ
 70
     1
  9
$HANDLING
 70
     1
  9
$HANDSEED
  5
311D0
  9
$SURFTAB1
 70
     6
  9
$SURFTAB2
 70
     6
  9
$SURFTYPE
 70
     6
  9
$SURFU
 70
     6
  9
$SURFV
 70
     6
  9
$UCSNAME
  2

  9
$UCSORG
 10
0.0
 20
0.0
 30
0.0
  9
$UCSXDIR
 10
1.0
 20
0.0
 30
0.0
  9
$UCSYDIR
 10
0.0
 20
1.0
 30
0.0
  9
$PUCSNAME
  2

  9
$PUCSORG
 10
0.0
 20
0.0
 30
0.0
  9
$PUCSXDIR
 10
1.0
 20
0.0
 30
0.0
  9
$PUCSYDIR
 10
0.0
 20
1.0
 30
0.0
  9
$USERI1
 70
     0
  9
$USERI2
 70
     0
  9
$USERI3
 70
     0
  9
$USERI4
 70
     0
  9
$USERI5
 70
     0
  9
$USERR1
 40
0.0
  9
$USERR2
 40
0.0
  9
$USERR3
 40
0.0
  9
$USERR4
 40
0.0
  9
$USERR5
 40
0.0
  9
$WORLDVIEW
 70
     1
  9
$SHADEDGE
 70
     3
  9
$SHADEDIF
 70
    70
  9
$TILEMODE
 70
     1
  9
$MAXACTVP
 70
    64
  9
$PLIMCHECK
 70
     0
  9
$PEXTMIN
 10
1.0000000000000000E+20
 20
1.0000000000000000E+20
 30
1.0000000000000000E+20
  9
$PEXTMAX
 10
-1.0000000000000000E+20
 20
-1.0000000000000000E+20
 30
-1.0000000000000000E+20
  9
$PLIMMIN
 10
0.0
 20
0.0
  9
$PLIMMAX
 10
12.0
 20
9.0
  9
$UNITMODE
 70
     0
  9
$VISRETAIN
 70
     1
  9
$PLINEGEN
 70
     0
  9
$PSLTSCALE
 70
     1
  0
ENDSEC
  0
SECTION
  2
TABLES
  0
TABLE
  2
VPORT
 70
     1
  0
VPORT
  2
*ACTIVE
 70
     0
 10
0.0
 20
0.0
 11
1.0
 21
1.0
 12
2751.8443639221459307
 22
160.3816940020766992
 13
0.0
 23
0.0
 14
1.0
 24
1.0
 15
0.0
 25
0.0
 16
0.0
 26
0.0
 36
60.4960186965801583
 17
3911.3653564453120453
 27
132.5796051025390057
 37
0.0
 40
13.5501970460511494
 41
2.8552036199095019
 42
50.0
 43
0.0
 44
0.0
 50
0.0
 51
0.0
 71
     0
 72
   100
 73
     1
 74
     1
 75
     0
 76
     0
 77
     0
 78
     0
  0
ENDTAB
  0
TABLE
  2
LTYPE
 70
     3
  0
LTYPE
  2
CONTINUOUS
 70
     0
  3
Solid line
 72
    65
 73
     0
 40
0.0
  0
LTYPE
  2
PHANTOM2
 70
     0
  3
___ _ _ ___ _ _ ___ _ _ ___ _ _
 72
    65
 73
     6
 40
1.25
 49
0.625
 49
-0.125
 49
0.125
 49
-0.125
 49
0.125
 49
-0.125
  0
ENDTAB
  0
TABLE
  2
LAYER
 70
     2
  0
LAYER
  2
0
 70
     0
 62
   255
  6
CONTINUOUS
  0
LAYER
  2
DEFPOINTS
 70
     0
 62
     7
  6
CONTINUOUS
  0
ENDTAB
  0
TABLE
  2
STYLE
 70
     1
  0
STYLE
  2
STANDARD
 70
     0
 40
0.0
 41
0.8
 50
0.0
 71
     0
 42
0.2
  3
txt
  4

  0
ENDTAB
  0
TABLE
  2
VIEW
 70
     0
  0
ENDTAB
  0
TABLE
  2
UCS
 70
     0
  0
ENDTAB
  0
TABLE
  2
APPID
 70
    11
  0
APPID
  2
ACAD
 70
     0
  0
APPID
  2
ACAD_MLEADERVER
 70
     0
  0
APPID
  2
ACAD_EXEMPT_FROM_CAD_STANDARDS
 70
     0
  0
APPID
  2
ACAD_NAV_VCDISPLAY
 70
     0
  0
APPID
  2
ACAECLAYERSTANDARD
 70
     0
  0
APPID
  2
ACCMTRANSPARENCY
 70
     0
  0
APPID
  2
ACAD_DSTYLE_DIMJAG
 70
     0
  0
APPID
  2
ACAD_DSTYLE_DIMTALN
 70
     0
  0
APPID
  2
ACDBATTR
 70
     0
  0
APPID
  2
ACADANNOTATIVE
 70
     0
  0
APPID
  2
DCO15
 70
     0
  0
ENDTAB
  0
TABLE
  2
DIMSTYLE
 70
     2
  0
DIMSTYLE
  2
STANDARD
 70
     0
  3

  4

  5

  6

  7

 40
1.0
 41
0.1875
 42
0.0625
 43
0.38
 44
0.125
 45
0.0
 46
0.0
 47
0.01
 48
0.01
140
0.15625
141
0.09
142
0.0
143
25.3999999999999986
144
1.0
145
0.0
146
1.0
147
0.09
 71
     1
 72
     0
 73
     1
 74
     1
 75
     0
 76
     0
 77
     0
 78
     4
170
     0
171
     2
172
     0
173
     0
174
     0
175
     0
176
     0
177
     0
178
     0
  0
ENDTAB
  0
ENDSEC
  0
SECTION
  2
BLOCKS
  0
BLOCK
  8
0
  2
$MODEL_SPACE
 70
     0
 10
0.0
 20
0.0
 30
0.0
  3
$MODEL_SPACE
  1

  0
ENDBLK
  5
21
  8
0
  0
BLOCK
 67
     1
  8
0
  2
$PAPER_SPACE
 70
     0
 10
0.0
 20
0.0
 30
0.0
  3
$PAPER_SPACE
  1

  0
ENDBLK
  5
1D
 67
     1
  8
0
  0
BLOCK
  8
0
  2
_FILLED
 70
     0
 10
0.0
 20
0.0
 30
0.0
  3
_FILLED
  1

  0
SOLID
  5
2EA64
  8
0
  6
BYBLOCK
 62
     0
 10
0.0
 20
0.0
 30
0.0
 11
-1.0
 21
0.1666666667
 31
0.0
 12
-1.0
 22
-0.1666666667
 32
0.0
 13
-1.0
 23
-0.1666666667
 33
0.0
  0
ENDBLK
  5
2EA65
  8
0
  6
BYBLOCK
 62
     0
  0
ENDSEC
  0
SECTION
  2
ENTITIES
  0
ATTDEF
  5
26A5B
  8
DEFPOINTS
 10
6663.2108476337061802
 20
286.2502064390102987
 30
0.0
 40
0.001
  1
K-33840T-4
  3

  2
MODELNUMBER
 70
     0
1001
ACDBATTR
1070
     0
1070
     1
  0
ATTDEF
  5
26A5C
  8
DEFPOINTS
 10
6663.2107218240489601
 20
286.2485395986312255
 30
0.0
 40
0.001
  1
FLUENCE
  3

  2
TRADENAME
 70
     0
1001
ACDBATTR
1070
     0
1070
     1
  0
ATTDEF
  5
26A5D
  8
DEFPOINTS
 10
6663.2108476337061802
 20
286.2468731056770253
 30
0.0
 40
0.001
  1
BATHROOM SINK FAUCET
  3

  2
PRODUCT
 70
     0
1001
ACDBATTR
1070
     0
1070
     1
  0
ARC
  5
30A73
  8
0
 10
6663.2714307613550773
 20
295.5417931318141882
 30
0.0
 40
2.0272341884211511
 50
91.74439215167925
 51
95.7730110390173479
  0
ARC
  5
30A74
  8
0
 10
6663.1702475869187765
 20
296.8003063077588877
 30
0.0
 40
0.7653652227949994
 50
97.7138383081508834
 51
103.8479698466333048
  0
ARC
  5
30A75
  8
0
 10
6663.0923426376375573
 20
297.1163360034680068
 30
0.0
 40
0.4398749008309595
 50
103.8479698466333048
 51
112.5760999183548989
  0
ARC
  5
30A76
  8
0
 10
6663.0029317947155505
 20
297.3313845549358234
 30
0.0
 40
0.2069796919483002
 50
112.5760999183548989
 51
125.0745235188446003
  0
ARC
  5
30A77
  8
0
 10
6662.9353034828236559
 20
297.4277009168980044
 30
0.0
 40
0.0892918414668551
 50
125.0745235188446003
 51
142.3152067759299086
  0
ARC
  5
30A78
  8
0
 10
6662.8999064904455736
 20
297.4550438180302194
 30
0.0
 40
0.0445639831260654
 50
142.3152067759299086
 51
177.364002527791996
  0
ARC
  5
30A79
  8
0
 10
6662.9449375610065545
 20
297.4620163583970225
 30
0.0
 40
0.0896831218962085
 50
183.1467445577848139
 51
235.2352145838162016
  0
ARC
  5
30A7A
  8
0
 10
6663.0487052226808373
 20
297.5964811027640167
 30
0.0
 40
0.2594567615308994
 50
233.3418865644389086
 51
257.452864161332684
  0
ARC
  5
30A7B
  8
0
 10
6663.1640971503366018
 20
297.9996695773040756
 30
0.0
 40
0.6785465997100771
 50
255.3374968096634063
 51
261.7702224456410818
  0
ARC
  5
30A7C
  8
0
 10
6663.2039049150116625
 20
298.2749029858970857
 30
0.0
 40
0.9566438620736057
 50
261.7702224456410818
 51
266.2912725686633735
  0
ARC
  5
30A7D
  8
0
 10
6664.1242544257111149
 20
326.9350382720097059
 30
0.0
 40
29.6310599813273114
 50
268.1003747874830196
 51
268.2313402063472836
  0
ARC
  5
30A7E
  8
0
 10
6663.232032765875374
 20
296.2375886638677116
 30
0.0
 40
1.386218543090886
 50
90.9222654492824773
 51
97.3939883221321736
  0
ARC
  5
30A7F
  8
0
 10
6663.1501091123882361
 20
296.9631022510097864
 30
0.0
 40
0.6563069711282044
 50
98.452567355284188
 51
107.6508629034296973
  0
ARC
  5
30A80
  8
0
 10
6663.0322242974443725
 20
297.3335808523850119
 30
0.0
 40
0.267525253873722
 50
107.6508629034296973
 51
123.8163123030663968
  0
ARC
  5
30A81
  8
0
 10
6662.9244767709205917
 20
297.4944331017852051
 30
0.0
 40
0.0739200483419148
 50
123.8163123030663968
 51
143.8724972595153133
  0
ARC
  5
30A82
  8
0
 10
6662.911214672875758
 20
297.5041137445339245
 30
0.0
 40
0.0575006059462297
 50
143.8724972595153133
 51
160.0080593399696909
  0
ARC
  5
30A83
  8
0
 10
6662.8878282250661869
 20
297.5126219902418256
 30
0.0
 40
0.0326145418510164
 50
160.0080593399696909
 51
180.0
  0
LINE
  5
30A84
  8
0
 10
6662.8552136832149699
 20
297.5126219902418256
 30
0.0
 11
6662.8553896617086139
 21
297.4570933426547867
 31
0.0
  0
ARC
  5
30A85
  8
0
 10
6663.243930323927998
 20
295.0936509104246284
 30
0.0
 40
2.5328963733466252
 50
90.773875213138723
 51
93.1099588152834059
  0
ARC
  5
30A86
  8
0
 10
6663.1939974469050867
 20
296.3396280288527009
 30
0.0
 40
1.2861676034159839
 50
93.900165017421287
 51
101.4709222691399049
  0
ARC
  5
30A87
  8
0
 10
6663.0723139734618599
 20
296.9392789645875723
 30
0.0
 40
0.6742949757905377
 50
101.4709222691399049
 51
109.4525840905366039
  0
ARC
  5
30A88
  8
0
 10
6662.9811495978437961
 20
297.197397879702919
 30
0.0
 40
0.4005499891301677
 50
109.4525840905366039
 51
120.4012927488884941
  0
ARC
  5
30A89
  8
0
 10
6662.84939882990966
 20
297.4219500185773768
 30
0.0
 40
0.1402003628105712
 50
120.4012927488884941
 51
140.2969162684981086
  0
ARC
  5
30A8A
  8
0
 10
6662.7880797050911497
 20
297.4728637120941244
 30
0.0
 40
0.0604994264548133
 50
140.2969162684981086
 51
181.4428717963718896
  0
ARC
  5
30A8B
  8
0
 10
6662.8033913860408575
 20
297.48430365698988
 30
0.0
 40
0.0768925474421546
 50
189.7058624728165057
 51
234.6385241750267028
  0
ARC
  5
30A8C
  8
0
 10
6662.9567151678866139
 20
297.6912798986342068
 30
0.0
 40
0.3344600134337566
 50
233.7384004961446919
 51
253.9295818499884945
  0
ARC
  5
30A8D
  8
0
 10
6663.1278730376843669
 20
298.2212959956606255
 30
0.0
 40
0.8913207040457963
 50
252.7884320308826887
 51
263.0981286739141183
  0
ARC
  5
30A8E
  8
0
 10
6662.9241213196955869
 20
297.4965686884657998
 30
0.0
 40
0.0997287812767319
 50
117.6129475635266033
 51
142.7080514822746125
  0
ARC
  5
30A8F
  8
0
 10
6662.8809195110570727
 20
297.5294700541414841
 30
0.0
 40
0.0454250416915252
 50
142.7080514822746125
 51
165.3465988442750927
  0
ARC
  5
30A90
  8
0
 10
6662.8737847382872133
 20
297.5313356259533748
 30
0.0
 40
0.038050399958686
 50
165.3465988442750927
 51
199.0432788957243133
  0
ARC
  5
30A91
  8
0
 10
6662.8887672990531428
 20
297.5365071976406171
 30
0.0
 40
0.0539003930454655
 50
199.0432788957243133
 51
231.5791472147537888
  0
ARC
  5
30A92
  8
0
 10
6662.8252376197388003
 20
297.5395942131075913
 30
0.0
 40
0.0695609141357355
 50
190.2562657222069049
 51
228.5197119029922987
  0
ARC
  5
30A93
  8
0
 10
6662.9193712198866706
 20
297.6460666817106926
 30
0.0
 40
0.211678897682025
 50
228.5197119029922987
 51
242.3917108344463998
  0
ARC
  5
30A94
  8
0
 10
6662.9722695155423935
 20
297.7472161443362211
 30
0.0
 40
0.3258254853340143
 50
242.3917108344463998
 51
249.3661513695479925
  0
ARC
  5
30A95
  8
0
 10
6662.8173352747153331
 20
297.5344057782277787
 30
0.0
 40
0.095351325373299
 50
205.4077771668756895
 51
230.7351802868932964
  0
ARC
  5
30A96
  8
0
 10
6662.8975800188845824
 20
297.632568608184215
 30
0.0
 40
0.222139180280781
 50
230.7351802868932964
 51
242.691033246628507
  0
ARC
  5
30A97
  8
0
 10
6662.9890764419496918
 20
297.8097716311144723
 30
0.0
 40
0.4215696362525371
 50
242.691033246628507
 51
254.5978929068255923
  0
LINE
  5
30A98
  8
0
 10
6663.1917196377362416
 20
297.5117366588152095
 30
0.0
 11
6663.1917196377362416
 21
297.4850506276112014
 31
0.0
  0
LINE
  5
30A99
  8
0
 10
6663.1917200258531011
 20
297.4707601819865204
 30
0.0
 11
6663.1917200258531011
 21
297.4478918050270977
 31
0.0
  0
LINE
  5
30A9A
  8
0
 10
6663.1917202803060718
 20
297.4359445435401881
 30
0.0
 11
6663.1917202803060718
 21
297.416509726743584
 31
0.0
  0
LINE
  5
30A9B
  8
0
 10
6663.1720345983358129
 20
297.5127164455711863
 30
0.0
 11
6663.1720345983358129
 21
297.4860014547352876
 31
0.0
  0
LINE
  5
30A9C
  8
0
 10
6663.172034986451763
 20
297.4716958024849873
 30
0.0
 11
6663.172034986451763
 21
297.448807558264491
 31
0.0
  0
LINE
  5
30A9D
  8
0
 10
6663.1720352409056431
 20
297.4368500333454222
 30
0.0
 11
6663.1720352409056431
 21
297.4174022166719737
 31
0.0
  0
LINE
  5
30A9E
  8
0
 10
6663.1638777937096165
 20
297.4042960002860241
 30
0.0
 11
6663.1638777937096165
 21
297.4221264212466735
 31
0.0
  0
LINE
  5
30A9F
  8
0
 10
6663.163877380521626
 20
297.4329956788538993
 30
0.0
 11
6663.163877380521626
 21
297.4541361220291265
 31
0.0
  0
LINE
  5
30AA0
  8
0
 10
6663.1638767399608696
 20
297.4672452893732952
 30
0.0
 11
6663.1638767399608696
 21
297.4920018714011007
 31
0.0
  0
LINE
  5
30AA1
  8
0
 10
6663.1638851908328434
 20
297.5084782426939114
 30
0.0
 11
6663.1638851908328434
 21
297.5205095668126205
 31
0.0
  0
LINE
  5
30AA2
  8
0
 10
6663.1441927543110069
 20
297.4060711436953852
 30
0.0
 11
6663.1441927543110069
 21
297.4239219293859833
 31
0.0
  0
LINE
  5
30AA3
  8
0
 10
6663.1441923411230164
 20
297.4348078064517154
 30
0.0
 11
6663.1441923411230164
 21
297.4559810656693912
 31
0.0
  0
LINE
  5
30AA4
  8
0
 10
6663.1441917005604409
 20
297.4691156450571157
 30
0.0
 11
6663.1441917005604409
 21
297.4939208963755277
 31
0.0
  0
LINE
  5
30AA5
  8
0
 10
6663.1442001514333242
 20
297.5104343373963047
 30
0.0
 11
6663.1442001514333242
 21
297.5194043473309193
 31
0.0
  0
LINE
  5
30AA6
  8
0
 10
6663.136034819647648
 20
297.4207320094441229
 30
0.0
 11
6663.136034819647648
 21
297.4402279260211799
 31
0.0
  0
LINE
  5
30AA7
  8
0
 10
6663.136034022199965
 20
297.4522251701213236
 30
0.0
 11
6663.136034022199965
 21
297.4751869764945127
 31
0.0
  0
LINE
  5
30AA8
  8
0
 10
6663.1360336047282544
 20
297.4903702769302072
 30
0.0
 11
6663.1360336047282544
 21
297.5171926130597058
 31
0.0
  0
LINE
  5
30AA9
  8
0
 10
6663.1163497802472193
 20
297.423434768935806
 30
0.0
 11
6663.1163497802472193
 21
297.4429708176049871
 31
0.0
  0
LINE
  5
30AAA
  8
0
 10
6663.1163489828004458
 20
297.4549997698309767
 30
0.0
 11
6663.1163489828004458
 21
297.4780230162529051
 31
0.0
  0
LINE
  5
30AAB
  8
0
 10
6663.1163485653278258
 20
297.4932533982042742
 30
0.0
 11
6663.1163485653278258
 21
297.5171138148111254
 31
0.0
  0
LINE
  5
30AAC
  8
0
 10
6663.108189972666878
 20
297.4993071527035227
 30
0.0
 11
6663.108189972666878
 21
297.4743655829360023
 31
0.0
  0
LINE
  5
30AAD
  8
0
 10
6663.1081913448133491
 20
297.4611566704051029
 30
0.0
 11
6663.1081913448133491
 21
297.4398916304576801
 31
0.0
  0
LINE
  5
30AAE
  8
0
 10
6663.1081922264111199
 20
297.4289571460085995
 30
0.0
 11
6663.1081922264111199
 21
297.4110494561433029
 31
0.0
  0
LINE
  5
30AAF
  8
0
 10
6663.0885063055138744
 20
297.4435692236298223
 30
0.0
 11
6663.0885063055138744
 21
297.4649028920088085
 31
0.0
  0
LINE
  5
30AB0
  8
0
 10
6663.0885049333674033
 20
297.4781650269137003
 30
0.0
 11
6663.0885049333674033
 21
297.5032087207073914
 31
0.0
  0
LINE
  5
30AB1
  8
0
 10
6663.0803485845535761
 20
297.4301901977007105
 30
0.0
 11
6663.0803485845535761
 21
297.44982672755458
 31
0.0
  0
LINE
  5
30AB2
  8
0
 10
6663.0803471302751859
 20
297.4619387480565251
 30
0.0
 11
6663.0803471302751859
 21
297.485116081290812
 31
0.0
  0
LINE
  5
30AB3
  8
0
 10
6663.0803463620650291
 20
297.5004664845449156
 30
0.0
 11
6663.0803463620650291
 21
297.5128395608048208
 31
0.0
  0
LINE
  5
30AB4
  8
0
 10
6663.060661322663691
 20
297.5098302147973754
 30
0.0
 11
6663.060661322663691
 21
297.5053789633154793
 31
0.0
  0
LINE
  5
30AB5
  8
0
 10
6663.0606620908756668
 20
297.4899448078937212
 30
0.0
 11
6663.0606620908756668
 21
297.4666584532873799
 31
0.0
  0
LINE
  5
30AB6
  8
0
 10
6663.0606635451522379
 20
297.454490287853389
 30
0.0
 11
6663.0606635451522379
 21
297.4347828097533011
 31
0.0
  0
LINE
  5
30AB7
  8
0
 10
6663.0525754653690456
 20
297.5084160435545186
 30
0.0
 11
6663.0525754653690456
 21
297.4879151823894858
 31
0.0
  0
LINE
  5
30AB8
  8
0
 10
6663.052504140910969
 20
297.4737083451603894
 30
0.0
 11
6663.052504140910969
 21
297.4522121333541804
 31
0.0
  0
LINE
  5
30AB9
  8
0
 10
6663.0525056189208044
 20
297.4411569986536961
 30
0.0
 11
6663.0525056189208044
 21
297.4231063281599745
 31
0.0
  0
LINE
  5
30ABA
  8
0
 10
6663.0247186200358556
 20
297.5017118352271268
 30
0.0
 11
6663.0247186200358556
 21
297.4781750018054822
 31
0.0
  0
LINE
  5
30ABB
  8
0
 10
6663.0246608692887094
 20
297.4650400640417729
 30
0.0
 11
6663.0246608692887094
 21
297.4451700409878185
 31
0.0
  0
LINE
  5
30ABC
  8
0
 10
6663.0050335806363364
 20
297.4979032717221799
 30
0.0
 11
6663.0050335806363364
 21
297.4849993345176813
 31
0.0
  0
LINE
  5
30ABD
  8
0
 10
6663.0049758298891902
 20
297.4717779020693911
 30
0.0
 11
6663.0049758298891902
 21
297.4517988694581163
 31
0.0
  0
LINE
  5
30ABE
  8
0
 10
6662.9968520928086946
 20
297.4931308116808282
 30
0.0
 11
6662.9968520928086946
 21
297.4712728793546148
 31
0.0
  0
LINE
  5
30ABF
  8
0
 10
6662.99681716228406
 20
297.4591120648819924
 30
0.0
 11
6662.99681716228406
 21
297.4408386809392937
 31
0.0
  0
LINE
  5
30AC0
  8
0
 10
6662.9771670535083103
 20
297.4894233921705791
 30
0.0
 11
6662.9771670535083103
 21
297.4791073381333035
 31
0.0
  0
LINE
  5
30AC1
  8
0
 10
6662.9771321229836758
 20
297.4668627733706785
 30
0.0
 11
6662.9771321229836758
 21
297.4484872877833936
 31
0.0
  0
LINE
  5
30AC2
  8
0
 10
6663.1720345983740117
 20
297.4860014546828779
 30
0.0
 11
6663.1621920787119961
 21
297.4997855612992907
 31
0.0
  0
LINE
  5
30AC3
  8
0
 10
6663.1621920787119961
 20
297.4997855612992907
 30
0.0
 11
6663.172034598402206
 21
297.5127164455678894
 31
0.0
  0
LINE
  5
30AC4
  8
0
 10
6663.172034598402206
 20
297.5127164455678894
 30
0.0
 11
6663.1917196377080472
 21
297.5117366588165737
 31
0.0
  0
LINE
  5
30AC5
  8
0
 10
6663.1917196377080472
 20
297.5117366588165737
 30
0.0
 11
6663.2015621574319084
 21
297.4978555963293729
 31
0.0
  0
LINE
  5
30AC6
  8
0
 10
6663.2015621574319084
 20
297.4978555963293729
 30
0.0
 11
6663.1917196377808068
 21
297.4850506276703186
 31
0.0
  0
LINE
  5
30AC7
  8
0
 10
6663.1917196377808068
 20
297.4850506276703186
 30
0.0
 11
6663.1720345983358129
 21
297.4860014547352876
 31
0.0
  0
LINE
  5
30AC8
  8
0
 10
6663.1621924668270367
 20
297.4606848736137863
 30
0.0
 11
6663.1720349864872333
 21
297.4716958025246072
 31
0.0
  0
LINE
  5
30AC9
  8
0
 10
6663.1720349864872333
 20
297.4716958025246072
 30
0.0
 11
6663.1917200258531011
 21
297.4707601819865204
 31
0.0
  0
LINE
  5
30ACA
  8
0
 10
6663.1917200258531011
 20
297.4707601819865204
 30
0.0
 11
6663.2015625454905603
 21
297.4588338174993964
 31
0.0
  0
LINE
  5
30ACB
  8
0
 10
6663.2015625454905603
 20
297.4588338174993964
 30
0.0
 11
6663.1917200258531011
 21
297.4478918050270977
 31
0.0
  0
LINE
  5
30ACC
  8
0
 10
6663.1917200258531011
 20
297.4478918050270977
 30
0.0
 11
6663.1720349865718163
 21
297.4488075582589204
 31
0.0
  0
LINE
  5
30ACD
  8
0
 10
6663.1720349865718163
 20
297.4488075582589204
 30
0.0
 11
6663.1621924668270367
 21
297.4606848736137863
 31
0.0
  0
LINE
  5
30ACE
  8
0
 10
6663.1621927212581795
 20
297.4275620413122283
 30
0.0
 11
6663.1720352409056431
 21
297.4368500333454222
 31
0.0
  0
LINE
  5
30ACF
  8
0
 10
6663.1720352409056431
 20
297.4368500333454222
 30
0.0
 11
6663.1917202802796965
 21
297.4359445435414955
 31
0.0
  0
LINE
  5
30AD0
  8
0
 10
6663.1917202802796965
 20
297.4359445435414955
 30
0.0
 11
6663.2015628000290235
 21
297.4257642007561913
 31
0.0
  0
LINE
  5
30AD1
  8
0
 10
6663.2015628000290235
 20
297.4257642007561913
 30
0.0
 11
6663.1917202803060718
 21
297.416509726743584
 31
0.0
  0
LINE
  5
30AD2
  8
0
 10
6663.1917202803060718
 20
297.416509726743584
 30
0.0
 11
6663.1720352410384294
 21
297.4174022166661189
 31
0.0
  0
LINE
  5
30AD3
  8
0
 10
6663.1720352410384294
 20
297.4174022166661189
 30
0.0
 11
6663.1621927213318486
 21
297.4275620412166745
 31
0.0
  0
LINE
  5
30AD4
  8
0
 10
6663.138640259220665
 20
297.5190174698909118
 30
0.0
 11
6663.1442001514333242
 21
297.5104343373963047
 31
0.0
  0
LINE
  5
30AD5
  8
0
 10
6663.1442001514333242
 20
297.5104343373963047
 30
0.0
 11
6663.1638851907091521
 21
297.5084782427061896
 31
0.0
  0
LINE
  5
30AD6
  8
0
 10
6663.1638851907091521
 20
297.5084782427061896
 30
0.0
 11
6663.1730705739719269
 21
297.5208907391710227
 31
0.0
  0
LINE
  5
30AD7
  8
0
 10
6663.1343491809366242
 20
297.4824256492207724
 30
0.0
 11
6663.1441917006750373
 21
297.4939208963642727
 31
0.0
  0
LINE
  5
30AD8
  8
0
 10
6663.1441917006750373
 20
297.4939208963642727
 30
0.0
 11
6663.1638767399608696
 21
297.4920018714011007
 31
0.0
  0
LINE
  5
30AD9
  8
0
 10
6663.1638767399608696
 20
297.4920018714011007
 30
0.0
 11
6663.1737192595783199
 21
297.4786371867601815
 31
0.0
  0
LINE
  5
30ADA
  8
0
 10
6663.1737192595783199
 20
297.4786371867601815
 30
0.0
 11
6663.1638767399663266
 21
297.4672452893801164
 31
0.0
  0
LINE
  5
30ADB
  8
0
 10
6663.1638767399663266
 20
297.4672452893801164
 30
0.0
 11
6663.1441917005604409
 21
297.4691156450571157
 31
0.0
  0
LINE
  5
30ADC
  8
0
 10
6663.1441917005604409
 20
297.4691156450571157
 30
0.0
 11
6663.1343491809129773
 21
297.4824256491929191
 31
0.0
  0
LINE
  5
30ADD
  8
0
 10
6663.1343498214464489
 20
297.4462895463594236
 30
0.0
 11
6663.1441923409929586
 21
297.4559810655428009
 31
0.0
  0
LINE
  5
30ADE
  8
0
 10
6663.1441923409929586
 20
297.4559810655428009
 30
0.0
 11
6663.163877380521626
 21
297.4541361220291265
 31
0.0
  0
LINE
  5
30ADF
  8
0
 10
6663.163877380521626
 20
297.4541361220291265
 30
0.0
 11
6663.1737199001800036
 21
297.4426329004223817
 31
0.0
  0
LINE
  5
30AE0
  8
0
 10
6663.1737199001800036
 20
297.4426329004223817
 30
0.0
 11
6663.163877380521626
 21
297.4329956788538993
 31
0.0
  0
LINE
  5
30AE1
  8
0
 10
6663.163877380521626
 20
297.4329956788538993
 30
0.0
 11
6663.1441923410066011
 21
297.4348078065851837
 31
0.0
  0
LINE
  5
30AE2
  8
0
 10
6663.1441923410066011
 20
297.4348078065851837
 30
0.0
 11
6663.1343498214464489
 21
297.4462895463594236
 31
0.0
  0
LINE
  5
30AE3
  8
0
 10
6663.1343502345816887
 20
297.415882506113519
 30
0.0
 11
6663.1441927543110069
 21
297.4239219293859833
 31
0.0
  0
LINE
  5
30AE4
  8
0
 10
6663.1441927543110069
 20
297.4239219293859833
 30
0.0
 11
6663.1638777937096165
 21
297.4221264212466735
 31
0.0
  0
LINE
  5
30AE5
  8
0
 10
6663.1638777937096165
 20
297.4221264212466735
 30
0.0
 11
6663.1737203133679941
 21
297.4123120142186281
 31
0.0
  0
LINE
  5
30AE6
  8
0
 10
6663.1737203133679941
 20
297.4123120142186281
 30
0.0
 11
6663.1638777937096165
 21
297.4042960002860241
 31
0.0
  0
LINE
  5
30AE7
  8
0
 10
6663.1638777937096165
 20
297.4042960002860241
 30
0.0
 11
6663.1441927543301063
 21
297.4060711436936231
 31
0.0
  0
LINE
  5
30AE8
  8
0
 10
6663.1441927543301063
 20
297.4060711436936231
 30
0.0
 11
6663.1343502345562229
 21
297.4158825060936238
 31
0.0
  0
LINE
  5
30AE9
  8
0
 10
6663.1136763740587412
 20
297.5168476294090283
 30
0.0
 11
6663.1065060456148785
 21
297.5081206473356019
 31
0.0
  0
LINE
  5
30AEA
  8
0
 10
6663.1065060456148785
 20
297.5081206473356019
 30
0.0
 11
6663.1163485653396492
 21
297.493253398202512
 31
0.0
  0
LINE
  5
30AEB
  8
0
 10
6663.1163485653396492
 20
297.493253398202512
 30
0.0
 11
6663.136033604709155
 21
297.4903702769328788
 31
0.0
  0
LINE
  5
30AEC
  8
0
 10
6663.136033604709155
 20
297.4903702769328788
 30
0.0
 11
6663.1458761244193738
 21
297.5022665942344133
 31
0.0
  0
LINE
  5
30AED
  8
0
 10
6663.1458761244193738
 20
297.5022665942344133
 30
0.0
 11
6663.1360336047282544
 21
297.5171926130597058
 31
0.0
  0
LINE
  5
30AEE
  8
0
 10
6663.1360336047282544
 20
297.5171926130597058
 30
0.0
 11
6663.1286886307034365
 21
297.5182374505736789
 31
0.0
  0
LINE
  5
30AEF
  8
0
 10
6663.1065064631948189
 20
297.4678882436988943
 30
0.0
 11
6663.1163489828004458
 21
297.4780230162529051
 31
0.0
  0
LINE
  5
30AF0
  8
0
 10
6663.1163489828004458
 20
297.4780230162529051
 30
0.0
 11
6663.1360340221663137
 21
297.4751869764992875
 31
0.0
  0
LINE
  5
30AF1
  8
0
 10
6663.1360340221663137
 20
297.4751869764992875
 30
0.0
 11
6663.1458765418801704
 21
297.4622785515605869
 31
0.0
  0
LINE
  5
30AF2
  8
0
 10
6663.1458765418801704
 20
297.4622785515605869
 30
0.0
 11
6663.1360340222236118
 21
297.4522251701459936
 31
0.0
  0
LINE
  5
30AF3
  8
0
 10
6663.1360340222236118
 20
297.4522251701459936
 30
0.0
 11
6663.1163489828113597
 21
297.4549997698294987
 31
0.0
  0
LINE
  5
30AF4
  8
0
 10
6663.1163489828113597
 20
297.4549997698294987
 30
0.0
 11
6663.1065064631302448
 21
297.467888243682296
 31
0.0
  0
LINE
  5
30AF5
  8
0
 10
6663.1065072605970272
 20
297.4345547426295866
 30
0.0
 11
6663.1163497802472193
 21
297.4429708176049871
 31
0.0
  0
LINE
  5
30AF6
  8
0
 10
6663.1163497802472193
 20
297.4429708176049871
 30
0.0
 11
6663.136034819647648
 21
297.4402279260211799
 31
0.0
  0
LINE
  5
30AF7
  8
0
 10
6663.136034819647648
 20
297.4402279260211799
 30
0.0
 11
6663.1458710737651927
 21
297.4291039415837758
 31
0.0
  0
LINE
  5
30AF8
  8
0
 10
6663.1458710737651927
 20
297.4291039415837758
 30
0.0
 11
6663.1360348196258201
 21
297.4207320094469083
 31
0.0
  0
LINE
  5
30AF9
  8
0
 10
6663.1360348196258201
 20
297.4207320094469083
 30
0.0
 11
6663.1163497802472193
 21
297.423434768935806
 31
0.0
  0
LINE
  5
30AFA
  8
0
 10
6663.1163497802472193
 20
297.423434768935806
 30
0.0
 11
6663.1065072605852038
 21
297.4345547426077019
 31
0.0
  0
LINE
  5
30AFB
  8
0
 10
6663.0786646673977884
 20
297.425435619347013
 30
0.0
 11
6663.0885071870143292
 21
297.4326000243901262
 31
0.0
  0
LINE
  5
30AFC
  8
0
 10
6663.0885071870143292
 20
297.4326000243901262
 30
0.0
 11
6663.1081922264111199
 21
297.4289571460085995
 31
0.0
  0
LINE
  5
30AFD
  8
0
 10
6663.1081922264111199
 20
297.4289571460085995
 30
0.0
 11
6663.1180347461076963
 21
297.418192610737492
 31
0.0
  0
LINE
  5
30AFE
  8
0
 10
6663.1180347461076963
 20
297.418192610737492
 30
0.0
 11
6663.1081922264111199
 21
297.4110494561433029
 31
0.0
  0
LINE
  5
30AFF
  8
0
 10
6663.1081922264111199
 20
297.4110494561433029
 30
0.0
 11
6663.0885071871107357
 21
297.4146498357129076
 31
0.0
  0
LINE
  5
30B00
  8
0
 10
6663.0885071871107357
 20
297.4146498357129076
 30
0.0
 11
6663.0786646673659561
 21
297.4254356193238209
 31
0.0
  0
LINE
  5
30B01
  8
0
 10
6663.0786637857290771
 20
297.4560792234311748
 30
0.0
 11
6663.0885063055138744
 21
297.4649028920088085
 31
0.0
  0
LINE
  5
30B02
  8
0
 10
6663.0885063055138744
 20
297.4649028920088085
 30
0.0
 11
6663.1081913448788328
 21
297.4611566703205767
 31
0.0
  0
LINE
  5
30B03
  8
0
 10
6663.1081913448788328
 20
297.4611566703205767
 30
0.0
 11
6663.1180338645554002
 21
297.4486562193220038
 31
0.0
  0
LINE
  5
30B04
  8
0
 10
6663.1180338645554002
 20
297.4486562193220038
 30
0.0
 11
6663.1081913449570493
 21
297.439891630585123
 31
0.0
  0
LINE
  5
30B05
  8
0
 10
6663.1081913449570493
 20
297.439891630585123
 30
0.0
 11
6663.0885063055138744
 21
297.4435692236298223
 31
0.0
  0
LINE
  5
30B06
  8
0
 10
6663.0885063055138744
 20
297.4435692236298223
 30
0.0
 11
6663.0786637857527239
 21
297.4560792234003088
 31
0.0
  0
LINE
  5
30B07
  8
0
 10
6663.0786624136471801
 20
297.4925780323040954
 30
0.0
 11
6663.0885049333292045
 21
297.5032087206669758
 31
0.0
  0
LINE
  5
30B08
  8
0
 10
6663.0885049333292045
 20
297.5032087206669758
 30
0.0
 11
6663.108189972666878
 21
297.4993071527035227
 31
0.0
  0
LINE
  5
30B09
  8
0
 10
6663.108189972666878
 20
297.4993071527035227
 30
0.0
 11
6663.1180324923952867
 21
297.4848788823338168
 31
0.0
  0
LINE
  5
30B0A
  8
0
 10
6663.1180324923952867
 20
297.4848788823338168
 30
0.0
 11
6663.108189972666878
 21
297.4743655829360023
 31
0.0
  0
LINE
  5
30B0B
  8
0
 10
6663.108189972666878
 20
297.4743655829360023
 30
0.0
 11
6663.0885049333828647
 21
297.4781650269108013
 31
0.0
  0
LINE
  5
30B0C
  8
0
 10
6663.0885049333828647
 20
297.4781650269108013
 30
0.0
 11
6663.0786624136471801
 21
297.4925780323040954
 31
0.0
  0
LINE
  5
30B0D
  8
0
 10
6663.0581495127416929
 20
297.5094023224573903
 30
0.0
 11
6663.060661322663691
 21
297.5053789633154793
 31
0.0
  0
LINE
  5
30B0E
  8
0
 10
6663.060661322663691
 20
297.5053789633154793
 30
0.0
 11
6663.0803463621141418
 21
297.5004664846001106
 31
0.0
  0
LINE
  5
30B0F
  8
0
 10
6663.0803463621141418
 20
297.5004664846001106
 30
0.0
 11
6663.0901888817215877
 21
297.5114976953611858
 31
0.0
  0
LINE
  5
30B10
  8
0
 10
6663.0901888817215877
 20
297.5114976953611858
 30
0.0
 11
6663.0886507642953802
 21
297.5139577866552258
 31
0.0
  0
LINE
  5
30B11
  8
0
 10
6663.050819571248212
 20
297.4806717759967114
 30
0.0
 11
6663.0606620908756668
 21
297.4899448078937212
 31
0.0
  0
LINE
  5
30B12
  8
0
 10
6663.0606620908756668
 20
297.4899448078937212
 30
0.0
 11
6663.0803471302751859
 21
297.485116081290812
 31
0.0
  0
LINE
  5
30B13
  8
0
 10
6663.0803471302751859
 20
297.485116081290812
 30
0.0
 11
6663.0901896499999566
 21
297.4711248936168886
 31
0.0
  0
LINE
  5
30B14
  8
0
 10
6663.0901896499999566
 20
297.4711248936168886
 30
0.0
 11
6663.0803471302178878
 21
297.4619387480703949
 31
0.0
  0
LINE
  5
30B15
  8
0
 10
6663.0803471302178878
 20
297.4619387480703949
 30
0.0
 11
6663.0606620909002231
 21
297.4666584532812976
 31
0.0
  0
LINE
  5
30B16
  8
0
 10
6663.0606620909002231
 20
297.4666584532812976
 30
0.0
 11
6663.050819571248212
 21
297.4806717759967114
 31
0.0
  0
LINE
  5
30B17
  8
0
 10
6663.0508210254847654
 20
297.4469503183976258
 30
0.0
 11
6663.0606635451877082
 21
297.4544902878450898
 31
0.0
  0
LINE
  5
30B18
  8
0
 10
6663.0606635451877082
 20
297.4544902878450898
 30
0.0
 11
6663.0803485845208343
 21
297.4498267275624244
 31
0.0
  0
LINE
  5
30B19
  8
0
 10
6663.0803485845208343
 20
297.4498267275624244
 30
0.0
 11
6663.0900697493671032
 21
297.4375981673882734
 31
0.0
  0
LINE
  5
30B1A
  8
0
 10
6663.0900697493671032
 20
297.4375981673882734
 30
0.0
 11
6663.0803485846181502
 21
297.4301901977501075
 31
0.0
  0
LINE
  5
30B1B
  8
0
 10
6663.0803485846181502
 20
297.4301901977501075
 30
0.0
 11
6663.0606635451522379
 21
297.4347828097533011
 31
0.0
  0
LINE
  5
30B1C
  8
0
 10
6663.0606635451522379
 20
297.4347828097533011
 30
0.0
 11
6663.0508210254847654
 21
297.4469503183976258
 31
0.0
  0
LINE
  5
30B1D
  8
0
 10
6663.0328904260677518
 20
297.5045244670877196
 30
0.0
 11
6663.0328904260677518
 21
297.4937708812150277
 31
0.0
  0
LINE
  5
30B1E
  8
0
 10
6663.0328191016124038
 20
297.4794775492077861
 30
0.0
 11
6663.0328191016124038
 21
297.4578700983810222
 31
0.0
  0
LINE
  5
30B1F
  8
0
 10
6663.0328205796222392
 20
297.4467588188172158
 30
0.0
 11
6663.0328205796222392
 21
297.4286395252187845
 31
0.0
  0
LINE
  5
30B20
  8
0
 10
6663.0229780599047444
 20
297.4404952274626908
 30
0.0
 11
6663.0328205795822214
 21
297.4467588187918068
 31
0.0
  0
LINE
  5
30B21
  8
0
 10
6663.0328205795822214
 20
297.4467588187918068
 30
0.0
 11
6663.0525056189208044
 21
297.4411569986536961
 31
0.0
  0
LINE
  5
30B22
  8
0
 10
6663.0525056189208044
 20
297.4411569986536961
 30
0.0
 11
6663.0623481386892308
 21
297.4293603687775089
 31
0.0
  0
LINE
  5
30B23
  8
0
 10
6663.0623481386892308
 20
297.4293603687775089
 30
0.0
 11
6663.0525056189208044
 21
297.4231063281599745
 31
0.0
  0
LINE
  5
30B24
  8
0
 10
6663.0525056189208044
 20
297.4231063281599745
 30
0.0
 11
6663.0328205795549366
 21
297.4286395252373723
 31
0.0
  0
LINE
  5
30B25
  8
0
 10
6663.0328205795549366
 20
297.4286395252373723
 30
0.0
 11
6663.0229780599047444
 21
297.4404952274626908
 31
0.0
  0
LINE
  5
30B26
  8
0
 10
6663.0229765818403393
 20
297.4715300707551933
 30
0.0
 11
6663.0328191015505581
 21
297.4794775491583891
 31
0.0
  0
LINE
  5
30B27
  8
0
 10
6663.0328191015505581
 20
297.4794775491583891
 30
0.0
 11
6663.052504140910969
 21
297.4737083451603894
 31
0.0
  0
LINE
  5
30B28
  8
0
 10
6663.052504140910969
 20
297.4737083451603894
 30
0.0
 11
6663.0623466606994043
 21
297.4601039846606909
 31
0.0
  0
LINE
  5
30B29
  8
0
 10
6663.0623466606994043
 20
297.4601039846606909
 30
0.0
 11
6663.0525041409437108
 21
297.4522121333798736
 31
0.0
  0
LINE
  5
30B2A
  8
0
 10
6663.0525041409437108
 20
297.4522121333798736
 30
0.0
 11
6663.032819101572386
 21
297.4578700984367856
 31
0.0
  0
LINE
  5
30B2B
  8
0
 10
6663.032819101572386
 20
297.4578700984367856
 30
0.0
 11
6663.0229765818849046
 21
297.4715300706897096
 31
0.0
  0
LINE
  5
30B2C
  8
0
 10
6663.0268930131078378
 20
297.5032110389594777
 30
0.0
 11
6663.032890426117774
 21
297.4937708812004757
 31
0.0
  0
LINE
  5
30B2D
  8
0
 10
6663.032890426117774
 20
297.4937708812004757
 30
0.0
 11
6663.0525754653690456
 21
297.4879151823894858
 31
0.0
  0
LINE
  5
30B2E
  8
0
 10
6663.0525754653690456
 20
297.4879151823894858
 30
0.0
 11
6663.0624179851083682
 21
297.4975692002485061
 31
0.0
  0
LINE
  5
30B2F
  8
0
 10
6663.0624179851083682
 20
297.4975692002485061
 30
0.0
 11
6663.0552377760213858
 21
297.508893442558815
 31
0.0
  0
LINE
  5
30B30
  8
0
 10
6662.9979281453788644
 20
297.4959506336260233
 30
0.0
 11
6663.0050335806363364
 21
297.4849993345176813
 31
0.0
  0
LINE
  5
30B31
  8
0
 10
6663.0050335806363364
 20
297.4849993345176813
 30
0.0
 11
6663.0247186200358556
 21
297.4781750018054822
 31
0.0
  0
LINE
  5
30B32
  8
0
 10
6663.0247186200358556
 20
297.4781750018054822
 30
0.0
 11
6663.034561139714242
 21
297.4864901349686193
 31
0.0
  0
LINE
  5
30B33
  8
0
 10
6663.034561139714242
 20
297.4864901349686193
 30
0.0
 11
6663.0247186200731448
 21
297.5017118351694876
 31
0.0
  0
LINE
  5
30B34
  8
0
 10
6663.0247186200731448
 20
297.5017118351694876
 30
0.0
 11
6663.0229440369903386
 21
297.5023133021746844
 31
0.0
  0
LINE
  5
30B35
  8
0
 10
6662.9951333102317221
 20
297.4651460026789209
 30
0.0
 11
6663.0049758298891902
 21
297.4717779020693911
 31
0.0
  0
LINE
  5
30B36
  8
0
 10
6663.0049758298891902
 20
297.4717779020693911
 30
0.0
 11
6663.0246608692887094
 21
297.4650400640417729
 31
0.0
  0
LINE
  5
30B37
  8
0
 10
6663.0246608692887094
 20
297.4650400640417729
 30
0.0
 11
6663.0345033890625928
 21
297.4517797983559717
 31
0.0
  0
LINE
  5
30B38
  8
0
 10
6663.0345033890625928
 20
297.4517797983559717
 30
0.0
 11
6663.0246608693169037
 21
297.4451700409784962
 31
0.0
  0
LINE
  5
30B39
  8
0
 10
6663.0246608693169037
 20
297.4451700409784962
 30
0.0
 11
6663.0049758298891902
 21
297.4517988694581163
 31
0.0
  0
LINE
  5
30B3A
  8
0
 10
6663.0049758298891902
 20
297.4517988694581163
 30
0.0
 11
6662.9951333102317221
 21
297.4651460026789209
 31
0.0
  0
LINE
  5
30B3B
  8
0
 10
6662.967289603271638
 20
297.4615581893531839
 30
0.0
 11
6662.9771321229836758
 21
297.4668627733706785
 31
0.0
  0
LINE
  5
30B3C
  8
0
 10
6662.9771321229836758
 20
297.4668627733706785
 30
0.0
 11
6662.99681716228406
 21
297.4591120648819924
 31
0.0
  0
LINE
  5
30B3D
  8
0
 10
6662.99681716228406
 20
297.4591120648819924
 30
0.0
 11
6663.006659681954261
 21
297.4461585354197268
 31
0.0
  0
LINE
  5
30B3E
  8
0
 10
6663.006659681954261
 20
297.4461585354197268
 30
0.0
 11
6662.9968171623186208
 21
297.4408386809582225
 31
0.0
  0
LINE
  5
30B3F
  8
0
 10
6662.9968171623186208
 20
297.4408386809582225
 30
0.0
 11
6662.9771321229836758
 21
297.4484872877833936
 31
0.0
  0
LINE
  5
30B40
  8
0
 10
6662.9771321229836758
 20
297.4484872877833936
 30
0.0
 11
6662.9672896032134304
 21
297.4615581894345837
 31
0.0
  0
LINE
  5
30B41
  8
0
 10
6662.9716122634608837
 20
297.4874635275809851
 30
0.0
 11
6662.9771670535083103
 21
297.4791073381333035
 31
0.0
  0
LINE
  5
30B42
  8
0
 10
6662.9771670535083103
 20
297.4791073381333035
 30
0.0
 11
6662.9968520927986901
 21
297.4712728793475094
 31
0.0
  0
LINE
  5
30B43
  8
0
 10
6662.9968520927986901
 20
297.4712728793475094
 30
0.0
 11
6663.0066946125043614
 21
297.4782645459275159
 31
0.0
  0
LINE
  5
30B44
  8
0
 10
6663.0066946125043614
 20
297.4782645459275159
 30
0.0
 11
6662.9968520929078295
 21
297.4931308115316142
 31
0.0
  0
LINE
  5
30B45
  8
0
 10
6662.9968520929078295
 20
297.4931308115316142
 30
0.0
 11
6662.9931807755137925
 21
297.4945670688193786
 31
0.0
  0
LINE
  5
30B46
  8
0
 10
6662.9480871593732445
 20
297.4778151271352726
 30
0.0
 11
6662.9493282037374229
 21
297.4760033737516096
 31
0.0
  0
LINE
  5
30B47
  8
0
 10
6662.9493282037374229
 20
297.4760033737516096
 30
0.0
 11
6662.9690132431360325
 21
297.4670989188321073
 31
0.0
  0
LINE
  5
30B48
  8
0
 10
6662.9690132431360325
 20
297.4670989188321073
 30
0.0
 11
6662.978855762805324
 21
297.4727605122786258
 31
0.0
  0
LINE
  5
30B49
  8
0
 10
6662.978855762805324
 20
297.4727605122786258
 30
0.0
 11
6662.9694493367369432
 21
297.4866753923286069
 31
0.0
  0
LINE
  5
30B4A
  8
0
 10
6662.9493282037374229
 20
297.4760033737516096
 30
0.0
 11
6662.9493282037374229
 21
297.4783974364540882
 31
0.0
  0
LINE
  5
30B4B
  8
0
 10
6662.9690132431524034
 20
297.4865147760202149
 30
0.0
 11
6662.9690132431360325
 21
297.4670989188321073
 31
0.0
  0
LINE
  5
30B4C
  8
0
 10
6663.1998778506076633
 20
297.5066778499544853
 30
0.0
 11
6663.2195628843073791
 21
297.5066778499544853
 31
0.0
  0
LINE
  5
30B4D
  8
0
 10
6663.1998778507249881
 20
297.4906456510180988
 30
0.0
 11
6663.2195628841909638
 21
297.4906456510180988
 31
0.0
  0
LINE
  5
30B4E
  8
0
 10
6663.1998778507249881
 20
297.4659354123630237
 30
0.0
 11
6663.2195628841909638
 21
297.4659354123630237
 31
0.0
  0
LINE
  5
30B4F
  8
0
 10
6663.1998778506858798
 20
297.4528669416546904
 30
0.0
 11
6663.2195628842309816
 21
297.4528669416546904
 31
0.0
  0
LINE
  5
30B50
  8
0
 10
6663.1998778506858798
 20
297.4317581124191179
 30
0.0
 11
6663.2195628842309816
 21
297.4317581124191179
 31
0.0
  0
LINE
  5
30B51
  8
0
 10
6663.1998778506240342
 20
297.4209202400156187
 30
0.0
 11
6663.2195628842919177
 21
297.4209202400156187
 31
0.0
  0
LINE
  5
30B52
  8
0
 10
6663.1998778506240342
 20
297.4031093838610786
 30
0.0
 11
6663.2195628842919177
 21
297.4031093838610786
 31
0.0
  0
LINE
  5
30B53
  8
0
 10
6663.1998778507249881
 20
297.4906456510180988
 30
0.0
 11
6663.1998778507249881
 21
297.4659354123630237
 31
0.0
  0
LINE
  5
30B54
  8
0
 10
6663.1998778506858798
 20
297.4528669416546904
 30
0.0
 11
6663.1998778506858798
 21
297.4317581124191179
 31
0.0
  0
LINE
  5
30B55
  8
0
 10
6663.1998778506240342
 20
297.4209202400156187
 30
0.0
 11
6663.1998778506240342
 21
297.4031093838610786
 31
0.0
  0
LINE
  5
30B56
  8
0
 10
6663.1998778506076633
 20
297.5066778499544853
 30
0.0
 11
6663.1998778506076633
 21
297.521515514879809
 31
0.0
  0
LINE
  5
30B57
  8
0
 10
6663.1998778506240342
 20
297.4209202400156187
 30
0.0
 11
6663.190035330981118
 21
297.4120847593496251
 31
0.0
  0
LINE
  5
30B58
  8
0
 10
6663.190035330981118
 20
297.4120847593496251
 30
0.0
 11
6663.1998778506240342
 21
297.4031093838610786
 31
0.0
  0
LINE
  5
30B59
  8
0
 10
6663.1998778506858798
 20
297.4528669416546904
 30
0.0
 11
6663.1900353309911225
 21
297.4423719310631782
 31
0.0
  0
LINE
  5
30B5A
  8
0
 10
6663.1900353309911225
 20
297.4423719310631782
 30
0.0
 11
6663.1998778506858798
 21
297.4317581124191179
 31
0.0
  0
LINE
  5
30B5B
  8
0
 10
6663.1998778507249881
 20
297.4906456510180988
 30
0.0
 11
6663.1900353310029459
 21
297.4783322311981237
 31
0.0
  0
LINE
  5
30B5C
  8
0
 10
6663.1900353310029459
 20
297.4783322311981237
 30
0.0
 11
6663.1998778507249881
 21
297.4659354123630237
 31
0.0
  0
LINE
  5
30B5D
  8
0
 10
6663.1902358558900232
 20
297.5213743854816926
 30
0.0
 11
6663.1900353309310958
 21
297.5210876143530072
 31
0.0
  0
LINE
  5
30B5E
  8
0
 10
6663.1900353309310958
 20
297.5210876143530072
 30
0.0
 11
6663.1998778506076633
 21
297.5066778499544853
 31
0.0
  0
LINE
  5
30B5F
  8
0
 10
6662.9610347645220827
 20
297.4437310100702234
 30
0.0
 11
6662.949328203719233
 21
297.4490276846375991
 31
0.0
  0
LINE
  5
30B60
  8
0
 10
6662.949328203719233
 20
297.4490276846375991
 30
0.0
 11
6662.9394856840190187
 21
297.4618567463318755
 31
0.0
  0
LINE
  5
30B61
  8
0
 10
6662.9394856840190187
 20
297.4618567463318755
 30
0.0
 11
6662.9493282036373785
 21
297.4657991390465099
 31
0.0
  0
LINE
  5
30B62
  8
0
 10
6662.9493282036373785
 20
297.4657991390465099
 30
0.0
 11
6662.9690132430860103
 21
297.4569726402261267
 31
0.0
  0
LINE
  5
30B63
  8
0
 10
6662.9690132430860103
 20
297.4569726402261267
 30
0.0
 11
6662.9788557628671697
 21
297.4442921397615009
 31
0.0
  0
LINE
  5
30B64
  8
0
 10
6662.9788557628671697
 20
297.4442921397615009
 30
0.0
 11
6662.9783711444024448
 21
297.4440791055301929
 31
0.0
  0
LINE
  5
30B65
  8
0
 10
6662.9783711444024448
 20
297.4440791055301929
 30
0.0
 11
6662.9659435895991919
 21
297.4492721686261234
 31
0.0
  0
LINE
  5
30B66
  8
0
 10
6662.9659435895991919
 20
297.4492721686261234
 30
0.0
 11
6662.9610347645220827
 21
297.4437310100702234
 31
0.0
  0
LINE
  5
30B67
  8
0
 10
6662.9659435894882336
 20
297.4492721686261234
 30
0.0
 11
6662.9749902977191596
 21
297.4492721686261234
 31
0.0
  0
LINE
  5
30B68
  8
0
 10
6662.9493282036373785
 20
297.4657991390465099
 30
0.0
 11
6662.949328203719233
 21
297.4490276846375991
 31
0.0
  0
LINE
  5
30B69
  8
0
 10
6662.9690132430860103
 20
297.4569726402261267
 30
0.0
 11
6662.9690132430860103
 21
297.4492721686261234
 31
0.0
  0
LINE
  5
30B6A
  8
0
 10
6662.9783711444024448
 20
297.4440791055301929
 30
0.0
 11
6662.9783711444024448
 21
297.4449164925505897
 31
0.0
  0
LINE
  5
30B6B
  8
0
 10
6662.9160305823152157
 20
297.4584315303566768
 30
0.0
 11
6662.9214893541429774
 21
297.4515358001842742
 31
0.0
  0
LINE
  5
30B6C
  8
0
 10
6662.9214893541429774
 20
297.4515358001842742
 30
0.0
 11
6662.9411743934442711
 21
297.4416180855913012
 31
0.0
  0
LINE
  5
30B6D
  8
0
 10
6662.9510169131535804
 20
297.4442481246354077
 30
0.0
 11
6662.9411743935197592
 21
297.4566871733446192
 31
0.0
  0
LINE
  5
30B6E
  8
0
 10
6662.9411743935197592
 20
297.4566871733446192
 30
0.0
 11
6662.9247576577799919
 21
297.4649574875888902
 31
0.0
  0
LINE
  5
30B6F
  8
0
 10
6662.9214893541429774
 20
297.4515358001842742
 30
0.0
 11
6662.9214893541429774
 21
297.4626725495293726
 31
0.0
  0
LINE
  5
30B70
  8
0
 10
6662.9411743935197592
 20
297.4566871733446192
 30
0.0
 11
6662.9411743934442711
 21
297.4416180855913012
 31
0.0
  0
LINE
  5
30B71
  8
0
 10
6662.9214893541020501
 20
297.4441041598911966
 30
0.0
 11
6662.9116468344582245
 21
297.4433005270486206
 31
0.0
  0
LINE
  5
30B72
  8
0
 10
6662.9116468344582245
 20
297.4433005270486206
 30
0.0
 11
6662.9214893541611673
 21
297.4324479219972091
 31
0.0
  0
LINE
  5
30B73
  8
0
 10
6662.9214893541611673
 20
297.4324479219972091
 30
0.0
 11
6662.940759888413595
 21
297.4227514211683001
 31
0.0
  0
LINE
  5
30B74
  8
0
 10
6662.940759888413595
 20
297.4227514211683001
 30
0.0
 11
6662.9510169131781367
 21
297.4235061137270009
 31
0.0
  0
LINE
  5
30B75
  8
0
 10
6662.9510169131781367
 20
297.4235061137270009
 30
0.0
 11
6662.9411743934633705
 21
297.4342084735175717
 31
0.0
  0
LINE
  5
30B76
  8
0
 10
6662.9411743934633705
 20
297.4342084735175717
 30
0.0
 11
6662.9214893541611673
 21
297.4441041598873881
 31
0.0
  0
LINE
  5
30B77
  8
0
 10
6662.9214893541611673
 20
297.4441041598873881
 30
0.0
 11
6662.9214893541611673
 21
297.4324479219972091
 31
0.0
  0
LINE
  5
30B78
  8
0
 10
6662.9411743934633705
 20
297.4342084735175717
 30
0.0
 11
6662.940759888413595
 21
297.4227514211683001
 31
0.0
  0
LINE
  5
30B79
  8
0
 10
6662.9214893541457059
 20
297.4198289113313081
 30
0.0
 11
6662.9116468343845554
 21
297.4289665690910169
 31
0.0
  0
LINE
  5
30B7A
  8
0
 10
6662.9116468343845554
 20
297.4289665690910169
 30
0.0
 11
6662.9214893540520279
 21
297.4280017197316965
 31
0.0
  0
LINE
  5
30B7B
  8
0
 10
6662.9214893540520279
 20
297.4280017197316965
 30
0.0
 11
6662.9411743934451806
 21
297.4180840051658947
 31
0.0
  0
LINE
  5
30B7C
  8
0
 10
6662.9411743934451806
 20
297.4180840051658947
 30
0.0
 11
6662.9510169131017392
 21
297.4090578063713792
 31
0.0
  0
LINE
  5
30B7D
  8
0
 10
6662.9510169131017392
 20
297.4090578063713792
 30
0.0
 11
6662.9411743935288541
 21
297.4098406173159788
 31
0.0
  0
LINE
  5
30B7E
  8
0
 10
6662.9411743935288541
 20
297.4098406173159788
 30
0.0
 11
6662.9214893541457059
 21
297.4198289113313081
 31
0.0
  0
LINE
  5
30B7F
  8
0
 10
6662.9214893541457059
 20
297.4198289113313081
 30
0.0
 11
6662.9214893540520279
 21
297.4280017197316965
 31
0.0
  0
LINE
  5
30B80
  8
0
 10
6662.9411743935288541
 20
297.4098406173159788
 30
0.0
 11
6662.9411743934451806
 21
297.4180840051658947
 31
0.0
  0
LINE
  5
30B81
  8
0
 10
6662.9547883286650176
 20
297.4401574909884971
 30
0.0
 11
6662.9529235305608381
 21
297.4390327887520016
 31
0.0
  0
LINE
  5
30B82
  8
0
 10
6662.9529235305608381
 20
297.4390327887520016
 30
0.0
 11
6662.9493282037701647
 21
297.4406843611283193
 31
0.0
  0
LINE
  5
30B83
  8
0
 10
6662.9493282037701647
 20
297.4406843611283193
 30
0.0
 11
6662.9394856841208821
 21
297.4384124746864018
 31
0.0
  0
LINE
  5
30B84
  8
0
 10
6662.9394856841208821
 20
297.4384124746864018
 30
0.0
 11
6662.9493282037701647
 21
297.427342063006904
 31
0.0
  0
LINE
  5
30B85
  8
0
 10
6662.9493282037701647
 20
297.427342063006904
 30
0.0
 11
6662.9513459526724546
 21
297.4264148188295849
 31
0.0
  0
LINE
  5
30B86
  8
0
 10
6662.9513459526724546
 20
297.4264148188295849
 30
0.0
 11
6662.9661127669232883
 21
297.4351221911646235
 31
0.0
  0
LINE
  5
30B87
  8
0
 10
6662.9493282037701647
 20
297.4406843611283193
 30
0.0
 11
6662.9493282037701647
 21
297.427342063006904
 31
0.0
  0
LINE
  5
30B88
  8
0
 10
6662.9690132431669554
 20
297.41928060477278
 30
0.0
 11
6662.9784407261277011
 21
297.4299535307533233
 31
0.0
  0
LINE
  5
30B89
  8
0
 10
6662.9770583263589288
 20
297.4305171621966224
 30
0.0
 11
6662.9690132432033352
 21
297.4309368425774096
 31
0.0
  0
LINE
  5
30B8A
  8
0
 10
6662.9690132432033352
 20
297.4309368425774096
 30
0.0
 11
6662.9513333991180843
 21
297.4208290844733256
 31
0.0
  0
LINE
  5
30B8B
  8
0
 10
6662.9513333991180843
 20
297.4208290844733256
 30
0.0
 11
6662.9493282037674362
 21
297.4215590461233205
 31
0.0
  0
LINE
  5
30B8C
  8
0
 10
6662.9493282037674362
 20
297.4215590461233205
 30
0.0
 11
6662.9394856841126966
 21
297.420973220088797
 31
0.0
  0
LINE
  5
30B8D
  8
0
 10
6662.9394856841126966
 20
297.420973220088797
 30
0.0
 11
6662.9493282037437893
 21
297.4115888686607718
 31
0.0
  0
LINE
  5
30B8E
  8
0
 10
6662.9493282037437893
 20
297.4115888686607718
 30
0.0
 11
6662.9529235304698886
 21
297.4099372962094776
 31
0.0
  0
LINE
  5
30B8F
  8
0
 10
6662.9529235304698886
 20
297.4099372962094776
 30
0.0
 11
6662.9690132432051541
 21
297.4192806046451096
 31
0.0
  0
LINE
  5
30B90
  8
0
 10
6662.9513459526724546
 20
297.4264148188295849
 30
0.0
 11
6662.9513361907429498
 21
297.4208306804750919
 31
0.0
  0
LINE
  5
30B91
  8
0
 10
6662.9493282037674362
 20
297.4215590461233205
 30
0.0
 11
6662.9493282037437893
 21
297.4115888686607718
 31
0.0
  0
LINE
  5
30B92
  8
0
 10
6662.9690132431669554
 20
297.41928060477278
 30
0.0
 11
6662.9690132432033352
 21
297.4309368425774096
 31
0.0
  0
LINE
  5
30B93
  8
0
 10
6662.9816291309598455
 20
297.4286687500613198
 30
0.0
 11
6662.9771967953065541
 21
297.4263587473009807
 31
0.0
  0
LINE
  5
30B94
  8
0
 10
6662.9771967953065541
 20
297.4263587473009807
 30
0.0
 11
6662.9699503870842818
 21
297.4181465742236128
 31
0.0
  0
LINE
  5
30B95
  8
0
 10
6662.9699503870842818
 20
297.4181465742236128
 30
0.0
 11
6662.9534289461089429
 21
297.4087087370544964
 31
0.0
  0
LINE
  5
30B96
  8
0
 10
6662.9699503870579065
 20
297.4181465742091746
 30
0.0
 11
6662.9699503870579065
 21
297.4067985552044888
 31
0.0
  0
LINE
  5
30B97
  8
0
 10
6662.9699503870579065
 20
297.4067985552044888
 30
0.0
 11
6663.0041282429592684
 21
297.4067985552044888
 31
0.0
  0
LINE
  5
30B98
  8
0
 10
6663.0041282429592684
 20
297.4067985552044888
 30
0.0
 11
6663.0041282429592684
 21
297.4201939459223922
 31
0.0
  0
LINE
  5
30B99
  8
0
 10
6662.9968818346578701
 20
297.4228117986688744
 30
0.0
 11
6662.9968818346578701
 21
297.4067985552044888
 31
0.0
  0
LINE
  5
30B9A
  8
0
 10
6662.9771967953593048
 20
297.4263587473046186
 30
0.0
 11
6662.9771967953593048
 21
297.4067985552044888
 31
0.0
  0
LINE
  5
30B9B
  8
0
 10
6662.9529235304698886
 20
297.4099372962094776
 30
0.0
 11
6662.9534289461089429
 21
297.4087087370544964
 31
0.0
  0
LINE
  5
30B9C
  8
0
 10
6662.9532955416680124
 20
297.4408421864234242
 30
0.0
 11
6662.9529235305608381
 21
297.4390327887520016
 31
0.0
  0
LINE
  5
30B9D
  8
0
 10
6662.9951347573060048
 20
297.4367491304263922
 30
0.0
 11
6663.0049772769707488
 21
297.4417238541677193
 31
0.0
  0
LINE
  5
30B9E
  8
0
 10
6663.0049772769707488
 20
297.4417238541677193
 30
0.0
 11
6663.0246623163402546
 21
297.4351482472699786
 31
0.0
  0
LINE
  5
30B9F
  8
0
 10
6663.0246623163402546
 20
297.4351482472699786
 30
0.0
 11
6663.0345048360968576
 21
297.4236589944227944
 31
0.0
  0
LINE
  5
30BA0
  8
0
 10
6663.0345048360968576
 20
297.4236589944227944
 30
0.0
 11
6663.0340202176357707
 21
297.4233977562901146
 31
0.0
  0
LINE
  5
30BA1
  8
0
 10
6663.0340202176357707
 20
297.4233977562901146
 30
0.0
 11
6662.9956193756961511
 21
297.4361622503229228
 31
0.0
  0
LINE
  5
30BA2
  8
0
 10
6662.9956193756961511
 20
297.4361622503229228
 30
0.0
 11
6662.9951347573060048
 21
297.4367491304263922
 31
0.0
  0
LINE
  5
30BA3
  8
0
 10
6663.050821928667574
 20
297.41892631746299
 30
0.0
 11
6663.0606644483677883
 21
297.4248442184629084
 31
0.0
  0
LINE
  5
30BA4
  8
0
 10
6663.0606644483677883
 20
297.4248442184629084
 30
0.0
 11
6663.0803494877391131
 21
297.420286321173478
 31
0.0
  0
LINE
  5
30BA5
  8
0
 10
6663.0803494877391131
 20
297.420286321173478
 30
0.0
 11
6663.0901920074365989
 21
297.4098506725180187
 31
0.0
  0
LINE
  5
30BA6
  8
0
 10
6663.0901920074365989
 20
297.4098506725180187
 30
0.0
 11
6663.0897073890801039
 21
297.4095444725655284
 31
0.0
  0
LINE
  5
30BA7
  8
0
 10
6663.0897073890801039
 20
297.4095444725655284
 30
0.0
 11
6663.0513065470677248
 21
297.4183944962418877
 31
0.0
  0
LINE
  5
30BA8
  8
0
 10
6663.0513065470677248
 20
297.4183944962418877
 30
0.0
 11
6663.050821928667574
 21
297.41892631746299
 31
0.0
  0
LINE
  5
30BA9
  8
0
 10
6663.1065077582297818
 20
297.4067706761131262
 30
0.0
 11
6663.1163502779418195
 21
297.4135824213479964
 31
0.0
  0
LINE
  5
30BAA
  8
0
 10
6663.1163502779418195
 20
297.4135824213479964
 30
0.0
 11
6663.13603531737499
 21
297.4108993241529788
 31
0.0
  0
LINE
  5
30BAB
  8
0
 10
6663.13603531737499
 20
297.4108993241529788
 30
0.0
 11
6663.1458778370069922
 21
297.4014273290476922
 31
0.0
  0
LINE
  5
30BAC
  8
0
 10
6663.1458778370069922
 20
297.4014273290476922
 30
0.0
 11
6663.1453932186532256
 21
297.4010777912170056
 31
0.0
  0
LINE
  5
30BAD
  8
0
 10
6663.1453932186532256
 20
297.4010777912170056
 30
0.0
 11
6663.1069923766299326
 21
297.4062883560130786
 31
0.0
  0
LINE
  5
30BAE
  8
0
 10
6663.1069923766299326
 20
297.4062883560130786
 30
0.0
 11
6663.1065077582543381
 21
297.4067706760720853
 31
0.0
  0
LINE
  5
30BAF
  8
0
 10
6663.1621928803706396
 20
297.3999086149034952
 30
0.0
 11
6663.1720354000353836
 21
297.4075942226057805
 31
0.0
  0
LINE
  5
30BB0
  8
0
 10
6663.1720354000353836
 20
297.4075942226057805
 30
0.0
 11
6663.191720439484925
 21
297.406708105803375
 31
0.0
  0
LINE
  5
30BB1
  8
0
 10
6663.191720439484925
 20
297.406708105803375
 30
0.0
 11
6663.2015629591578545
 21
297.3981438030867253
 31
0.0
  0
LINE
  5
30BB2
  8
0
 10
6663.2015629591578545
 20
297.3981438030867253
 30
0.0
 11
6663.2010783408077259
 21
297.3977512625530721
 31
0.0
  0
LINE
  5
30BB3
  8
0
 10
6663.2010783408077259
 20
297.3977512625530721
 30
0.0
 11
6663.162677498755329
 21
297.3994722271003752
 31
0.0
  0
LINE
  5
30BB4
  8
0
 10
6663.162677498755329
 20
297.3994722271003752
 30
0.0
 11
6663.1621928804215713
 21
297.3999086148575088
 31
0.0
  0
LINE
  5
30BB5
  8
0
 10
6662.9956193756961511
 20
297.4361622503229228
 30
0.0
 11
6662.9956193756961511
 21
297.4369940720358727
 31
0.0
  0
LINE
  5
30BB6
  8
0
 10
6663.0340202176357707
 20
297.4233977562901146
 30
0.0
 11
6663.0340202176357707
 21
297.424224693468318
 31
0.0
  0
LINE
  5
30BB7
  8
0
 10
6663.0513065470677248
 20
297.4183944962418877
 30
0.0
 11
6663.0513065470677248
 21
297.4192176985118863
 31
0.0
  0
LINE
  5
30BB8
  8
0
 10
6663.0897073890801039
 20
297.4095444725655284
 30
0.0
 11
6663.0897073890801039
 21
297.4103644948974079
 31
0.0
  0
LINE
  5
30BB9
  8
0
 10
6663.1069923766299326
 20
297.4062883560130786
 30
0.0
 11
6663.1069923766299326
 21
297.4071060675752847
 31
0.0
  0
LINE
  5
30BBA
  8
0
 10
6663.1453932186532256
 20
297.4010777912170056
 30
0.0
 11
6663.1453932186532256
 21
297.4018937038031254
 31
0.0
  0
LINE
  5
30BBB
  8
0
 10
6663.162677498755329
 20
297.3994722271003752
 30
0.0
 11
6663.162677498755329
 21
297.4002870329210282
 31
0.0
  0
LINE
  5
30BBC
  8
0
 10
6663.2010783408077259
 20
297.3977512625530721
 30
0.0
 11
6663.2010783408077259
 21
297.3985654855824237
 31
0.0
  0
LINE
  5
30BBD
  8
0
 10
6662.9510169131535804
 20
297.4442481246354077
 30
0.0
 11
6662.9411743935270351
 21
297.4416180856060237
 31
0.0
  0
ARC
  5
30BBE
  8
0
 10
6663.205142606156187
 20
297.9879546593468262
 30
0.0
 40
0.6022947799211045
 50
245.2824173323479044
 51
250.713909765363212
  0
ARC
  5
30BBF
  8
0
 10
6663.2086272414062478
 20
297.9979129651441099
 30
0.0
 40
0.6128451608229176
 50
250.713909765363212
 51
259.7302736131795768
  0
ARC
  5
30BC0
  8
0
 10
6663.22426732909571
 20
298.1663775745452085
 30
0.0
 40
0.7815364347016568
 50
260.8039674802474224
 51
268.9334756459963955
  0
LINE
  5
30BC1
  8
0
 10
6662.9684179519263125
 20
297.4341311856666152
 30
0.0
 11
6662.9673245337025946
 21
297.4329203211377148
 31
0.0
  0
LINE
  5
30BC2
  8
0
 10
6662.9673245337025946
 20
297.4329203211377148
 30
0.0
 11
6662.9710938585258191
 21
297.4329950341008271
 31
0.0
  0
LINE
  5
30BC3
  8
0
 10
6662.9493282037301469
 20
297.4080076984852781
 30
0.0
 11
6662.9394856840772263
 21
297.4091805223399092
 31
0.0
  0
LINE
  5
30BC4
  8
0
 10
6662.9394856840772263
 20
297.4091805223399092
 30
0.0
 11
6662.9493282037301469
 21
297.4014666772239934
 31
0.0
  0
LINE
  5
30BC5
  8
0
 10
6662.9493282037301469
 20
297.4014666772239934
 30
0.0
 11
6662.9690132431305756
 21
297.3926401783401161
 31
0.0
  0
LINE
  5
30BC6
  8
0
 10
6662.9690132431305756
 20
297.3926401783401161
 30
0.0
 11
6662.9788557628471608
 21
297.3916159157114976
 31
0.0
  0
LINE
  5
30BC7
  8
0
 10
6662.9788557629426577
 20
297.3916159157014931
 30
0.0
 11
6662.9783711444870278
 21
297.3919768023432084
 31
0.0
  0
LINE
  5
30BC8
  8
0
 10
6662.9783711444870278
 20
297.3919768023432084
 30
0.0
 11
6662.9659435895682691
 21
297.3971698653464841
 31
0.0
  0
LINE
  5
30BC9
  8
0
 10
6662.9659435895682691
 20
297.3971698653464841
 30
0.0
 11
6662.9610347645875663
 21
297.4027110239911735
 31
0.0
  0
LINE
  5
30BCA
  8
0
 10
6662.9610347645875663
 20
297.4027110239911735
 30
0.0
 11
6662.9493282037301469
 21
297.4080076984454877
 31
0.0
  0
LINE
  5
30BCB
  8
0
 10
6662.9690132431305756
 20
297.3926401783401161
 30
0.0
 11
6662.9690132431305756
 21
297.3958871589371142
 31
0.0
  0
LINE
  5
30BCC
  8
0
 10
6662.9493282037301469
 20
297.4080076984454877
 30
0.0
 11
6662.9493282037301469
 21
297.4014666772239934
 31
0.0
  0
LINE
  5
30BCD
  8
0
 10
6663.0255983445076708
 20
297.413037239844698
 30
0.0
 11
6663.0255983445076708
 21
297.4068809478545177
 31
0.0
  0
LINE
  5
30BCE
  8
0
 10
6663.0255983445076708
 20
297.4068809478545177
 30
0.0
 11
6663.0465767996211071
 21
297.4068809478545177
 31
0.0
  0
LINE
  5
30BCF
  8
0
 10
6662.9493282038083635
 20
297.3977190282075185
 30
0.0
 11
6662.9394856842818626
 21
297.403233267856308
 31
0.0
  0
LINE
  5
30BD0
  8
0
 10
6662.9394856842818626
 20
297.403233267856308
 30
0.0
 11
6662.9493282037301469
 21
297.3995805497104925
 31
0.0
  0
LINE
  5
30BD1
  8
0
 10
6662.9493282037301469
 20
297.3995805497104925
 30
0.0
 11
6662.9690132428067955
 21
297.3905819650346984
 31
0.0
  0
LINE
  5
30BD2
  8
0
 10
6662.9690132428067955
 20
297.3905819650346984
 30
0.0
 11
6662.978855762648891
 21
297.3850740196407969
 31
0.0
  0
LINE
  5
30BD3
  8
0
 10
6662.978855762648891
 20
297.3850740196407969
 30
0.0
 11
6662.9690132433306644
 21
297.3885585378558858
 31
0.0
  0
LINE
  5
30BD4
  8
0
 10
6662.9690132433306644
 20
297.3885585378558858
 30
0.0
 11
6662.9493282038083635
 21
297.3977190282075185
 31
0.0
  0
LINE
  5
30BD5
  8
0
 10
6662.967324533730789
 20
297.3924239193767107
 30
0.0
 11
6662.9771670534091754
 21
297.3904442319545183
 31
0.0
  0
LINE
  5
30BD6
  8
0
 10
6662.9771670534091754
 20
297.3904442319545183
 30
0.0
 11
6662.9968520927995996
 21
297.382714770974701
 31
0.0
  0
LINE
  5
30BD7
  8
0
 10
6662.9968520927995996
 20
297.382714770974701
 30
0.0
 11
6663.0066942672192454
 21
297.3768615255173131
 31
0.0
  0
LINE
  5
30BD8
  8
0
 10
6663.0066942672192454
 20
297.3768615255173131
 30
0.0
 11
6662.9968520928086946
 21
297.3787225486545935
 31
0.0
  0
LINE
  5
30BD9
  8
0
 10
6662.9968520928086946
 20
297.3787225486545935
 30
0.0
 11
6662.9771670534510122
 21
297.3865551906085898
 31
0.0
  0
LINE
  5
30BDA
  8
0
 10
6662.9771670534510122
 20
297.3865551906085898
 30
0.0
 11
6662.9673245340909489
 21
297.3924239193041217
 31
0.0
  0
LINE
  5
30BDB
  8
0
 10
6663.0050059031082128
 20
297.3740248654546008
 30
0.0
 11
6662.995163383396175
 21
297.378552247413495
 31
0.0
  0
LINE
  5
30BDC
  8
0
 10
6662.995163383396175
 20
297.378552247413495
 30
0.0
 11
6663.0050059031082128
 21
297.376293408354627
 31
0.0
  0
LINE
  5
30BDD
  8
0
 10
6663.0050059031082128
 20
297.376293408354627
 30
0.0
 11
6663.024690942408597
 21
297.3695945059262158
 31
0.0
  0
LINE
  5
30BDE
  8
0
 10
6663.024690942408597
 20
297.3695945059262158
 30
0.0
 11
6663.0345334619423738
 21
297.3650447478283922
 31
0.0
  0
LINE
  5
30BDF
  8
0
 10
6663.0345334619423738
 20
297.3650447478283922
 30
0.0
 11
6663.0246909424704427
 21
297.3672158009470081
 31
0.0
  0
LINE
  5
30BE0
  8
0
 10
6663.0246909424704427
 20
297.3672158009470081
 30
0.0
 11
6663.0050059031082128
 21
297.3740248654546008
 31
0.0
  0
LINE
  5
30BE1
  8
0
 10
6662.9951633834098175
 20
297.3850484033545172
 30
0.0
 11
6662.9956480017362992
 21
297.3850082232086152
 31
0.0
  0
LINE
  5
30BE2
  8
0
 10
6662.9956480017362992
 20
297.3850082232086152
 30
0.0
 11
6663.034048843808705
 21
297.3721087944546184
 31
0.0
  0
LINE
  5
30BE3
  8
0
 10
6663.034048843808705
 20
297.3721087944546184
 30
0.0
 11
6663.0345334621079019
 21
297.3718198902545282
 31
0.0
  0
LINE
  5
30BE4
  8
0
 10
6663.0345334621079019
 20
297.3718198902545282
 30
0.0
 11
6663.0246909424577098
 21
297.3722012091383817
 31
0.0
  0
LINE
  5
30BE5
  8
0
 10
6663.0246909424577098
 20
297.3722012091383817
 30
0.0
 11
6663.0050059031082128
 21
297.3788463273745037
 31
0.0
  0
LINE
  5
30BE6
  8
0
 10
6663.0050059031082128
 20
297.3788463273745037
 30
0.0
 11
6662.9951633834098175
 21
297.3850484033545172
 31
0.0
  0
LINE
  5
30BE7
  8
0
 10
6663.0050059031082128
 20
297.3818647613589974
 30
0.0
 11
6663.0050059031082128
 21
297.3788463273745037
 31
0.0
  0
LINE
  5
30BE8
  8
0
 10
6663.0246909423822217
 20
297.3752522563223124
 30
0.0
 11
6663.0246909424577098
 21
297.3722012091383817
 31
0.0
  0
ARC
  5
30BE9
  8
0
 10
6663.2095570938708988
 20
296.53078499226541
 30
0.0
 40
0.9907778036421404
 50
89.9905580368494356
 51
93.6204597562897618
  0
ARC
  5
30BEA
  8
0
 10
6663.2031262719283404
 20
296.6324208205209061
 30
0.0
 40
0.8889387293334348
 50
93.6204597562897618
 51
98.3628635400861953
  0
ARC
  5
30BEB
  8
0
 10
6663.1671652388549774
 20
296.877045496105211
 30
0.0
 40
0.6416849572602049
 50
98.3628635400861953
 51
104.2999903833854063
  0
ARC
  5
30BEC
  8
0
 10
6663.1074533654846164
 20
297.1113046722206263
 30
0.0
 40
0.3999353566080042
 50
104.2999903833854063
 51
110.9884196099899043
  0
ARC
  5
30BED
  8
0
 10
6663.0475575842147009
 20
297.2674328290822814
 30
0.0
 40
0.2327124336010319
 50
110.9884196099899043
 51
120.1016153596369946
  0
ARC
  5
30BEE
  8
0
 10
6662.9851170630427077
 20
297.3751413815693923
 30
0.0
 40
0.1082136345577782
 50
120.1016153596369946
 51
137.5913685397185873
  0
ARC
  5
30BEF
  8
0
 10
6662.9357179510452625
 20
297.4202626181627807
 30
0.0
 40
0.0413092381560233
 50
137.5913685397185873
 51
165.7612606146061864
  0
ARC
  5
30BF0
  8
0
 10
6662.9256342777780446
 20
297.4228214354179727
 30
0.0
 40
0.0309059688480669
 50
165.7612606146093981
 51
201.706096865924593
  0
ARC
  5
30BF1
  8
0
 10
6662.9447521366701039
 20
297.4304317120822816
 30
0.0
 40
0.0514828694776183
 50
201.706096865924593
 51
230.672304910447906
  0
ARC
  5
30BF2
  8
0
 10
6663.02028185447125
 20
297.5226200429867163
 30
0.0
 40
0.1706609992923054
 50
230.672304910447906
 51
245.9223741111015897
  0
ARC
  5
30BF3
  8
0
 10
6663.0916559063689419
 20
297.6823460434288791
 30
0.0
 40
0.3456085642981783
 50
245.9223741111015897
 51
257.4184548163054274
  0
ARC
  5
30BF4
  8
0
 10
6663.2075672722339732
 20
298.2016893836909048
 30
0.0
 40
0.8777297439283978
 50
257.4184548163054274
 51
264.1844885205973128
  0
ARC
  5
30BF5
  8
0
 10
6663.1990844341044067
 20
298.1184016775657142
 30
0.0
 40
0.7940111645430579
 50
264.1844885205973128
 51
269.4491732160403785
  0
ARC
  5
30BF6
  8
0
 10
6663.3654859114521969
 20
315.4265807745072721
 30
0.0
 40
18.1029901379969793
 50
269.4491732160403785
 51
269.5069975554097255
  0
ARC
  5
30BF7
  8
0
 10
6663.2060513879905557
 20
297.958443468462292
 30
0.0
 40
0.6050011347579874
 50
245.3195552787356917
 51
249.4587428106810023
  0
ARC
  5
30BF8
  8
0
 10
6663.2077265964298931
 20
297.9629059282012236
 30
0.0
 40
0.6097676703843558
 50
249.4584700765186085
 51
255.4566679363732931
  0
ARC
  5
30BF9
  8
0
 10
6663.2093823691993748
 20
297.9692884096240846
 30
0.0
 40
0.6163614289920833
 50
255.4566679363732931
 51
260.5582214391487241
  0
ARC
  5
30BFA
  8
0
 10
6663.2094807931753166
 20
297.969880262031495
 30
0.0
 40
0.6169614094509145
 50
260.5582214391487241
 51
265.8127104403041017
  0
ARC
  5
30BFB
  8
0
 10
6663.2255833810786498
 20
298.4101152414294802
 30
0.0
 40
1.0573193892107531
 50
266.6843853686473835
 51
269.1403564140696858
  0
ARC
  5
30BFC
  8
0
 10
6663.2334225215199695
 20
296.0420928523524822
 30
0.0
 40
1.4961100999299399
 50
90.9077475029571644
 51
95.3984123625357654
  0
ARC
  5
30BFD
  8
0
 10
6663.1886927555678994
 20
296.6843680327992274
 30
0.0
 40
0.8526236375710375
 50
96.466564389556865
 51
100.5903038501674018
  0
ARC
  5
30BFE
  8
0
 10
6663.1399784545283183
 20
296.9449144468568988
 30
0.0
 40
0.5875622918335707
 50
100.5903038501674018
 51
107.6308488090899971
  0
ARC
  5
30BFF
  8
0
 10
6663.0540536484550103
 20
297.2152786050667146
 30
0.0
 40
0.3038725839775694
 50
107.6308488090899971
 51
117.5575267628535983
  0
ARC
  5
30C00
  8
0
 10
6662.9804123294734381
 20
297.3563961471900825
 30
0.0
 40
0.1446959382152485
 50
117.5575267628535983
 51
129.3828013323351911
  0
ARC
  5
30C01
  8
0
 10
6662.9374476448301721
 20
297.4087342334589721
 30
0.0
 40
0.0769815423986103
 50
129.3828013323351911
 51
146.1147562304487906
  0
ARC
  5
30C02
  8
0
 10
6662.9063487286912277
 20
297.429620213893088
 30
0.0
 40
0.0395200052747603
 50
146.1147562304487906
 51
170.4360618858019052
  0
ARC
  5
30C03
  8
0
 10
6662.9014360923756612
 20
297.4304479440077102
 30
0.0
 40
0.0345381248362207
 50
170.4360618858019052
 51
208.7721989921504075
  0
ARC
  5
30C04
  8
0
 10
6662.9404867974099034
 20
297.4526133711029843
 30
0.0
 40
0.079439012214561
 50
209.2285250969331969
 51
234.0051176356786016
  0
LINE
  5
30C05
  8
0
 10
6663.0328447526953823
 20
297.3664361475076134
 30
0.0
 11
6663.0230022330460997
 21
297.371335730951273
 31
0.0
  0
LINE
  5
30C06
  8
0
 10
6663.0230022330460997
 20
297.371335730951273
 30
0.0
 11
6663.0328447525726006
 21
297.3705840888953276
 31
0.0
  0
LINE
  5
30C07
  8
0
 10
6663.0328447525726006
 20
297.3705840888953276
 30
0.0
 11
6663.0525297920721641
 21
297.3649923998572149
 31
0.0
  0
LINE
  5
30C08
  8
0
 10
6663.0525297920721641
 20
297.3649923998572149
 30
0.0
 11
6663.061834001772695
 21
297.3601022723328811
 31
0.0
  0
LINE
  5
30C09
  8
0
 10
6663.061834001772695
 20
297.3601022723328811
 30
0.0
 11
6663.0525297922567916
 21
297.3607751098140852
 31
0.0
  0
LINE
  5
30C0A
  8
0
 10
6663.0525297922567916
 20
297.3607751098140852
 30
0.0
 11
6663.0328447529118421
 21
297.3664361473997246
 31
0.0
  0
LINE
  5
30C0B
  8
0
 10
6663.0508410827087573
 20
297.3672020138545236
 30
0.0
 11
6663.0513257010088637
 21
297.3672174745544794
 31
0.0
  0
LINE
  5
30C0C
  8
0
 10
6663.0513257010088637
 20
297.3672174745544794
 30
0.0
 11
6663.0897265431085543
 21
297.3582738964544774
 31
0.0
  0
LINE
  5
30C0D
  8
0
 10
6663.0897265431085543
 20
297.3582738964544774
 30
0.0
 11
6663.0902111614086607
 21
297.3580304293545282
 31
0.0
  0
LINE
  5
30C0E
  8
0
 10
6663.0902111614086607
 20
297.3580304293545282
 30
0.0
 11
6663.0803686417411882
 21
297.3573470063773243
 31
0.0
  0
LINE
  5
30C0F
  8
0
 10
6663.0803686417411882
 20
297.3573470063773243
 30
0.0
 11
6663.0606836025517623
 21
297.3619530855825133
 31
0.0
  0
LINE
  5
30C10
  8
0
 10
6663.0606836025517623
 20
297.3619530855825133
 30
0.0
 11
6663.0508410827087573
 21
297.3672020138545236
 31
0.0
  0
LINE
  5
30C11
  8
0
 10
6663.0508410826851105
 20
297.3603328348203831
 30
0.0
 11
6663.0606836024089716
 21
297.356723122254607
 31
0.0
  0
LINE
  5
30C12
  8
0
 10
6663.0606836024089716
 20
297.356723122254607
 30
0.0
 11
6663.0803686421304519
 21
297.3520102629602775
 31
0.0
  0
LINE
  5
30C13
  8
0
 10
6663.0803686421304519
 20
297.3520102629602775
 30
0.0
 11
6663.0902111613477246
 21
297.3509793644366823
 31
0.0
  0
LINE
  5
30C14
  8
0
 10
6663.0902111613477246
 20
297.3509793644366823
 30
0.0
 11
6663.0803686418021243
 21
297.3546249293103187
 31
0.0
  0
LINE
  5
30C15
  8
0
 10
6663.0803686418021243
 20
297.3546249293103187
 30
0.0
 11
6663.0606836023662254
 21
297.3592660901575186
 31
0.0
  0
LINE
  5
30C16
  8
0
 10
6663.0606836023662254
 20
297.3592660901575186
 30
0.0
 11
6663.0508410826851105
 21
297.3603328348203831
 31
0.0
  0
LINE
  5
30C17
  8
0
 10
6663.0789422970083251
 20
297.3562535659544892
 30
0.0
 11
6663.0885224517451206
 21
297.3565834005070201
 31
0.0
  0
LINE
  5
30C18
  8
0
 10
6663.0885224517451206
 20
297.3565834005070201
 30
0.0
 11
6663.108207491362009
 21
297.3529449610521738
 31
0.0
  0
LINE
  5
30C19
  8
0
 10
6663.108207491362009
 20
297.3529449610521738
 30
0.0
 11
6663.1180500110385765
 21
297.3489342386400835
 31
0.0
  0
LINE
  5
30C1A
  8
0
 10
6663.1180500110385765
 20
297.3489342386400835
 30
0.0
 11
6663.1082074916148485
 21
297.3485831789192275
 31
0.0
  0
LINE
  5
30C1B
  8
0
 10
6663.1082074916148485
 20
297.3485831789192275
 30
0.0
 11
6663.0885224520079646
 21
297.3522645665531741
 31
0.0
  0
LINE
  5
30C1C
  8
0
 10
6663.0885224520079646
 20
297.3522645665531741
 30
0.0
 11
6663.0789422970083251
 21
297.3562535659544892
 31
0.0
  0
LINE
  5
30C1D
  8
0
 10
6663.07834609497786
 20
297.3519981323191814
 30
0.0
 11
6663.088689561762294
 21
297.3505572684072149
 31
0.0
  0
LINE
  5
30C1E
  8
0
 10
6663.088689561762294
 20
297.3505572684072149
 30
0.0
 11
6663.1082074914338591
 21
297.346874920994594
 31
0.0
  0
LINE
  5
30C1F
  8
0
 10
6663.1082074914338591
 20
297.346874920994594
 30
0.0
 11
6663.1202633939492443
 21
297.3438598860975048
 31
0.0
  0
LINE
  5
30C20
  8
0
 10
6663.1065187820358915
 20
297.347915890871775
 30
0.0
 11
6663.1163613014377916
 21
297.3479077546961094
 31
0.0
  0
LINE
  5
30C21
  8
0
 10
6663.1163613014377916
 20
297.3479077546961094
 30
0.0
 11
6663.1360463410082957
 21
297.3451764240929265
 31
0.0
  0
LINE
  5
30C22
  8
0
 10
6663.1360463410082957
 20
297.3451764240929265
 30
0.0
 11
6663.1458888606930486
 21
297.3424130676331174
 31
0.0
  0
LINE
  5
30C23
  8
0
 10
6663.1458888606930486
 20
297.3424130676331174
 30
0.0
 11
6663.1360463410082957
 21
297.3424130676331174
 31
0.0
  0
LINE
  5
30C24
  8
0
 10
6663.1360463410082957
 20
297.3424130676331174
 30
0.0
 11
6663.116361301708821
 21
297.3451915450544902
 31
0.0
  0
LINE
  5
30C25
  8
0
 10
6663.116361301708821
 20
297.3451915450544902
 30
0.0
 11
6663.1065187820358915
 21
297.347915890871775
 31
0.0
  0
LINE
  5
30C26
  8
0
 10
6663.1065187819531275
 20
297.3550251870378247
 30
0.0
 11
6663.107003400308713
 21
297.3550906722546188
 31
0.0
  0
LINE
  5
30C27
  8
0
 10
6663.107003400308713
 20
297.3550906722546188
 30
0.0
 11
6663.1452117058988733
 21
297.3498452872835855
 31
0.0
  0
LINE
  5
30C28
  8
0
 10
6663.1452117058988733
 20
297.3498452872835855
 30
0.0
 11
6663.1458888607130575
 21
297.3496253549527069
 31
0.0
  0
LINE
  5
30C29
  8
0
 10
6663.1458888607130575
 20
297.3496253549527069
 30
0.0
 11
6663.1360463411647288
 21
297.3479680915352787
 31
0.0
  0
LINE
  5
30C2A
  8
0
 10
6663.1360463411647288
 20
297.3479680915352787
 30
0.0
 11
6663.116361301708821
 21
297.350679552054487
 31
0.0
  0
LINE
  5
30C2B
  8
0
 10
6663.116361301708821
 20
297.350679552054487
 30
0.0
 11
6663.1065187820076972
 21
297.3550251871545242
 31
0.0
  0
LINE
  5
30C2C
  8
0
 10
6663.1343576316849067
 20
297.3466803106674092
 30
0.0
 11
6663.1442001511859416
 21
297.3479946193676824
 31
0.0
  0
LINE
  5
30C2D
  8
0
 10
6663.1442001511859416
 20
297.3479946193676824
 30
0.0
 11
6663.1638851906709533
 21
297.3462007106843998
 31
0.0
  0
LINE
  5
30C2E
  8
0
 10
6663.1638851906709533
 20
297.3462007106843998
 30
0.0
 11
6663.1737277104120949
 21
297.3430720747833789
 31
0.0
  0
LINE
  5
30C2F
  8
0
 10
6663.1737277104120949
 20
297.3430720747833789
 30
0.0
 11
6663.1638851909410732
 21
297.3417608430365817
 31
0.0
  0
LINE
  5
30C30
  8
0
 10
6663.1638851909410732
 20
297.3417608430365817
 30
0.0
 11
6663.1442001513660216
 21
297.3435753315653756
 31
0.0
  0
LINE
  5
30C31
  8
0
 10
6663.1442001513660216
 20
297.3435753315653756
 30
0.0
 11
6663.134357631803141
 21
297.346680310683098
 31
0.0
  0
LINE
  5
30C32
  8
0
 10
6663.1324842916437774
 20
297.3422037909833762
 30
0.0
 11
6663.1442001513087234
 21
297.3418201249431263
 31
0.0
  0
LINE
  5
30C33
  8
0
 10
6663.1442001513087234
 20
297.3418201249431263
 30
0.0
 11
6663.1638851906709533
 21
297.3399888409048799
 31
0.0
  0
LINE
  5
30C34
  8
0
 10
6663.1638851906709533
 20
297.3399888409048799
 30
0.0
 11
6663.1746511182582253
 21
297.3382965299221041
 31
0.0
  0
LINE
  5
30C35
  8
0
 10
6663.1621964812911756
 20
297.340903327891283
 30
0.0
 11
6663.1720390010077608
 21
297.3418654907545147
 31
0.0
  0
LINE
  5
30C36
  8
0
 10
6663.1720390010077608
 20
297.3418654907545147
 30
0.0
 11
6663.1917240403090545
 21
297.3409635662864048
 31
0.0
  0
LINE
  5
30C37
  8
0
 10
6663.1917240403090545
 20
297.3409635662864048
 30
0.0
 11
6663.2015665600592911
 21
297.3390864821157038
 31
0.0
  0
LINE
  5
30C38
  8
0
 10
6663.2015665600592911
 20
297.3390864821157038
 30
0.0
 11
6663.1917233544099872
 21
297.33814507732518
 31
0.0
  0
LINE
  5
30C39
  8
0
 10
6663.1917233544099872
 20
297.33814507732518
 30
0.0
 11
6663.1720390010268602
 21
297.3390601163517886
 31
0.0
  0
LINE
  5
30C3A
  8
0
 10
6663.1720390010268602
 20
297.3390601163517886
 30
0.0
 11
6663.1621964812911756
 21
297.340903327891283
 31
0.0
  0
LINE
  5
30C3B
  8
0
 10
6663.1621964813093655
 20
297.3481435168545204
 30
0.0
 11
6663.1626810996076529
 21
297.34825541975448
 31
0.0
  0
LINE
  5
30C3C
  8
0
 10
6663.1626810996076529
 20
297.34825541975448
 30
0.0
 11
6663.2010819417091625
 21
297.3465162627546192
 31
0.0
  0
LINE
  5
30C3D
  8
0
 10
6663.2010819417091625
 20
297.3465162627546192
 30
0.0
 11
6663.201566560072024
 21
297.3463600489344003
 31
0.0
  0
LINE
  5
30C3E
  8
0
 10
6663.201566560072024
 20
297.3463600489344003
 30
0.0
 11
6663.1917240403563483
 21
297.3437854979026156
 31
0.0
  0
LINE
  5
30C3F
  8
0
 10
6663.1917240403563483
 20
297.3437854979026156
 30
0.0
 11
6663.1720390010841584
 21
297.3446809819503756
 31
0.0
  0
LINE
  5
30C40
  8
0
 10
6663.1720390010841584
 20
297.3446809819503756
 30
0.0
 11
6663.1621964813093655
 21
297.3481435168545204
 31
0.0
  0
LINE
  5
30C41
  8
0
 10
6663.2195628842609949
 20
297.344565781826816
 30
0.0
 11
6663.199877850656776
 21
297.344565781826816
 31
0.0
  0
LINE
  5
30C42
  8
0
 10
6663.199877850656776
 20
297.344565781826816
 30
0.0
 11
6663.1900353311320941
 21
297.3423277411756089
 31
0.0
  0
LINE
  5
30C43
  8
0
 10
6663.1900353311320941
 20
297.3423277411756089
 30
0.0
 11
6663.1998778506076633
 21
297.3401072762546846
 31
0.0
  0
LINE
  5
30C44
  8
0
 10
6663.1998778506076633
 20
297.3401072762546846
 30
0.0
 11
6663.2195628843073791
 21
297.3401072762546846
 31
0.0
  0
ARC
  5
30C45
  8
0
 10
6662.9681006059154242
 20
297.480443385883575
 30
0.0
 40
0.0817240818100043
 50
211.4011080116123935
 51
239.2678648693693901
  0
ARC
  5
30C46
  8
0
 10
6663.0840823844118859
 20
297.6734403395146842
 30
0.0
 40
0.3068891179221304
 50
239.0685296689183872
 51
243.9537010095990865
  0
ARC
  5
30C47
  8
0
 10
6663.2335208551012329
 20
297.9835566983786066
 30
0.0
 40
0.6511429088229778
 50
246.032366085974104
 51
250.8671377616666121
  0
ARC
  5
30C48
  8
0
 10
6663.1716347282153947
 20
297.8022000745685887
 30
0.0
 40
0.4595214748845363
 50
250.7457172957813043
 51
255.538848188944911
  0
ARC
  5
30C49
  8
0
 10
6663.2693934941962652
 20
298.181265270021413
 30
0.0
 40
0.8509894796179031
 50
255.538848188944911
 51
257.955173767510928
  0
ARC
  5
30C4A
  8
0
 10
6663.188748003190085
 20
297.8033123058112892
 30
0.0
 40
0.4645284358182874
 50
257.955173767510928
 51
263.1752637926866214
  0
ARC
  5
30C4B
  8
0
 10
6663.2255953895946732
 20
298.1111931552928809
 30
0.0
 40
0.7746064056296662
 50
263.1752637926866214
 51
265.9198390131693941
  0
ARC
  5
30C4C
  8
0
 10
6663.214470689214977
 20
298.0279079699961926
 30
0.0
 40
0.6907601150270734
 50
266.3487228135819009
 51
269.6059767677165837
  0
LINE
  5
30C4D
  8
0
 10
6663.193293397747766
 20
297.3374725574930721
 30
0.0
 11
6663.1900353309256388
 21
297.3377364036359154
 31
0.0
  0
LINE
  5
30C4E
  8
0
 10
6663.1900353309256388
 20
297.3377364036359154
 30
0.0
 11
6663.1998778505485461
 21
297.3383200667209962
 31
0.0
  0
LINE
  5
30C4F
  8
0
 10
6663.1998778505485461
 20
297.3383200667209962
 30
0.0
 11
6663.2097203674593402
 21
297.3382395278546255
 31
0.0
  0
LINE
  5
30C50
  8
0
 10
6663.1998778505485461
 20
297.3383200667209962
 30
0.0
 11
6663.1998778505485461
 21
297.337302014641125
 31
0.0
  0
LINE
  5
30C51
  8
0
 10
6663.199877850656776
 20
297.344565781826816
 30
0.0
 11
6663.1998778506076633
 21
297.3401072762546846
 31
0.0
  0
LINE
  5
30C52
  8
0
 10
6663.1917240403563483
 20
297.3437854979026156
 30
0.0
 11
6663.1917240403563483
 21
297.346940077930185
 31
0.0
  0
LINE
  5
30C53
  8
0
 10
6663.1720390010841584
 20
297.3446809819503756
 30
0.0
 11
6663.1720390010841584
 21
297.3478316045731731
 31
0.0
  0
LINE
  5
30C54
  8
0
 10
6663.1917240403090545
 20
297.3409635662864048
 30
0.0
 11
6663.1917233544099872
 21
297.33814507732518
 31
0.0
  0
LINE
  5
30C55
  8
0
 10
6663.1720390010077608
 20
297.3418654907545147
 30
0.0
 11
6663.1720390010268602
 21
297.3390601163517886
 31
0.0
  0
LINE
  5
30C56
  8
0
 10
6663.1638851906709533
 20
297.3399888409048799
 30
0.0
 11
6663.1638851906709533
 21
297.3390487808450757
 31
0.0
  0
LINE
  5
30C57
  8
0
 10
6663.1442001513087234
 20
297.3418201249431263
 30
0.0
 11
6663.1442001513087234
 21
297.340875104857389
 31
0.0
  0
LINE
  5
30C58
  8
0
 10
6663.1360463410082957
 20
297.3451764240929265
 30
0.0
 11
6663.1360463410082957
 21
297.3424130676331174
 31
0.0
  0
LINE
  5
30C59
  8
0
 10
6663.1442001511859416
 20
297.3479946193676824
 30
0.0
 11
6663.1442001513660216
 21
297.3435753315653756
 31
0.0
  0
LINE
  5
30C5A
  8
0
 10
6663.1638851906709533
 20
297.3462007106843998
 30
0.0
 11
6663.1638851909410732
 21
297.3417608430365817
 31
0.0
  0
LINE
  5
30C5B
  8
0
 10
6663.1360463411647288
 20
297.3479680915352787
 30
0.0
 11
6663.1360463411647288
 21
297.3511035442430739
 31
0.0
  0
LINE
  5
30C5C
  8
0
 10
6663.116361301708821
 20
297.350679552054487
 30
0.0
 11
6663.116361301708821
 21
297.3538059831114992
 31
0.0
  0
LINE
  5
30C5D
  8
0
 10
6663.116361301708821
 20
297.3451915450544902
 30
0.0
 11
6663.1163613014377916
 21
297.3479077546961094
 31
0.0
  0
LINE
  5
30C5E
  8
0
 10
6663.1082074914338591
 20
297.346874920994594
 30
0.0
 11
6663.1082074914338591
 21
297.3458192526949802
 31
0.0
  0
LINE
  5
30C5F
  8
0
 10
6663.088689561762294
 20
297.3505572684072149
 30
0.0
 11
6663.088689561762294
 21
297.3496829330135824
 31
0.0
  0
LINE
  5
30C60
  8
0
 10
6663.1082074916148485
 20
297.3485831789192275
 30
0.0
 11
6663.108207491362009
 21
297.3529449610521738
 31
0.0
  0
LINE
  5
30C61
  8
0
 10
6663.0885224517451206
 20
297.3565834005070201
 30
0.0
 11
6663.0885224520079646
 21
297.3522645665531741
 31
0.0
  0
LINE
  5
30C62
  8
0
 10
6663.0803686418021243
 20
297.3546249293103187
 30
0.0
 11
6663.0803686421304519
 21
297.3520102629602775
 31
0.0
  0
LINE
  5
30C63
  8
0
 10
6663.0803686417411882
 20
297.3573470063773243
 30
0.0
 11
6663.0803686417411882
 21
297.3604533570382955
 31
0.0
  0
LINE
  5
30C64
  8
0
 10
6663.0606836025517623
 20
297.3619530855825133
 30
0.0
 11
6663.0606836025517623
 21
297.3650380139300182
 31
0.0
  0
LINE
  5
30C65
  8
0
 10
6663.0606836023662254
 20
297.3592660901575186
 30
0.0
 11
6663.0606836024089716
 21
297.356723122254607
 31
0.0
  0
LINE
  5
30C66
  8
0
 10
6663.0525297922567916
 20
297.3607751098140852
 30
0.0
 11
6663.0525297920721641
 21
297.3649923998572149
 31
0.0
  0
LINE
  5
30C67
  8
0
 10
6663.0328447525726006
 20
297.3705840888953276
 30
0.0
 11
6663.0328447529118421
 21
297.3664361473997246
 31
0.0
  0
LINE
  5
30C68
  8
0
 10
6663.0246909424704427
 20
297.3672158009470081
 30
0.0
 11
6663.024690942408597
 21
297.3695945059262158
 31
0.0
  0
LINE
  5
30C69
  8
0
 10
6663.0050059031082128
 20
297.376293408354627
 30
0.0
 11
6663.0050059031082128
 21
297.3740248654546008
 31
0.0
  0
LINE
  5
30C6A
  8
0
 10
6662.9968520928086946
 20
297.3787225486545935
 30
0.0
 11
6662.9968520927995996
 21
297.382714770974701
 31
0.0
  0
LINE
  5
30C6B
  8
0
 10
6662.9771670534091754
 20
297.3904442319545183
 30
0.0
 11
6662.9771670534510122
 21
297.3865551906085898
 31
0.0
  0
LINE
  5
30C6C
  8
0
 10
6662.9690132428067955
 20
297.3905819650346984
 30
0.0
 11
6662.9690132433297549
 21
297.3885585378558858
 31
0.0
  0
LINE
  5
30C6D
  8
0
 10
6662.9493282038083635
 20
297.3977190282075185
 30
0.0
 11
6662.9493282037301469
 21
297.3995805497104925
 31
0.0
  0
LINE
  5
30C6E
  8
0
 10
6663.2097202458080574
 20
297.3444868702545136
 30
0.0
 11
6663.2097203674593402
 21
297.3444868712297762
 31
0.0
  0
LINE
  5
30C6F
  8
0
 10
6664.1546022572592847
 20
286.2524028193544723
 30
0.0
 11
6662.2648384776575767
 21
286.2524028193544723
 31
0.0
  0
LINE
  5
30C70
  8
0
 10
6664.0404290288579432
 20
286.4374421894544867
 30
0.0
 11
6662.3790117060589182
 21
286.4374421894544867
 31
0.0
  0
ARC
  5
30C71
  8
0
 10
6664.0144390649584238
 20
286.4574421894545253
 30
0.0
 40
0.02
 50
270.0
 51
0.0
  0
ARC
  5
30C72
  8
0
 10
6662.4050016699584376
 20
286.4574421894545253
 30
0.0
 40
0.02
 50
180.0
 51
270.0
  0
LINE
  5
30C73
  8
0
 10
6664.1461590478311336
 20
286.4046294250210849
 30
0.0
 11
6662.2732816870848183
 21
286.4046294250210849
 31
0.0
  0
LINE
  5
30C74
  8
0
 10
6662.2732816870875467
 20
286.4046294250221081
 30
0.0
 11
6662.3790117060589182
 21
286.4374421894544867
 31
0.0
  0
LINE
  5
30C75
  8
0
 10
6662.2648384776575767
 20
286.3931686553780196
 30
0.0
 11
6662.2648384776575767
 21
286.2524028193544723
 31
0.0
  0
ARC
  5
30C76
  8
0
 10
6662.2768384776582025
 20
286.3931686553780196
 30
0.0
 40
0.012
 50
107.2414593615117013
 51
180.0
  0
LINE
  5
30C77
  8
0
 10
6662.3850016699589105
 20
286.4574421894545253
 30
0.0
 11
6662.3850016699589105
 21
295.5545714554054939
 31
0.0
  0
ARC
  5
30C78
  8
0
 10
6663.2305967800593862
 20
298.9973821819548903
 30
0.0
 40
0.6786640876659343
 50
91.7627557926490454
 51
102.2015328276038986
  0
ARC
  5
30C79
  8
0
 10
6663.1786348181285575
 20
299.2986601666912065
 30
0.0
 40
0.3734321274342047
 50
104.1792167352107015
 51
110.0898788548475977
  0
ARC
  5
30C7A
  8
0
 10
6663.1282528400070078
 20
299.4364107861748039
 30
0.0
 40
0.2267570549519452
 50
110.0898788548475977
 51
123.1405101609038013
  0
ARC
  5
30C7B
  8
0
 10
6663.1313087300650295
 20
299.4602178477858843
 30
0.0
 40
0.2090741294942854
 50
127.4124418677530031
 51
148.9230806059383099
  0
ARC
  5
30C7C
  8
0
 10
6663.2141811646515634
 20
298.804466517587116
 30
0.0
 40
0.7033211580889427
 50
90.3633995125801022
 51
102.1214596957321987
  0
ARC
  5
30C7D
  8
0
 10
6663.1398397368093356
 20
299.186090523304415
 30
0.0
 40
0.3146832531241643
 50
103.4782721244762058
 51
115.1999857094595967
  0
ARC
  5
30C7E
  8
0
 10
6663.1338141676624218
 20
299.2454667141548725
 30
0.0
 40
0.2591522252736714
 50
119.5882630587340003
 51
153.8795627109595046
  0
LINE
  5
30C7F
  8
0
 10
6663.2097204891097135
 20
297.3444868702545136
 30
0.0
 11
6663.2097203674593402
 21
297.3444868712297762
 31
0.0
  0
LINE
  5
30C80
  8
0
 10
6664.1461590478302242
 20
286.4046294250221081
 30
0.0
 11
6664.0404290288579432
 21
286.4374421894544867
 31
0.0
  0
LINE
  5
30C81
  8
0
 10
6664.1546022572592847
 20
286.3931686553780196
 30
0.0
 11
6664.1546022572592847
 21
286.2524028193544723
 31
0.0
  0
ARC
  5
30C82
  8
0
 10
6664.1426022572586589
 20
286.3931686553780196
 30
0.0
 40
0.012
 50
359.9999999999968168
 51
72.758540638488256
  0
ARC
  5
30C83
  8
0
 10
6634.3769910666387659
 20
306.4600579719690927
 30
0.0
 40
29.3946169107277484
 50
345.4697903983366132
 51
346.4400927179120799
  0
ARC
  5
30C84
  8
0
 10
6627.6384385255223606
 20
307.5700156531361813
 30
0.0
 40
36.2013623078945201
 50
345.1081895851805257
 51
346.4450669618757956
  0
ARC
  5
30C85
  8
0
 10
6645.8198803162640615
 20
302.9753607120325114
 30
0.0
 40
17.4513268804135002
 50
342.6960373840354919
 51
344.345813515950681
  0
ARC
  5
30C86
  8
0
 10
6668.2824910259505486
 20
296.0454739081815205
 30
0.0
 40
6.0562124954352221
 50
163.3115366168572109
 51
166.7588199493667105
  0
ARC
  5
30C87
  8
0
 10
6663.1742389329028811
 20
295.9926345532329037
 30
0.0
 40
2.2624652918303489
 50
90.5700353309852488
 51
94.8258808150168733
  0
ARC
  5
30C88
  8
0
 10
6663.0965955031297199
 20
296.9605839958159095
 30
0.0
 40
1.291421678590599
 50
95.0061609129631961
 51
100.4340430761683933
  0
ARC
  5
30C89
  8
0
 10
6663.0211969651436448
 20
297.3478368882488212
 30
0.0
 40
0.8969264482964304
 50
100.1773149717240017
 51
108.7782063700258988
  0
ARC
  5
30C8A
  8
0
 10
6662.8592998224776238
 20
297.8313969252762945
 30
0.0
 40
0.3869971840648196
 50
109.1307262541509004
 51
119.2897112142984071
  0
ARC
  5
30C8B
  8
0
 10
6662.7535547142297219
 20
298.0119111848051148
 30
0.0
 40
0.1778702153031187
 50
118.0287913215626929
 51
150.1689467676796994
  0
ARC
  5
30C8C
  8
0
 10
6662.6764943926336855
 20
298.0592358664840731
 30
0.0
 40
0.0875216080158115
 50
151.9503723472431886
 51
168.7887844353602134
  0
ARC
  5
30C8D
  8
0
 10
6666.9001092315611459
 20
296.9168088876684806
 30
0.0
 40
4.462713169969927
 50
164.9413979011085019
 51
168.2866369561253066
  0
ARC
  5
30C8E
  8
0
 10
6667.4621985467101695
 20
296.9975026258454136
 30
0.0
 40
5.0004459906973597
 50
170.5000541267980054
 51
173.4896267958123985
  0
ARC
  5
30C8F
  8
0
 10
6656.2966927128709358
 20
298.3022307765444907
 30
0.0
 40
6.241065178043935
 50
351.518548871605617
 51
353.2111385929434277
  0
ARC
  5
30C90
  8
0
 10
6660.4923580028307697
 20
297.6922020771409052
 30
0.0
 40
2.0013721382828669
 50
344.2428587055937896
 51
351.0760037621333822
  0
ARC
  5
30C91
  8
0
 10
6665.9816005931834297
 20
296.187928012131124
 30
0.0
 40
3.6903432035913029
 50
164.9091726418209021
 51
166.8403177495870011
  0
ARC
  5
30C92
  8
0
 10
6662.5758291881484183
 20
297.1282605661697858
 30
0.0
 40
0.1784249772961035
 50
137.6808900737017893
 51
158.5530053806942021
  0
ARC
  5
30C93
  8
0
 10
6662.6698110346305839
 20
297.0913405308589859
 30
0.0
 40
0.2793986197776477
 50
158.5530053806942021
 51
174.3382685656887929
  0
ARC
  5
30C94
  8
0
 10
6663.1629676932952862
 20
297.0432580655062793
 30
0.0
 40
0.7748935037886894
 50
174.397755257439286
 51
180.4059546061345998
  0
ARC
  5
30C95
  8
0
 10
6650.7610222867597258
 20
296.9433134058908195
 30
0.0
 40
11.6274550042149194
 50
359.3107723444812223
 51
0.4654412978789432
  0
ARC
  5
30C96
  8
0
 10
4667.1257457594192601
 20
300.387787506971506
 30
0.0
 40
1995.2651097721529823
 50
359.8612098459038862
 51
359.897072470038097
  0
LINE
  5
30C97
  8
0
 10
6662.3872857898586517
 20
297.4326527049544779
 30
0.0
 11
6662.4768811027188349
 21
297.4326527049544779
 31
0.0
  0
ARC
  5
30C98
  8
0
 10
6662.4828936374560726
 20
297.1807932197984883
 30
0.0
 40
0.2693957326780777
 50
100.2938482645995038
 51
110.7871569647148959
  0
ARC
  5
30C99
  8
0
 10
6662.600794954477351
 20
296.58489011235622
 30
0.0
 40
0.8768275404514735
 50
97.934670728457931
 51
100.9157928664371013
  0
ARC
  5
30C9A
  8
0
 10
6663.8215044828857572
 20
269.1880378132502187
 30
0.0
 40
28.46038118808411
 50
91.2317244672261154
 51
91.4079806466054237
  0
ARC
  5
30C9B
  8
0
 10
6663.2022307657862257
 20
296.0076639882433938
 30
0.0
 40
1.634123462098483
 50
92.8074366937078281
 51
94.6872320044979574
  0
ARC
  5
30C9C
  8
0
 10
6663.1884817117816056
 20
296.1753545606185867
 30
0.0
 40
1.4658701870947031
 50
94.6872320044979574
 51
97.4761325668745826
  0
ARC
  5
30C9D
  8
0
 10
6663.1518065907248456
 20
296.45482933367839
 30
0.0
 40
1.183999271104121
 50
97.4761325668745826
 51
103.667920820650906
  0
ARC
  5
30C9E
  8
0
 10
6663.0557613223891167
 20
296.8604255556494991
 30
0.0
 40
0.7671980830446602
 50
103.8557159920557069
 51
110.0183469319067058
  0
ARC
  5
30C9F
  8
0
 10
6662.9084131403797073
 20
297.2488770709912274
 30
0.0
 40
0.3518177783594772
 50
109.1273672157496009
 51
123.5000184620944026
  0
ARC
  5
30CA0
  8
0
 10
6662.7837046695485697
 20
297.4328708071071787
 30
0.0
 40
0.1295797595850211
 50
122.4212435744997975
 51
143.9211689923492941
  0
ARC
  5
30CA1
  8
0
 10
6662.7268479591239156
 20
297.4722219562930832
 30
0.0
 40
0.0604772421989348
 50
142.3303880612415071
 51
173.1907325938072972
  0
ARC
  5
30CA2
  8
0
 10
6662.7407360880006308
 20
297.4739996946128144
 30
0.0
 40
0.0741351833960013
 50
175.8285225184345109
 51
198.3348100337067876
  0
ARC
  5
30CA3
  8
0
 10
6662.7384178542533846
 20
297.4749390574307881
 30
0.0
 40
0.072248315786281
 50
199.6203722229641073
 51
220.3271645672479053
  0
ARC
  5
30CA4
  8
0
 10
6662.823704317785996
 20
297.5616199858441178
 30
0.0
 40
0.1936694707529362
 50
223.5502896561791033
 51
248.5729624498277133
  0
ARC
  5
30CA5
  8
0
 10
6663.0479797177513319
 20
298.1143786524784218
 30
0.0
 40
0.7901844518323725
 50
248.0768011847493142
 51
261.2494672113319893
  0
ARC
  5
30CA6
  8
0
 10
6663.1270087013017474
 20
298.4347267060289255
 30
0.0
 40
1.1192120906503009
 50
259.7455669217357013
 51
270.1010020192143202
  0
ARC
  5
30CA7
  8
0
 10
6663.0946344487683746
 20
291.1442656503447211
 30
0.0
 40
6.1713462861304382
 50
88.9314617321102645
 51
89.6811132082798537
  0
ARC
  5
30CA8
  8
0
 10
6734.7568892959598088
 20
310.1687364157434104
 30
0.0
 40
73.2004145506216872
 50
189.8720134551151091
 51
189.9928696872775049
  0
ARC
  5
30CA9
  8
0
 10
6657.9079417982111408
 20
296.8266406471101959
 30
0.0
 40
4.7982197824409232
 50
9.5012594782743687
 51
11.4228743081019708
  0
ARC
  5
30CAA
  8
0
 10
6661.5948421605098702
 20
297.5763540463054824
 30
0.0
 40
1.0358796703044411
 50
11.1641571232529309
 51
17.6337511338549291
  0
ARC
  5
30CAB
  8
0
 10
6663.3192676089729503
 20
291.2704349963021855
 30
0.0
 40
6.8115553643027402
 50
90.9215024856894303
 51
92.2953001326198148
  0
ARC
  5
30CAC
  8
0
 10
6663.1695256783768855
 20
295.9507167765999043
 30
0.0
 40
2.129367449190164
 50
93.3130648704565431
 51
98.2364765993116862
  0
ARC
  5
30CAD
  8
0
 10
6663.0943702098511494
 20
296.469917943677217
 30
0.0
 40
1.6047550243051241
 50
98.2364765993116862
 51
102.6715018974066993
  0
ARC
  5
30CAE
  8
0
 10
6662.8424855026114528
 20
297.5902164030514996
 30
0.0
 40
0.456489138798733
 50
102.6715018974066993
 51
111.8527556531872023
  0
ARC
  5
30CAF
  8
0
 10
6662.7299088647523604
 20
297.8709282043720918
 30
0.0
 40
0.1540447392932776
 50
111.8527556531872023
 51
124.681034721850196
  0
ARC
  5
30CB0
  8
0
 10
6662.75963252663405
 20
297.8510093257082758
 30
0.0
 40
0.1877957362442328
 50
128.683718265822705
 51
147.8826585152347945
  0
ARC
  5
30CB1
  8
0
 10
6662.6806263216767547
 20
297.9024680927444138
 30
0.0
 40
0.0935355876920329
 50
148.8502557265400128
 51
169.3297024938015056
  0
ARC
  5
30CB2
  8
0
 10
6841.2912479934620933
 20
257.7416602508121173
 30
0.0
 40
183.1635324950021015
 50
167.3287551565121873
 51
167.3477563551367098
  0
ARC
  5
30CB3
  8
0
 10
6653.1917673162042774
 20
300.0144139873257245
 30
0.0
 40
9.627652637968497
 50
346.512607702709488
 51
347.0724119198521862
  0
ARC
  5
30CB4
  8
0
 10
6664.7173102880469742
 20
297.2745192643898235
 30
0.0
 40
2.2191873881942632
 50
167.1267488925959128
 51
171.9366327030276977
  0
ARC
  5
30CB5
  8
0
 10
6669.1989082500085715
 20
296.642591389623874
 30
0.0
 40
6.7451182623086368
 50
171.9616523351934916
 51
173.4287266079192023
  0
ARC
  5
30CB6
  8
0
 10
6652.313820995344031
 20
298.5109986256425145
 30
0.0
 40
10.2431405935501108
 50
351.8666514650724935
 51
353.8548582528517272
  0
ARC
  5
30CB7
  8
0
 10
6737.5100169211627872
 20
284.4413226482841992
 30
0.0
 40
76.1097441728092861
 50
170.4551383205673005
 51
170.6693653232692895
  0
ARC
  5
30CB8
  8
0
 10
6672.2323661140790136
 20
295.1475689760491719
 30
0.0
 40
9.9599697473059354
 50
170.560260651443798
 51
171.2859471925634125
  0
ARC
  5
30CB9
  8
0
 10
6663.1480099735608746
 20
295.5417931318141882
 30
0.0
 40
2.0272341884211511
 50
84.2269889609826379
 51
88.2556078483207642
  0
ARC
  5
30CBA
  8
0
 10
6663.2491931479989944
 20
296.8003063077588877
 30
0.0
 40
0.7653652227949994
 50
76.1520301533666526
 51
82.2861616918491023
  0
ARC
  5
30CBB
  8
0
 10
6663.3270980972783946
 20
297.1163360034680068
 30
0.0
 40
0.4398749008309595
 50
67.4239000816450158
 51
76.1520301533666526
  0
ARC
  5
30CBC
  8
0
 10
6663.4165089402004014
 20
297.3313845549358234
 30
0.0
 40
0.2069796919483002
 50
54.9254764811554281
 51
67.4239000816450158
  0
ARC
  5
30CBD
  8
0
 10
6663.484137252092296
 20
297.4277009168980044
 30
0.0
 40
0.0892918414668551
 50
37.6847932240700914
 51
54.9254764811554281
  0
ARC
  5
30CBE
  8
0
 10
6663.5195342444703783
 20
297.4550438180302194
 30
0.0
 40
0.0445639831260654
 50
2.6359974722080102
 51
37.6847932240700914
  0
ARC
  5
30CBF
  8
0
 10
6663.4745031739075785
 20
297.4620163583970225
 30
0.0
 40
0.0896831218962085
 50
304.7647854161838268
 51
356.8532554422151861
  0
ARC
  5
30CC0
  8
0
 10
6663.3707355122369336
 20
297.5964811027640167
 30
0.0
 40
0.2594567615308994
 50
282.547135838667316
 51
306.6581134355192262
  0
ARC
  5
30CC1
  8
0
 10
6663.2553435845793501
 20
297.9996695773040756
 30
0.0
 40
0.6785465997100771
 50
278.2297775543589182
 51
284.6625031903366221
  0
ARC
  5
30CC2
  8
0
 10
6663.2155358199051989
 20
298.2749029858970857
 30
0.0
 40
0.9566438620736057
 50
273.7087274313366265
 51
278.2297775543589182
  0
ARC
  5
30CC3
  8
0
 10
6662.295186309204837
 20
326.9350382720097059
 30
0.0
 40
29.6310599813273114
 50
271.7686597936527164
 51
271.8996252125169804
  0
ARC
  5
30CC4
  8
0
 10
6663.1874079690423969
 20
296.2375886638677116
 30
0.0
 40
1.386218543090886
 50
82.6060116778678264
 51
89.0777345507175085
  0
ARC
  5
30CC5
  8
0
 10
6663.2693316225286253
 20
296.9631022510097864
 30
0.0
 40
0.6563069711282044
 50
72.34913709657026
 51
81.5474326447158262
  0
ARC
  5
30CC6
  8
0
 10
6663.3872164374715794
 20
297.3335808523850119
 30
0.0
 40
0.267525253873722
 50
56.1836876969336103
 51
72.34913709657026
  0
ARC
  5
30CC7
  8
0
 10
6663.4949639639971792
 20
297.4944331017852051
 30
0.0
 40
0.0739200483419148
 50
36.1275027404846725
 51
56.1836876969336103
  0
ARC
  5
30CC8
  8
0
 10
6663.5082260620411034
 20
297.5041137445339245
 30
0.0
 40
0.0575006059462297
 50
19.9919406600302985
 51
36.1275027404846725
  0
ARC
  5
30CC9
  8
0
 10
6663.5316125098506745
 20
297.5126219902418256
 30
0.0
 40
0.0326145418510164
 50
0.0
 51
19.9919406600302985
  0
LINE
  5
30CCA
  8
0
 10
6663.564227051700982
 20
297.5126219902418256
 30
0.0
 11
6663.5640510732082475
 21
297.4570933426547867
 31
0.0
  0
ARC
  5
30CCB
  8
0
 10
6663.1755104109879539
 20
295.0936509104246284
 30
0.0
 40
2.5328963733466252
 50
86.8900411847165657
 51
89.226124786861277
  0
ARC
  5
30CCC
  8
0
 10
6663.2254432880117747
 20
296.3396280288527009
 30
0.0
 40
1.2861676034159839
 50
78.5290777308601093
 51
86.0998349825786988
  0
ARC
  5
30CCD
  8
0
 10
6663.3471267614568205
 20
296.9392789645875723
 30
0.0
 40
0.6742949757905377
 50
70.5474159094633677
 51
78.5290777308601093
  0
ARC
  5
30CCE
  8
0
 10
6663.4382911370721558
 20
297.197397879702919
 30
0.0
 40
0.4005499891301677
 50
59.5987072511114704
 51
70.5474159094633677
  0
ARC
  5
30CCF
  8
0
 10
6663.5700419050072014
 20
297.4219500185773768
 30
0.0
 40
0.1402003628105712
 50
39.7030837315019198
 51
59.5987072511114704
  0
ARC
  5
30CD0
  8
0
 10
6663.6313610298257117
 20
297.4728637120941244
 30
0.0
 40
0.0604994264548133
 50
358.5571282036279968
 51
39.7030837315019198
  0
ARC
  5
30CD1
  8
0
 10
6663.6160493488778229
 20
297.48430365698988
 30
0.0
 40
0.0768925474421546
 50
305.3614758249731835
 51
350.2941375271835227
  0
ARC
  5
30CD2
  8
0
 10
6663.462725567029338
 20
297.6912798986342068
 30
0.0
 40
0.3344600134337566
 50
286.0704181500116192
 51
306.2615995038552228
  0
ARC
  5
30CD3
  8
0
 10
6663.291567697233404
 20
298.2212959956606255
 30
0.0
 40
0.8913207040457963
 50
276.9018713260858817
 51
287.2115679691173113
  0
ARC
  5
30CD4
  8
0
 10
6663.495319415222184
 20
297.4965686884657998
 30
0.0
 40
0.0997287812767319
 50
37.291948517725352
 51
62.3870524364733399
  0
ARC
  5
30CD5
  8
0
 10
6663.5385212238597887
 20
297.5294700541414841
 30
0.0
 40
0.0454250416915252
 50
14.6534011557248895
 51
37.291948517725352
  0
ARC
  5
30CD6
  8
0
 10
6663.5456559966323766
 20
297.5313356259533748
 30
0.0
 40
0.038050399958686
 50
340.9567211042756867
 51
14.6534011557248895
  0
ARC
  5
30CD7
  8
0
 10
6663.5306734358646281
 20
297.5365071976406171
 30
0.0
 40
0.0539003930454655
 50
308.4208527852462112
 51
340.9567211042756867
  0
ARC
  5
30CD8
  8
0
 10
6663.5942031151780611
 20
297.5395942131075913
 30
0.0
 40
0.0695609141357355
 50
311.4802880970077013
 51
349.7437342777931235
  0
ARC
  5
30CD9
  8
0
 10
6663.5000695150301908
 20
297.6460666817106926
 30
0.0
 40
0.211678897682025
 50
297.6082891655535718
 51
311.4802880970077013
  0
ARC
  5
30CDA
  8
0
 10
6663.4471712193762869
 20
297.7472161443362211
 30
0.0
 40
0.3258254853340143
 50
290.6338486304520075
 51
297.6082891655535718
  0
ARC
  5
30CDB
  8
0
 10
6663.6021054602006188
 20
297.5344057782277787
 30
0.0
 40
0.095351325373299
 50
309.2648197131067036
 51
334.5922228331243105
  0
ARC
  5
30CDC
  8
0
 10
6663.5218607160313695
 20
297.632568608184215
 30
0.0
 40
0.222139180280781
 50
297.3089667533715215
 51
309.2648197131067036
  0
ARC
  5
30CDD
  8
0
 10
6663.4303642929671696
 20
297.8097716311144723
 30
0.0
 40
0.4215696362525371
 50
285.4021070931743225
 51
297.3089667533715215
  0
LINE
  5
30CDE
  8
0
 10
6663.2277210971806198
 20
297.5117366588152095
 30
0.0
 11
6663.2277210971806198
 21
297.4850506276112014
 31
0.0
  0
LINE
  5
30CDF
  8
0
 10
6663.2277207090646698
 20
297.4707601819865204
 30
0.0
 11
6663.2277207090646698
 21
297.4478918050270977
 31
0.0
  0
LINE
  5
30CE0
  8
0
 10
6663.2277204546098801
 20
297.4359445435401881
 30
0.0
 11
6663.2277204546098801
 21
297.416509726743584
 31
0.0
  0
LINE
  5
30CE1
  8
0
 10
6663.2474061365810485
 20
297.5127164455711863
 30
0.0
 11
6663.2474061365810485
 21
297.4860014547352876
 31
0.0
  0
LINE
  5
30CE2
  8
0
 10
6663.2474057484641889
 20
297.4716958024849873
 30
0.0
 11
6663.2474057484641889
 21
297.448807558264491
 31
0.0
  0
LINE
  5
30CE3
  8
0
 10
6663.2474054940103088
 20
297.4368500333454222
 30
0.0
 11
6663.2474054940103088
 21
297.4174022166719737
 31
0.0
  0
LINE
  5
30CE4
  8
0
 10
6663.2555629412063354
 20
297.4042960002860241
 30
0.0
 11
6663.2555629412063354
 21
297.4221264212466735
 31
0.0
  0
LINE
  5
30CE5
  8
0
 10
6663.2555633543943259
 20
297.4329956788538993
 30
0.0
 11
6663.2555633543943259
 21
297.4541361220291265
 31
0.0
  0
LINE
  5
30CE6
  8
0
 10
6663.2555639949569013
 20
297.4672452893732952
 30
0.0
 11
6663.2555639949569013
 21
297.4920018714011007
 31
0.0
  0
LINE
  5
30CE7
  8
0
 10
6663.255555544084018
 20
297.5084782426939114
 30
0.0
 11
6663.255555544084018
 21
297.5205095668126205
 31
0.0
  0
LINE
  5
30CE8
  8
0
 10
6663.275247980606764
 20
297.4060711436953852
 30
0.0
 11
6663.275247980606764
 21
297.4239219293859833
 31
0.0
  0
LINE
  5
30CE9
  8
0
 10
6663.275248393793845
 20
297.4348078064517154
 30
0.0
 11
6663.275248393793845
 21
297.4559810656693912
 31
0.0
  0
LINE
  5
30CEA
  8
0
 10
6663.2752490343564205
 20
297.4691156450571157
 30
0.0
 11
6663.2752490343564205
 21
297.4939208963755277
 31
0.0
  0
LINE
  5
30CEB
  8
0
 10
6663.2752405834853562
 20
297.5104343373963047
 30
0.0
 11
6663.2752405834853562
 21
297.5194043473309193
 31
0.0
  0
LINE
  5
30CEC
  8
0
 10
6663.2834059152701229
 20
297.4207320094441229
 30
0.0
 11
6663.2834059152701229
 21
297.4402279260211799
 31
0.0
  0
LINE
  5
30CED
  8
0
 10
6663.2834067127178059
 20
297.4522251701213236
 30
0.0
 11
6663.2834067127178059
 21
297.4751869764945127
 31
0.0
  0
LINE
  5
30CEE
  8
0
 10
6663.283407130190426
 20
297.4903702769302072
 30
0.0
 11
6663.283407130190426
 21
297.5171926130597058
 31
0.0
  0
LINE
  5
30CEF
  8
0
 10
6663.3030909546696421
 20
297.423434768935806
 30
0.0
 11
6663.3030909546696421
 21
297.4429708176049871
 31
0.0
  0
LINE
  5
30CF0
  8
0
 10
6663.3030917521164156
 20
297.4549997698309767
 30
0.0
 11
6663.3030917521164156
 21
297.4780230162529051
 31
0.0
  0
LINE
  5
30CF1
  8
0
 10
6663.3030921695908546
 20
297.4932533982042742
 30
0.0
 11
6663.3030921695908546
 21
297.5171138148111254
 31
0.0
  0
LINE
  5
30CF2
  8
0
 10
6663.3112507622518024
 20
297.4993071527035227
 30
0.0
 11
6663.3112507622518024
 21
297.4743655829360023
 31
0.0
  0
LINE
  5
30CF3
  8
0
 10
6663.3112493901044218
 20
297.4611566704051029
 30
0.0
 11
6663.3112493901044218
 21
297.4398916304576801
 31
0.0
  0
LINE
  5
30CF4
  8
0
 10
6663.3112485085057415
 20
297.4289571460085995
 30
0.0
 11
6663.3112485085057415
 21
297.4110494561433029
 31
0.0
  0
LINE
  5
30CF5
  8
0
 10
6663.330934429402987
 20
297.4435692236298223
 30
0.0
 11
6663.330934429402987
 21
297.4649028920088085
 31
0.0
  0
LINE
  5
30CF6
  8
0
 10
6663.3309358015512771
 20
297.4781650269137003
 30
0.0
 11
6663.3309358015512771
 21
297.5032087207073914
 31
0.0
  0
LINE
  5
30CF7
  8
0
 10
6663.3390921503651043
 20
297.4301901977007105
 30
0.0
 11
6663.3390921503651043
 21
297.44982672755458
 31
0.0
  0
LINE
  5
30CF8
  8
0
 10
6663.3390936046416755
 20
297.4619387480565251
 30
0.0
 11
6663.3390936046416755
 21
297.485116081290812
 31
0.0
  0
LINE
  5
30CF9
  8
0
 10
6663.3390943728509228
 20
297.5004664845449156
 30
0.0
 11
6663.3390943728509228
 21
297.5128395608048208
 31
0.0
  0
LINE
  5
30CFA
  8
0
 10
6663.358779412252261
 20
297.5098302147973754
 30
0.0
 11
6663.358779412252261
 21
297.5053789633154793
 31
0.0
  0
LINE
  5
30CFB
  8
0
 10
6663.3587786440421041
 20
297.4899448078937212
 30
0.0
 11
6663.3587786440421041
 21
297.4666584532873799
 31
0.0
  0
LINE
  5
30CFC
  8
0
 10
6663.3587771897628045
 20
297.454490287853389
 30
0.0
 11
6663.3587771897628045
 21
297.4347828097533011
 31
0.0
  0
LINE
  5
30CFD
  8
0
 10
6663.3668652695487253
 20
297.5084160435545186
 30
0.0
 11
6663.3668652695487253
 21
297.4879151823894858
 31
0.0
  0
LINE
  5
30CFE
  8
0
 10
6663.3669365940049829
 20
297.4737083451603894
 30
0.0
 11
6663.3669365940049829
 21
297.4522121333541804
 31
0.0
  0
LINE
  5
30CFF
  8
0
 10
6663.366935115996057
 20
297.4411569986536961
 30
0.0
 11
6663.366935115996057
 21
297.4231063281599745
 31
0.0
  0
LINE
  5
30D00
  8
0
 10
6663.3947221148810058
 20
297.5017118352271268
 30
0.0
 11
6663.3947221148810058
 21
297.4781750018054822
 31
0.0
  0
LINE
  5
30D01
  8
0
 10
6663.394779865628152
 20
297.4650400640417729
 30
0.0
 11
6663.394779865628152
 21
297.4451700409878185
 31
0.0
  0
LINE
  5
30D02
  8
0
 10
6663.414407154282344
 20
297.4979032717221799
 30
0.0
 11
6663.414407154282344
 21
297.4849993345176813
 31
0.0
  0
LINE
  5
30D03
  8
0
 10
6663.4144649050276712
 20
297.4717779020693911
 30
0.0
 11
6663.4144649050276712
 21
297.4517988694581163
 31
0.0
  0
LINE
  5
30D04
  8
0
 10
6663.4225886421081668
 20
297.4931308116808282
 30
0.0
 11
6663.4225886421081668
 21
297.4712728793546148
 31
0.0
  0
LINE
  5
30D05
  8
0
 10
6663.4226235726346204
 20
297.4591120648819924
 30
0.0
 11
6663.4226235726346204
 21
297.4408386809392937
 31
0.0
  0
LINE
  5
30D06
  8
0
 10
6663.4422736814076416
 20
297.4894233921705791
 30
0.0
 11
6663.4422736814076416
 21
297.4791073381333035
 31
0.0
  0
LINE
  5
30D07
  8
0
 10
6663.4423086119340951
 20
297.4668627733706785
 30
0.0
 11
6663.4423086119340951
 21
297.4484872877833936
 31
0.0
  0
LINE
  5
30D08
  8
0
 10
6663.2474061365437592
 20
297.4860014546828779
 30
0.0
 11
6663.2572486562048653
 21
297.4997855612992907
 31
0.0
  0
LINE
  5
30D09
  8
0
 10
6663.2572486562048653
 20
297.4997855612992907
 30
0.0
 11
6663.2474061365137459
 21
297.5127164455678894
 31
0.0
  0
LINE
  5
30D0A
  8
0
 10
6663.2474061365137459
 20
297.5127164455678894
 30
0.0
 11
6663.2277210972069952
 21
297.5117366588165737
 31
0.0
  0
LINE
  5
30D0B
  8
0
 10
6663.2277210972069952
 20
297.5117366588165737
 30
0.0
 11
6663.217878577484953
 21
297.4978555963293729
 31
0.0
  0
LINE
  5
30D0C
  8
0
 10
6663.217878577484953
 20
297.4978555963293729
 30
0.0
 11
6663.2277210971351451
 21
297.4850506276703186
 31
0.0
  0
LINE
  5
30D0D
  8
0
 10
6663.2277210971351451
 20
297.4850506276703186
 30
0.0
 11
6663.2474061365810485
 21
297.4860014547352876
 31
0.0
  0
LINE
  5
30D0E
  8
0
 10
6663.2572482680916437
 20
297.4606848736137863
 30
0.0
 11
6663.2474057484278092
 21
297.4716958025246072
 31
0.0
  0
LINE
  5
30D0F
  8
0
 10
6663.2474057484278092
 20
297.4716958025246072
 30
0.0
 11
6663.2277207090646698
 21
297.4707601819865204
 31
0.0
  0
LINE
  5
30D10
  8
0
 10
6663.2277207090646698
 20
297.4707601819865204
 30
0.0
 11
6663.2178781894272106
 21
297.4588338174993964
 31
0.0
  0
LINE
  5
30D11
  8
0
 10
6663.2178781894272106
 20
297.4588338174993964
 30
0.0
 11
6663.2277207090646698
 21
297.4478918050270977
 31
0.0
  0
LINE
  5
30D12
  8
0
 10
6663.2277207090646698
 20
297.4478918050270977
 30
0.0
 11
6663.2474057483450451
 21
297.4488075582589204
 31
0.0
  0
LINE
  5
30D13
  8
0
 10
6663.2474057483450451
 20
297.4488075582589204
 30
0.0
 11
6663.2572482680916437
 21
297.4606848736137863
 31
0.0
  0
LINE
  5
30D14
  8
0
 10
6663.2572480136595914
 20
297.4275620413122283
 30
0.0
 11
6663.2474054940103088
 21
297.4368500333454222
 31
0.0
  0
LINE
  5
30D15
  8
0
 10
6663.2474054940103088
 20
297.4368500333454222
 30
0.0
 11
6663.2277204546389839
 21
297.4359445435414955
 31
0.0
  0
LINE
  5
30D16
  8
0
 10
6663.2277204546389839
 20
297.4359445435414955
 30
0.0
 11
6663.2178779348887474
 21
297.4257642007561913
 31
0.0
  0
LINE
  5
30D17
  8
0
 10
6663.2178779348887474
 20
297.4257642007561913
 30
0.0
 11
6663.2277204546098801
 21
297.416509726743584
 31
0.0
  0
LINE
  5
30D18
  8
0
 10
6663.2277204546098801
 20
297.416509726743584
 30
0.0
 11
6663.247405493880251
 21
297.4174022166661189
 31
0.0
  0
LINE
  5
30D19
  8
0
 10
6663.247405493880251
 20
297.4174022166661189
 30
0.0
 11
6663.2572480135859223
 21
297.4275620412166745
 31
0.0
  0
LINE
  5
30D1A
  8
0
 10
6663.2808004756961964
 20
297.5190174698909118
 30
0.0
 11
6663.2752405834853562
 21
297.5104343373963047
 31
0.0
  0
LINE
  5
30D1B
  8
0
 10
6663.2752405834853562
 20
297.5104343373963047
 30
0.0
 11
6663.2555555442077093
 21
297.5084782427061896
 31
0.0
  0
LINE
  5
30D1C
  8
0
 10
6663.2555555442077093
 20
297.5084782427061896
 30
0.0
 11
6663.2463701609449345
 21
297.5208907391710227
 31
0.0
  0
LINE
  5
30D1D
  8
0
 10
6663.2850915539793277
 20
297.4824256492207724
 30
0.0
 11
6663.2752490342418241
 21
297.4939208963642727
 31
0.0
  0
LINE
  5
30D1E
  8
0
 10
6663.2752490342418241
 20
297.4939208963642727
 30
0.0
 11
6663.2555639949569013
 21
297.4920018714011007
 31
0.0
  0
LINE
  5
30D1F
  8
0
 10
6663.2555639949569013
 20
297.4920018714011007
 30
0.0
 11
6663.2457214753403605
 21
297.4786371867601815
 31
0.0
  0
LINE
  5
30D20
  8
0
 10
6663.2457214753403605
 20
297.4786371867601815
 30
0.0
 11
6663.2555639949496253
 21
297.4672452893801164
 31
0.0
  0
LINE
  5
30D21
  8
0
 10
6663.2555639949496253
 20
297.4672452893801164
 30
0.0
 11
6663.2752490343564205
 21
297.4691156450571157
 31
0.0
  0
LINE
  5
30D22
  8
0
 10
6663.2752490343564205
 20
297.4691156450571157
 30
0.0
 11
6663.2850915540047936
 21
297.4824256491929191
 31
0.0
  0
LINE
  5
30D23
  8
0
 10
6663.2850909134722315
 20
297.4462895463594236
 30
0.0
 11
6663.2752483939220838
 21
297.4559810655428009
 31
0.0
  0
LINE
  5
30D24
  8
0
 10
6663.2752483939220838
 20
297.4559810655428009
 30
0.0
 11
6663.2555633543943259
 21
297.4541361220291265
 31
0.0
  0
LINE
  5
30D25
  8
0
 10
6663.2555633543943259
 20
297.4541361220291265
 30
0.0
 11
6663.2457208347368578
 21
297.4426329004223817
 31
0.0
  0
LINE
  5
30D26
  8
0
 10
6663.2457208347368578
 20
297.4426329004223817
 30
0.0
 11
6663.2555633543943259
 21
297.4329956788538993
 31
0.0
  0
LINE
  5
30D27
  8
0
 10
6663.2555633543943259
 20
297.4329956788538993
 30
0.0
 11
6663.2752483939102603
 21
297.4348078065851837
 31
0.0
  0
LINE
  5
30D28
  8
0
 10
6663.2752483939102603
 20
297.4348078065851837
 30
0.0
 11
6663.2850909134722315
 21
297.4462895463594236
 31
0.0
  0
LINE
  5
30D29
  8
0
 10
6663.2850905003369917
 20
297.415882506113519
 30
0.0
 11
6663.275247980606764
 21
297.4239219293859833
 31
0.0
  0
LINE
  5
30D2A
  8
0
 10
6663.275247980606764
 20
297.4239219293859833
 30
0.0
 11
6663.2555629412063354
 21
297.4221264212466735
 31
0.0
  0
LINE
  5
30D2B
  8
0
 10
6663.2555629412063354
 20
297.4221264212466735
 30
0.0
 11
6663.2457204215488673
 21
297.4123120142186281
 31
0.0
  0
LINE
  5
30D2C
  8
0
 10
6663.2457204215488673
 20
297.4123120142186281
 30
0.0
 11
6663.2555629412063354
 21
297.4042960002860241
 31
0.0
  0
LINE
  5
30D2D
  8
0
 10
6663.2555629412063354
 20
297.4042960002860241
 30
0.0
 11
6663.2752479805867551
 21
297.4060711436936231
 31
0.0
  0
LINE
  5
30D2E
  8
0
 10
6663.2752479805867551
 20
297.4060711436936231
 30
0.0
 11
6663.285090500361548
 21
297.4158825060936238
 31
0.0
  0
LINE
  5
30D2F
  8
0
 10
6663.3057643608599392
 20
297.5168476294090283
 30
0.0
 11
6663.3129346893010734
 21
297.5081206473356019
 31
0.0
  0
LINE
  5
30D30
  8
0
 10
6663.3129346893010734
 20
297.5081206473356019
 30
0.0
 11
6663.3030921695772122
 21
297.493253398202512
 31
0.0
  0
LINE
  5
30D31
  8
0
 10
6663.3030921695772122
 20
297.493253398202512
 30
0.0
 11
6663.2834071302077064
 21
297.4903702769328788
 31
0.0
  0
LINE
  5
30D32
  8
0
 10
6663.2834071302077064
 20
297.4903702769328788
 30
0.0
 11
6663.2735646104993066
 21
297.5022665942344133
 31
0.0
  0
LINE
  5
30D33
  8
0
 10
6663.2735646104993066
 20
297.5022665942344133
 30
0.0
 11
6663.283407130190426
 21
297.5171926130597058
 31
0.0
  0
LINE
  5
30D34
  8
0
 10
6663.283407130190426
 20
297.5171926130597058
 30
0.0
 11
6663.2907521042134249
 21
297.5182374505736789
 31
0.0
  0
LINE
  5
30D35
  8
0
 10
6663.312934271721133
 20
297.4678882436988943
 30
0.0
 11
6663.3030917521164156
 21
297.4780230162529051
 31
0.0
  0
LINE
  5
30D36
  8
0
 10
6663.3030917521164156
 20
297.4780230162529051
 30
0.0
 11
6663.2834067127496382
 21
297.4751869764992875
 31
0.0
  0
LINE
  5
30D37
  8
0
 10
6663.2834067127496382
 20
297.4751869764992875
 30
0.0
 11
6663.2735641930376005
 21
297.4622785515605869
 31
0.0
  0
LINE
  5
30D38
  8
0
 10
6663.2735641930376005
 20
297.4622785515605869
 30
0.0
 11
6663.2834067126932496
 21
297.4522251701459936
 31
0.0
  0
LINE
  5
30D39
  8
0
 10
6663.2834067126932496
 20
297.4522251701459936
 30
0.0
 11
6663.3030917521073206
 21
297.4549997698294987
 31
0.0
  0
LINE
  5
30D3A
  8
0
 10
6663.3030917521073206
 20
297.4549997698294987
 30
0.0
 11
6663.3129342717884356
 21
297.467888243682296
 31
0.0
  0
LINE
  5
30D3B
  8
0
 10
6663.3129334743216532
 20
297.4345547426295866
 30
0.0
 11
6663.3030909546696421
 21
297.4429708176049871
 31
0.0
  0
LINE
  5
30D3C
  8
0
 10
6663.3030909546696421
 20
297.4429708176049871
 30
0.0
 11
6663.2834059152701229
 21
297.4402279260211799
 31
0.0
  0
LINE
  5
30D3D
  8
0
 10
6663.2834059152701229
 20
297.4402279260211799
 30
0.0
 11
6663.2735696611543972
 21
297.4291039415837758
 31
0.0
  0
LINE
  5
30D3E
  8
0
 10
6663.2735696611543972
 20
297.4291039415837758
 30
0.0
 11
6663.2834059152901318
 21
297.4207320094469083
 31
0.0
  0
LINE
  5
30D3F
  8
0
 10
6663.2834059152901318
 20
297.4207320094469083
 30
0.0
 11
6663.3030909546696421
 21
297.423434768935806
 31
0.0
  0
LINE
  5
30D40
  8
0
 10
6663.3030909546696421
 20
297.423434768935806
 30
0.0
 11
6663.3129334743307481
 21
297.4345547426077019
 31
0.0
  0
LINE
  5
30D41
  8
0
 10
6663.3407760675181635
 20
297.425435619347013
 30
0.0
 11
6663.3309335479043511
 21
297.4326000243901262
 31
0.0
  0
LINE
  5
30D42
  8
0
 10
6663.3309335479043511
 20
297.4326000243901262
 30
0.0
 11
6663.3112485085057415
 21
297.4289571460085995
 31
0.0
  0
LINE
  5
30D43
  8
0
 10
6663.3112485085057415
 20
297.4289571460085995
 30
0.0
 11
6663.3014059888082556
 21
297.418192610737492
 31
0.0
  0
LINE
  5
30D44
  8
0
 10
6663.3014059888082556
 20
297.418192610737492
 30
0.0
 11
6663.3112485085057415
 21
297.4110494561433029
 31
0.0
  0
LINE
  5
30D45
  8
0
 10
6663.3112485085057415
 20
297.4110494561433029
 30
0.0
 11
6663.3309335478061257
 21
297.4146498357129076
 31
0.0
  0
LINE
  5
30D46
  8
0
 10
6663.3309335478061257
 20
297.4146498357129076
 30
0.0
 11
6663.3407760675527243
 21
297.4254356193238209
 31
0.0
  0
LINE
  5
30D47
  8
0
 10
6663.3407769491877843
 20
297.4560792234311748
 30
0.0
 11
6663.330934429402987
 21
297.4649028920088085
 31
0.0
  0
LINE
  5
30D48
  8
0
 10
6663.330934429402987
 20
297.4649028920088085
 30
0.0
 11
6663.3112493900371192
 21
297.4611566703205767
 31
0.0
  0
LINE
  5
30D49
  8
0
 10
6663.3112493900371192
 20
297.4611566703205767
 30
0.0
 11
6663.3014068703605517
 21
297.4486562193220038
 31
0.0
  0
LINE
  5
30D4A
  8
0
 10
6663.3014068703605517
 20
297.4486562193220038
 30
0.0
 11
6663.3112493899598121
 21
297.439891630585123
 31
0.0
  0
LINE
  5
30D4B
  8
0
 10
6663.3112493899598121
 20
297.439891630585123
 30
0.0
 11
6663.330934429402987
 21
297.4435692236298223
 31
0.0
  0
LINE
  5
30D4C
  8
0
 10
6663.330934429402987
 20
297.4435692236298223
 30
0.0
 11
6663.3407769491659565
 21
297.4560792234003088
 31
0.0
  0
LINE
  5
30D4D
  8
0
 10
6663.3407783212696813
 20
297.4925780323040954
 30
0.0
 11
6663.3309358015876569
 21
297.5032087206669758
 31
0.0
  0
LINE
  5
30D4E
  8
0
 10
6663.3309358015876569
 20
297.5032087206669758
 30
0.0
 11
6663.3112507622518024
 21
297.4993071527035227
 31
0.0
  0
LINE
  5
30D4F
  8
0
 10
6663.3112507622518024
 20
297.4993071527035227
 30
0.0
 11
6663.3014082425215747
 21
297.4848788823338168
 31
0.0
  0
LINE
  5
30D50
  8
0
 10
6663.3014082425215747
 20
297.4848788823338168
 30
0.0
 11
6663.3112507622518024
 21
297.4743655829360023
 31
0.0
  0
LINE
  5
30D51
  8
0
 10
6663.3112507622518024
 20
297.4743655829360023
 30
0.0
 11
6663.3309358015358157
 21
297.4781650269108013
 31
0.0
  0
LINE
  5
30D52
  8
0
 10
6663.3309358015358157
 20
297.4781650269108013
 30
0.0
 11
6663.3407783212696813
 21
297.4925780323040954
 31
0.0
  0
LINE
  5
30D53
  8
0
 10
6663.3612912221751685
 20
297.5094023224573903
 30
0.0
 11
6663.358779412252261
 21
297.5053789633154793
 31
0.0
  0
LINE
  5
30D54
  8
0
 10
6663.358779412252261
 20
297.5053789633154793
 30
0.0
 11
6663.3390943728027196
 21
297.5004664846001106
 31
0.0
  0
LINE
  5
30D55
  8
0
 10
6663.3390943728027196
 20
297.5004664846001106
 30
0.0
 11
6663.3292518531961832
 21
297.5114976953611858
 31
0.0
  0
LINE
  5
30D56
  8
0
 10
6663.3292518531961832
 20
297.5114976953611858
 30
0.0
 11
6663.3307899706205717
 21
297.5139577866552258
 31
0.0
  0
LINE
  5
30D57
  8
0
 10
6663.3686211636695589
 20
297.4806717759967114
 30
0.0
 11
6663.3587786440421041
 21
297.4899448078937212
 31
0.0
  0
LINE
  5
30D58
  8
0
 10
6663.3587786440421041
 20
297.4899448078937212
 30
0.0
 11
6663.3390936046416755
 21
297.485116081290812
 31
0.0
  0
LINE
  5
30D59
  8
0
 10
6663.3390936046416755
 20
297.485116081290812
 30
0.0
 11
6663.3292510849169048
 21
297.4711248936168886
 31
0.0
  0
LINE
  5
30D5A
  8
0
 10
6663.3292510849169048
 20
297.4711248936168886
 30
0.0
 11
6663.3390936046989736
 21
297.4619387480703949
 31
0.0
  0
LINE
  5
30D5B
  8
0
 10
6663.3390936046989736
 20
297.4619387480703949
 30
0.0
 11
6663.3587786440157288
 21
297.4666584532812976
 31
0.0
  0
LINE
  5
30D5C
  8
0
 10
6663.3587786440157288
 20
297.4666584532812976
 30
0.0
 11
6663.3686211636695589
 21
297.4806717759967114
 31
0.0
  0
LINE
  5
30D5D
  8
0
 10
6663.368619709433915
 20
297.4469503183976258
 30
0.0
 11
6663.3587771897300627
 21
297.4544902878450898
 31
0.0
  0
LINE
  5
30D5E
  8
0
 10
6663.3587771897300627
 20
297.4544902878450898
 30
0.0
 11
6663.3390921503978461
 21
297.4498267275624244
 31
0.0
  0
LINE
  5
30D5F
  8
0
 10
6663.3390921503978461
 20
297.4498267275624244
 30
0.0
 11
6663.3293709855497582
 21
297.4375981673882734
 31
0.0
  0
LINE
  5
30D60
  8
0
 10
6663.3293709855497582
 20
297.4375981673882734
 30
0.0
 11
6663.3390921502987112
 21
297.4301901977501075
 31
0.0
  0
LINE
  5
30D61
  8
0
 10
6663.3390921502987112
 20
297.4301901977501075
 30
0.0
 11
6663.3587771897628045
 21
297.4347828097533011
 31
0.0
  0
LINE
  5
30D62
  8
0
 10
6663.3587771897628045
 20
297.4347828097533011
 30
0.0
 11
6663.368619709433915
 21
297.4469503183976258
 31
0.0
  0
LINE
  5
30D63
  8
0
 10
6663.3865503088491096
 20
297.5045244670877196
 30
0.0
 11
6663.3865503088491096
 21
297.4937708812150277
 31
0.0
  0
LINE
  5
30D64
  8
0
 10
6663.3866216333062766
 20
297.4794775492077861
 30
0.0
 11
6663.3866216333062766
 21
297.4578700983810222
 31
0.0
  0
LINE
  5
30D65
  8
0
 10
6663.3866201552964412
 20
297.4467588188172158
 30
0.0
 11
6663.3866201552964412
 21
297.4286395252187845
 31
0.0
  0
LINE
  5
30D66
  8
0
 10
6663.3964626750112075
 20
297.4404952274626908
 30
0.0
 11
6663.3866201553355495
 21
297.4467588187918068
 31
0.0
  0
LINE
  5
30D67
  8
0
 10
6663.3866201553355495
 20
297.4467588187918068
 30
0.0
 11
6663.366935115996057
 21
297.4411569986536961
 31
0.0
  0
LINE
  5
30D68
  8
0
 10
6663.366935115996057
 20
297.4411569986536961
 30
0.0
 11
6663.3570925962276306
 21
297.4293603687775089
 31
0.0
  0
LINE
  5
30D69
  8
0
 10
6663.3570925962276306
 20
297.4293603687775089
 30
0.0
 11
6663.366935115996057
 21
297.4231063281599745
 31
0.0
  0
LINE
  5
30D6A
  8
0
 10
6663.366935115996057
 20
297.4231063281599745
 30
0.0
 11
6663.3866201553628343
 21
297.4286395252373723
 31
0.0
  0
LINE
  5
30D6B
  8
0
 10
6663.3866201553628343
 20
297.4286395252373723
 30
0.0
 11
6663.3964626750112075
 21
297.4404952274626908
 31
0.0
  0
LINE
  5
30D6C
  8
0
 10
6663.396464153078341
 20
297.4715300707551933
 30
0.0
 11
6663.3866216333663033
 21
297.4794775491583891
 31
0.0
  0
LINE
  5
30D6D
  8
0
 10
6663.3866216333663033
 20
297.4794775491583891
 30
0.0
 11
6663.3669365940049829
 21
297.4737083451603894
 31
0.0
  0
LINE
  5
30D6E
  8
0
 10
6663.3669365940049829
 20
297.4737083451603894
 30
0.0
 11
6663.3570940742192761
 21
297.4601039846606909
 31
0.0
  0
LINE
  5
30D6F
  8
0
 10
6663.3570940742192761
 20
297.4601039846606909
 30
0.0
 11
6663.3669365939731506
 21
297.4522121333798736
 31
0.0
  0
LINE
  5
30D70
  8
0
 10
6663.3669365939731506
 20
297.4522121333798736
 30
0.0
 11
6663.3866216333462944
 21
297.4578700984367856
 31
0.0
  0
LINE
  5
30D71
  8
0
 10
6663.3866216333462944
 20
297.4578700984367856
 30
0.0
 11
6663.3964641530319568
 21
297.4715300706897096
 31
0.0
  0
LINE
  5
30D72
  8
0
 10
6663.3925477218099331
 20
297.5032110389594777
 30
0.0
 11
6663.3865503087999969
 21
297.4937708812004757
 31
0.0
  0
LINE
  5
30D73
  8
0
 10
6663.3865503087999969
 20
297.4937708812004757
 30
0.0
 11
6663.3668652695487253
 21
297.4879151823894858
 31
0.0
  0
LINE
  5
30D74
  8
0
 10
6663.3668652695487253
 20
297.4879151823894858
 30
0.0
 11
6663.3570227498103122
 21
297.4975692002485061
 31
0.0
  0
LINE
  5
30D75
  8
0
 10
6663.3570227498103122
 20
297.4975692002485061
 30
0.0
 11
6663.3642029588972946
 21
297.508893442558815
 31
0.0
  0
LINE
  5
30D76
  8
0
 10
6663.421512589539816
 20
297.4959506336260233
 30
0.0
 11
6663.414407154282344
 21
297.4849993345176813
 31
0.0
  0
LINE
  5
30D77
  8
0
 10
6663.414407154282344
 20
297.4849993345176813
 30
0.0
 11
6663.3947221148810058
 21
297.4781750018054822
 31
0.0
  0
LINE
  5
30D78
  8
0
 10
6663.3947221148810058
 20
297.4781750018054822
 30
0.0
 11
6663.3848795952017099
 21
297.4864901349686193
 31
0.0
  0
LINE
  5
30D79
  8
0
 10
6663.3848795952017099
 20
297.4864901349686193
 30
0.0
 11
6663.3947221148428071
 21
297.5017118351694876
 31
0.0
  0
LINE
  5
30D7A
  8
0
 10
6663.3947221148428071
 20
297.5017118351694876
 30
0.0
 11
6663.3964966979256133
 21
297.5023133021746844
 31
0.0
  0
LINE
  5
30D7B
  8
0
 10
6663.4243074246833203
 20
297.4651460026789209
 30
0.0
 11
6663.4144649050276712
 21
297.4717779020693911
 31
0.0
  0
LINE
  5
30D7C
  8
0
 10
6663.4144649050276712
 20
297.4717779020693911
 30
0.0
 11
6663.394779865628152
 21
297.4650400640417729
 31
0.0
  0
LINE
  5
30D7D
  8
0
 10
6663.394779865628152
 20
297.4650400640417729
 30
0.0
 11
6663.3849373458533591
 21
297.4517797983559717
 31
0.0
  0
LINE
  5
30D7E
  8
0
 10
6663.3849373458533591
 20
297.4517797983559717
 30
0.0
 11
6663.3947798656008672
 21
297.4451700409784962
 31
0.0
  0
LINE
  5
30D7F
  8
0
 10
6663.3947798656008672
 20
297.4451700409784962
 30
0.0
 11
6663.4144649050276712
 21
297.4517988694581163
 31
0.0
  0
LINE
  5
30D80
  8
0
 10
6663.4144649050276712
 20
297.4517988694581163
 30
0.0
 11
6663.4243074246833203
 21
297.4651460026789209
 31
0.0
  0
LINE
  5
30D81
  8
0
 10
6663.4521511316452234
 20
297.4615581893531839
 30
0.0
 11
6663.4423086119340951
 21
297.4668627733706785
 31
0.0
  0
LINE
  5
30D82
  8
0
 10
6663.4423086119340951
 20
297.4668627733706785
 30
0.0
 11
6663.4226235726346204
 21
297.4591120648819924
 31
0.0
  0
LINE
  5
30D83
  8
0
 10
6663.4226235726346204
 20
297.4591120648819924
 30
0.0
 11
6663.4127810529626004
 21
297.4461585354197268
 31
0.0
  0
LINE
  5
30D84
  8
0
 10
6663.4127810529626004
 20
297.4461585354197268
 30
0.0
 11
6663.4226235725991501
 21
297.4408386809582225
 31
0.0
  0
LINE
  5
30D85
  8
0
 10
6663.4226235725991501
 20
297.4408386809582225
 30
0.0
 11
6663.4423086119340951
 21
297.4484872877833936
 31
0.0
  0
LINE
  5
30D86
  8
0
 10
6663.4423086119340951
 20
297.4484872877833936
 30
0.0
 11
6663.4521511317043405
 21
297.4615581894345837
 31
0.0
  0
LINE
  5
30D87
  8
0
 10
6663.4478284714559777
 20
297.4874635275809851
 30
0.0
 11
6663.4422736814076416
 21
297.4791073381333035
 31
0.0
  0
LINE
  5
30D88
  8
0
 10
6663.4422736814076416
 20
297.4791073381333035
 30
0.0
 11
6663.4225886421172618
 21
297.4712728793475094
 31
0.0
  0
LINE
  5
30D89
  8
0
 10
6663.4225886421172618
 20
297.4712728793475094
 30
0.0
 11
6663.4127461224115905
 21
297.4782645459275159
 31
0.0
  0
LINE
  5
30D8A
  8
0
 10
6663.4127461224115905
 20
297.4782645459275159
 30
0.0
 11
6663.4225886420099414
 21
297.4931308115316142
 31
0.0
  0
LINE
  5
30D8B
  8
0
 10
6663.4225886420099414
 20
297.4931308115316142
 30
0.0
 11
6663.4262599594021594
 21
297.4945670688193786
 31
0.0
  0
LINE
  5
30D8C
  8
0
 10
6663.4713535755454359
 20
297.4778151271352726
 30
0.0
 11
6663.4701125311794385
 21
297.4760033737516096
 31
0.0
  0
LINE
  5
30D8D
  8
0
 10
6663.4701125311794385
 20
297.4760033737516096
 30
0.0
 11
6663.4504274917808289
 21
297.4670989188321073
 31
0.0
  0
LINE
  5
30D8E
  8
0
 10
6663.4504274917808289
 20
297.4670989188321073
 30
0.0
 11
6663.4405849721124468
 21
297.4727605122786258
 31
0.0
  0
LINE
  5
30D8F
  8
0
 10
6663.4405849721124468
 20
297.4727605122786258
 30
0.0
 11
6663.4499913981799182
 21
297.4866753923286069
 31
0.0
  0
LINE
  5
30D90
  8
0
 10
6663.4701125311794385
 20
297.4760033737516096
 30
0.0
 11
6663.4701125311794385
 21
297.4783974364540882
 31
0.0
  0
LINE
  5
30D91
  8
0
 10
6663.4504274917662769
 20
297.4865147760202149
 30
0.0
 11
6663.4504274917808289
 21
297.4670989188321073
 31
0.0
  0
LINE
  5
30D92
  8
0
 10
6663.2195628841909638
 20
297.4906456510180988
 30
0.0
 11
6663.2195628841909638
 21
297.4659354123630237
 31
0.0
  0
LINE
  5
30D93
  8
0
 10
6663.2195628842309816
 20
297.4528669416546904
 30
0.0
 11
6663.2195628842309816
 21
297.4317581124191179
 31
0.0
  0
LINE
  5
30D94
  8
0
 10
6663.2195628842919177
 20
297.4209202400156187
 30
0.0
 11
6663.2195628842919177
 21
297.4031093838610786
 31
0.0
  0
LINE
  5
30D95
  8
0
 10
6663.2195628843073791
 20
297.5066778499544853
 30
0.0
 11
6663.2195628843073791
 21
297.521515514879809
 31
0.0
  0
LINE
  5
30D96
  8
0
 10
6663.2195628842919177
 20
297.4209202400156187
 30
0.0
 11
6663.2294054039357434
 21
297.4120847593496251
 31
0.0
  0
LINE
  5
30D97
  8
0
 10
6663.2294054039357434
 20
297.4120847593496251
 30
0.0
 11
6663.2195628842919177
 21
297.4031093838610786
 31
0.0
  0
LINE
  5
30D98
  8
0
 10
6663.2195628842309816
 20
297.4528669416546904
 30
0.0
 11
6663.2294054039257389
 21
297.4423719310631782
 31
0.0
  0
LINE
  5
30D99
  8
0
 10
6663.2294054039257389
 20
297.4423719310631782
 30
0.0
 11
6663.2195628842309816
 21
297.4317581124191179
 31
0.0
  0
LINE
  5
30D9A
  8
0
 10
6663.2195628841909638
 20
297.4906456510180988
 30
0.0
 11
6663.2294054039139155
 21
297.4783322311981237
 31
0.0
  0
LINE
  5
30D9B
  8
0
 10
6663.2294054039139155
 20
297.4783322311981237
 30
0.0
 11
6663.2195628841909638
 21
297.4659354123630237
 31
0.0
  0
LINE
  5
30D9C
  8
0
 10
6663.2292048790259287
 20
297.5213743854816926
 30
0.0
 11
6663.2294054039875846
 21
297.5210876143530072
 31
0.0
  0
LINE
  5
30D9D
  8
0
 10
6663.2294054039875846
 20
297.5210876143530072
 30
0.0
 11
6663.2195628843073791
 21
297.5066778499544853
 31
0.0
  0
LINE
  5
30D9E
  8
0
 10
6663.4584059703947787
 20
297.4437310100702234
 30
0.0
 11
6663.4701125311994474
 21
297.4490276846375991
 31
0.0
  0
LINE
  5
30D9F
  8
0
 10
6663.4701125311994474
 20
297.4490276846375991
 30
0.0
 11
6663.4799550508969332
 21
297.4618567463318755
 31
0.0
  0
LINE
  5
30DA0
  8
0
 10
6663.4799550508969332
 20
297.4618567463318755
 30
0.0
 11
6663.4701125312803924
 21
297.4657991390465099
 31
0.0
  0
LINE
  5
30DA1
  8
0
 10
6663.4701125312803924
 20
297.4657991390465099
 30
0.0
 11
6663.4504274918299416
 21
297.4569726402261267
 31
0.0
  0
LINE
  5
30DA2
  8
0
 10
6663.4504274918299416
 20
297.4569726402261267
 30
0.0
 11
6663.4405849720487822
 21
297.4442921397615009
 31
0.0
  0
LINE
  5
30DA3
  8
0
 10
6663.4405849720487822
 20
297.4442921397615009
 30
0.0
 11
6663.4410695905162356
 21
297.4440791055301929
 31
0.0
  0
LINE
  5
30DA4
  8
0
 10
6663.4410695905162356
 20
297.4440791055301929
 30
0.0
 11
6663.4534971453176695
 21
297.4492721686261234
 31
0.0
  0
LINE
  5
30DA5
  8
0
 10
6663.4534971453176695
 20
297.4492721686261234
 30
0.0
 11
6663.4584059703947787
 21
297.4437310100702234
 31
0.0
  0
LINE
  5
30DA6
  8
0
 10
6663.4534971454304468
 20
297.4492721686261234
 30
0.0
 11
6663.4444504371977018
 21
297.4492721686261234
 31
0.0
  0
LINE
  5
30DA7
  8
0
 10
6663.4701125312803924
 20
297.4657991390465099
 30
0.0
 11
6663.4701125311994474
 21
297.4490276846375991
 31
0.0
  0
LINE
  5
30DA8
  8
0
 10
6663.4504274918299416
 20
297.4569726402261267
 30
0.0
 11
6663.4504274918299416
 21
297.4492721686261234
 31
0.0
  0
LINE
  5
30DA9
  8
0
 10
6663.4410695905162356
 20
297.4440791055301929
 30
0.0
 11
6663.4410695905162356
 21
297.4449164925505897
 31
0.0
  0
LINE
  5
30DAA
  8
0
 10
6663.5034101526016457
 20
297.4584315303566768
 30
0.0
 11
6663.4979513807729745
 21
297.4515358001842742
 31
0.0
  0
LINE
  5
30DAB
  8
0
 10
6663.4979513807729745
 20
297.4515358001842742
 30
0.0
 11
6663.4782663414744093
 21
297.4416180855913012
 31
0.0
  0
LINE
  5
30DAC
  8
0
 10
6663.468423821763281
 20
297.4442481246354077
 30
0.0
 11
6663.4782663413989212
 21
297.4566871733446192
 31
0.0
  0
LINE
  5
30DAD
  8
0
 10
6663.4782663413989212
 20
297.4566871733446192
 30
0.0
 11
6663.494683077137779
 21
297.4649574875888902
 31
0.0
  0
LINE
  5
30DAE
  8
0
 10
6663.4979513807729745
 20
297.4515358001842742
 30
0.0
 11
6663.4979513807729745
 21
297.4626725495293726
 31
0.0
  0
LINE
  5
30DAF
  8
0
 10
6663.4782663413989212
 20
297.4566871733446192
 30
0.0
 11
6663.4782663414744093
 21
297.4416180855913012
 31
0.0
  0
LINE
  5
30DB0
  8
0
 10
6663.4979513808148113
 20
297.4441041598911966
 30
0.0
 11
6663.5077939004595464
 21
297.4433005270486206
 31
0.0
  0
LINE
  5
30DB1
  8
0
 10
6663.5077939004595464
 20
297.4433005270486206
 30
0.0
 11
6663.4979513807547846
 21
297.4324479219972091
 31
0.0
  0
LINE
  5
30DB2
  8
0
 10
6663.4979513807547846
 20
297.4324479219972091
 30
0.0
 11
6663.4786808465041759
 21
297.4227514211683001
 31
0.0
  0
LINE
  5
30DB3
  8
0
 10
6663.4786808465041759
 20
297.4227514211683001
 30
0.0
 11
6663.4684238217396341
 21
297.4235061137270009
 31
0.0
  0
LINE
  5
30DB4
  8
0
 10
6663.4684238217396341
 20
297.4235061137270009
 30
0.0
 11
6663.4782663414544004
 21
297.4342084735175717
 31
0.0
  0
LINE
  5
30DB5
  8
0
 10
6663.4782663414544004
 20
297.4342084735175717
 30
0.0
 11
6663.4979513807547846
 21
297.4441041598873881
 31
0.0
  0
LINE
  5
30DB6
  8
0
 10
6663.4979513807547846
 20
297.4441041598873881
 30
0.0
 11
6663.4979513807547846
 21
297.4324479219972091
 31
0.0
  0
LINE
  5
30DB7
  8
0
 10
6663.4782663414544004
 20
297.4342084735175717
 30
0.0
 11
6663.4786808465041759
 21
297.4227514211683001
 31
0.0
  0
LINE
  5
30DB8
  8
0
 10
6663.497951380772065
 20
297.4198289113313081
 30
0.0
 11
6663.507793900532306
 21
297.4289665690910169
 31
0.0
  0
LINE
  5
30DB9
  8
0
 10
6663.507793900532306
 20
297.4289665690910169
 30
0.0
 11
6663.4979513808648335
 21
297.4280017197316965
 31
0.0
  0
LINE
  5
30DBA
  8
0
 10
6663.4979513808648335
 20
297.4280017197316965
 30
0.0
 11
6663.4782663414707713
 21
297.4180840051658947
 31
0.0
  0
LINE
  5
30DBB
  8
0
 10
6663.4782663414707713
 20
297.4180840051658947
 30
0.0
 11
6663.4684238218151222
 21
297.4090578063713792
 31
0.0
  0
LINE
  5
30DBC
  8
0
 10
6663.4684238218151222
 20
297.4090578063713792
 30
0.0
 11
6663.4782663413889168
 21
297.4098406173159788
 31
0.0
  0
LINE
  5
30DBD
  8
0
 10
6663.4782663413889168
 20
297.4098406173159788
 30
0.0
 11
6663.497951380772065
 21
297.4198289113313081
 31
0.0
  0
LINE
  5
30DBE
  8
0
 10
6663.497951380772065
 20
297.4198289113313081
 30
0.0
 11
6663.4979513808648335
 21
297.4280017197316965
 31
0.0
  0
LINE
  5
30DBF
  8
0
 10
6663.4782663413889168
 20
297.4098406173159788
 30
0.0
 11
6663.4782663414707713
 21
297.4180840051658947
 31
0.0
  0
LINE
  5
30DC0
  8
0
 10
6663.4646524062527533
 20
297.4401574909884971
 30
0.0
 11
6663.4665172043551138
 21
297.4390327887520016
 31
0.0
  0
LINE
  5
30DC1
  8
0
 10
6663.4665172043551138
 20
297.4390327887520016
 30
0.0
 11
6663.4701125311476062
 21
297.4406843611283193
 31
0.0
  0
LINE
  5
30DC2
  8
0
 10
6663.4701125311476062
 20
297.4406843611283193
 30
0.0
 11
6663.4799550507959793
 21
297.4384124746864018
 31
0.0
  0
LINE
  5
30DC3
  8
0
 10
6663.4799550507959793
 20
297.4384124746864018
 30
0.0
 11
6663.4701125311476062
 21
297.427342063006904
 31
0.0
  0
LINE
  5
30DC4
  8
0
 10
6663.4701125311476062
 20
297.427342063006904
 30
0.0
 11
6663.4680947822453163
 21
297.4264148188295849
 31
0.0
  0
LINE
  5
30DC5
  8
0
 10
6663.4680947822453163
 20
297.4264148188295849
 30
0.0
 11
6663.4533279679935731
 21
297.4351221911646235
 31
0.0
  0
LINE
  5
30DC6
  8
0
 10
6663.4701125311476062
 20
297.4406843611283193
 30
0.0
 11
6663.4701125311476062
 21
297.427342063006904
 31
0.0
  0
LINE
  5
30DC7
  8
0
 10
6663.4504274917489965
 20
297.41928060477278
 30
0.0
 11
6663.4410000087900698
 21
297.4299535307533233
 31
0.0
  0
LINE
  5
30DC8
  8
0
 10
6663.4423824085579326
 20
297.4305171621966224
 30
0.0
 11
6663.4504274917153452
 21
297.4309368425774096
 31
0.0
  0
LINE
  5
30DC9
  8
0
 10
6663.4504274917153452
 20
297.4309368425774096
 30
0.0
 11
6663.4681073357987771
 21
297.4208290844733256
 31
0.0
  0
LINE
  5
30DCA
  8
0
 10
6663.4681073357987771
 20
297.4208290844733256
 30
0.0
 11
6663.4701125311494252
 21
297.4215590461233205
 31
0.0
  0
LINE
  5
30DCB
  8
0
 10
6663.4701125311494252
 20
297.4215590461233205
 30
0.0
 11
6663.4799550508050743
 21
297.420973220088797
 31
0.0
  0
LINE
  5
30DCC
  8
0
 10
6663.4799550508050743
 20
297.420973220088797
 30
0.0
 11
6663.4701125311730721
 21
297.4115888686607718
 31
0.0
  0
LINE
  5
30DCD
  8
0
 10
6663.4701125311730721
 20
297.4115888686607718
 30
0.0
 11
6663.4665172044460633
 21
297.4099372962094776
 31
0.0
  0
LINE
  5
30DCE
  8
0
 10
6663.4665172044460633
 20
297.4099372962094776
 30
0.0
 11
6663.4504274917144357
 21
297.4192806046451096
 31
0.0
  0
LINE
  5
30DCF
  8
0
 10
6663.4680947822453163
 20
297.4264148188295849
 30
0.0
 11
6663.4681045441748211
 21
297.4208306804750919
 31
0.0
  0
LINE
  5
30DD0
  8
0
 10
6663.4701125311494252
 20
297.4215590461233205
 30
0.0
 11
6663.4701125311730721
 21
297.4115888686607718
 31
0.0
  0
LINE
  5
30DD1
  8
0
 10
6663.4504274917489965
 20
297.41928060477278
 30
0.0
 11
6663.4504274917153452
 21
297.4309368425774096
 31
0.0
  0
LINE
  5
30DD2
  8
0
 10
6663.4378116039588349
 20
297.4286687500613198
 30
0.0
 11
6663.4422439396093978
 21
297.4263587473009807
 31
0.0
  0
LINE
  5
30DD3
  8
0
 10
6663.4422439396093978
 20
297.4263587473009807
 30
0.0
 11
6663.4494903478343986
 21
297.4181465742236128
 31
0.0
  0
LINE
  5
30DD4
  8
0
 10
6663.4494903478343986
 20
297.4181465742236128
 30
0.0
 11
6663.466011788808828
 21
297.4087087370544964
 31
0.0
  0
LINE
  5
30DD5
  8
0
 10
6663.4494903478580454
 20
297.4181465742091746
 30
0.0
 11
6663.4494903478580454
 21
297.4067985552044888
 31
0.0
  0
LINE
  5
30DD6
  8
0
 10
6663.4494903478580454
 20
297.4067985552044888
 30
0.0
 11
6663.415312491959412
 21
297.4067985552044888
 31
0.0
  0
LINE
  5
30DD7
  8
0
 10
6663.415312491959412
 20
297.4067985552044888
 30
0.0
 11
6663.415312491959412
 21
297.4201939459223922
 31
0.0
  0
LINE
  5
30DD8
  8
0
 10
6663.4225589002580818
 20
297.4228117986688744
 30
0.0
 11
6663.4225589002580818
 21
297.4067985552044888
 31
0.0
  0
LINE
  5
30DD9
  8
0
 10
6663.4422439395593756
 20
297.4263587473046186
 30
0.0
 11
6663.4422439395593756
 21
297.4067985552044888
 31
0.0
  0
LINE
  5
30DDA
  8
0
 10
6663.4665172044460633
 20
297.4099372962094776
 30
0.0
 11
6663.466011788808828
 21
297.4087087370544964
 31
0.0
  0
LINE
  5
30DDB
  8
0
 10
6663.4661451932497584
 20
297.4408421864234242
 30
0.0
 11
6663.4665172043551138
 21
297.4390327887520016
 31
0.0
  0
LINE
  5
30DDC
  8
0
 10
6663.4243059776108566
 20
297.4367491304263922
 30
0.0
 11
6663.4144634579461126
 21
297.4417238541677193
 31
0.0
  0
LINE
  5
30DDD
  8
0
 10
6663.4144634579461126
 20
297.4417238541677193
 30
0.0
 11
6663.3947784185756973
 21
297.4351482472699786
 31
0.0
  0
LINE
  5
30DDE
  8
0
 10
6663.3947784185756973
 20
297.4351482472699786
 30
0.0
 11
6663.3849358988218228
 21
297.4236589944227944
 31
0.0
  0
LINE
  5
30DDF
  8
0
 10
6663.3849358988218228
 20
297.4236589944227944
 30
0.0
 11
6663.3854205172829097
 21
297.4233977562901146
 31
0.0
  0
LINE
  5
30DE0
  8
0
 10
6663.3854205172829097
 20
297.4233977562901146
 30
0.0
 11
6663.4238213592207103
 21
297.4361622503229228
 31
0.0
  0
LINE
  5
30DE1
  8
0
 10
6663.4238213592207103
 20
297.4361622503229228
 30
0.0
 11
6663.4243059776108566
 21
297.4367491304263922
 31
0.0
  0
LINE
  5
30DE2
  8
0
 10
6663.3686188062492874
 20
297.41892631746299
 30
0.0
 11
6663.3587762865499826
 21
297.4248442184629084
 31
0.0
  0
LINE
  5
30DE3
  8
0
 10
6663.3587762865499826
 20
297.4248442184629084
 30
0.0
 11
6663.3390912471777483
 21
297.420286321173478
 31
0.0
  0
LINE
  5
30DE4
  8
0
 10
6663.3390912471777483
 20
297.420286321173478
 30
0.0
 11
6663.3292487274820814
 21
297.4098506725180187
 31
0.0
  0
LINE
  5
30DE5
  8
0
 10
6663.3292487274820814
 20
297.4098506725180187
 30
0.0
 11
6663.3297333458367575
 21
297.4095444725655284
 31
0.0
  0
LINE
  5
30DE6
  8
0
 10
6663.3297333458367575
 20
297.4095444725655284
 30
0.0
 11
6663.3681341878482272
 21
297.4183944962418877
 31
0.0
  0
LINE
  5
30DE7
  8
0
 10
6663.3681341878482272
 20
297.4183944962418877
 30
0.0
 11
6663.3686188062492874
 21
297.41892631746299
 31
0.0
  0
LINE
  5
30DE8
  8
0
 10
6663.3129329766861702
 20
297.4067706761131262
 30
0.0
 11
6663.3030904569759514
 21
297.4135824213479964
 31
0.0
  0
LINE
  5
30DE9
  8
0
 10
6663.3030904569759514
 20
297.4135824213479964
 30
0.0
 11
6663.2834054175418714
 21
297.4108993241529788
 31
0.0
  0
LINE
  5
30DEA
  8
0
 10
6663.2834054175418714
 20
297.4108993241529788
 30
0.0
 11
6663.2735628979089597
 21
297.4014273290476922
 31
0.0
  0
LINE
  5
30DEB
  8
0
 10
6663.2735628979089597
 20
297.4014273290476922
 30
0.0
 11
6663.2740475162636358
 21
297.4010777912170056
 31
0.0
  0
LINE
  5
30DEC
  8
0
 10
6663.2740475162636358
 20
297.4010777912170056
 30
0.0
 11
6663.3124483582860194
 21
297.4062883560130786
 31
0.0
  0
LINE
  5
30DED
  8
0
 10
6663.3124483582860194
 20
297.4062883560130786
 30
0.0
 11
6663.3129329766616138
 21
297.4067706760720853
 31
0.0
  0
LINE
  5
30DEE
  8
0
 10
6663.2572478545471313
 20
297.3999086149034952
 30
0.0
 11
6663.2474053348823873
 21
297.4075942226057805
 31
0.0
  0
LINE
  5
30DEF
  8
0
 10
6663.2474053348823873
 20
297.4075942226057805
 30
0.0
 11
6663.2277202954328459
 21
297.406708105803375
 31
0.0
  0
LINE
  5
30DF0
  8
0
 10
6663.2277202954328459
 20
297.406708105803375
 30
0.0
 11
6663.2178777757590069
 21
297.3981438030867253
 31
0.0
  0
LINE
  5
30DF1
  8
0
 10
6663.2178777757590069
 20
297.3981438030867253
 30
0.0
 11
6663.218362394110045
 21
297.3977512625530721
 31
0.0
  0
LINE
  5
30DF2
  8
0
 10
6663.218362394110045
 20
297.3977512625530721
 30
0.0
 11
6663.2567632361624419
 21
297.3994722271003752
 31
0.0
  0
LINE
  5
30DF3
  8
0
 10
6663.2567632361624419
 20
297.3994722271003752
 30
0.0
 11
6663.2572478544952901
 21
297.3999086148575088
 31
0.0
  0
LINE
  5
30DF4
  8
0
 10
6663.4238213592207103
 20
297.4361622503229228
 30
0.0
 11
6663.4238213592207103
 21
297.4369940720358727
 31
0.0
  0
LINE
  5
30DF5
  8
0
 10
6663.3854205172829097
 20
297.4233977562901146
 30
0.0
 11
6663.3854205172829097
 21
297.424224693468318
 31
0.0
  0
LINE
  5
30DF6
  8
0
 10
6663.3681341878482272
 20
297.4183944962418877
 30
0.0
 11
6663.3681341878482272
 21
297.4192176985118863
 31
0.0
  0
LINE
  5
30DF7
  8
0
 10
6663.3297333458367575
 20
297.4095444725655284
 30
0.0
 11
6663.3297333458367575
 21
297.4103644948974079
 31
0.0
  0
LINE
  5
30DF8
  8
0
 10
6663.3124483582860194
 20
297.4062883560130786
 30
0.0
 11
6663.3124483582860194
 21
297.4071060675752847
 31
0.0
  0
LINE
  5
30DF9
  8
0
 10
6663.2740475162636358
 20
297.4010777912170056
 30
0.0
 11
6663.2740475162636358
 21
297.4018937038031254
 31
0.0
  0
LINE
  5
30DFA
  8
0
 10
6663.2567632361624419
 20
297.3994722271003752
 30
0.0
 11
6663.2567632361624419
 21
297.4002870329210282
 31
0.0
  0
LINE
  5
30DFB
  8
0
 10
6663.218362394110045
 20
297.3977512625530721
 30
0.0
 11
6663.218362394110045
 21
297.3985654855824237
 31
0.0
  0
LINE
  5
30DFC
  8
0
 10
6663.468423821763281
 20
297.4442481246354077
 30
0.0
 11
6663.4782663413916453
 21
297.4416180856060237
 31
0.0
  0
ARC
  5
30DFD
  8
0
 10
6663.2142981287606744
 20
297.9879546593468262
 30
0.0
 40
0.6022947799211045
 50
289.286090234636788
 51
294.7175826676520956
  0
ARC
  5
30DFE
  8
0
 10
6663.2108134935106136
 20
297.9979129651441099
 30
0.0
 40
0.6128451608229176
 50
280.2697263868203095
 51
289.286090234636788
  0
ARC
  5
30DFF
  8
0
 10
6663.1951734058220609
 20
298.1663775745452085
 30
0.0
 40
0.7815364347016568
 50
271.0665243540034908
 51
279.1960325197525208
  0
LINE
  5
30E00
  8
0
 10
6663.4510227829923679
 20
297.4341311856666152
 30
0.0
 11
6663.4521162012133573
 21
297.4329203211377148
 31
0.0
  0
LINE
  5
30E01
  8
0
 10
6663.4521162012133573
 20
297.4329203211377148
 30
0.0
 11
6663.4483468763901328
 21
297.4329950341008271
 31
0.0
  0
LINE
  5
30E02
  8
0
 10
6663.470112531185805
 20
297.4080076984852781
 30
0.0
 11
6663.4799550508396351
 21
297.4091805223399092
 31
0.0
  0
LINE
  5
30E03
  8
0
 10
6663.4799550508396351
 20
297.4091805223399092
 30
0.0
 11
6663.470112531185805
 21
297.4014666772239934
 31
0.0
  0
LINE
  5
30E04
  8
0
 10
6663.470112531185805
 20
297.4014666772239934
 30
0.0
 11
6663.4504274917862858
 21
297.3926401783401161
 31
0.0
  0
LINE
  5
30E05
  8
0
 10
6663.4504274917862858
 20
297.3926401783401161
 30
0.0
 11
6663.4405849720687911
 21
297.3916159157114976
 31
0.0
  0
LINE
  5
30E06
  8
0
 10
6663.4405849719742037
 20
297.3916159157014931
 30
0.0
 11
6663.4410695904298336
 21
297.3919768023432084
 31
0.0
  0
LINE
  5
30E07
  8
0
 10
6663.4410695904298336
 20
297.3919768023432084
 30
0.0
 11
6663.4534971453485923
 21
297.3971698653464841
 31
0.0
  0
LINE
  5
30E08
  8
0
 10
6663.4534971453485923
 20
297.3971698653464841
 30
0.0
 11
6663.4584059703302046
 21
297.4027110239911735
 31
0.0
  0
LINE
  5
30E09
  8
0
 10
6663.4584059703302046
 20
297.4027110239911735
 30
0.0
 11
6663.470112531185805
 21
297.4080076984454877
 31
0.0
  0
LINE
  5
30E0A
  8
0
 10
6663.4504274917862858
 20
297.3926401783401161
 30
0.0
 11
6663.4504274917862858
 21
297.3958871589371142
 31
0.0
  0
LINE
  5
30E0B
  8
0
 10
6663.470112531185805
 20
297.4080076984454877
 30
0.0
 11
6663.470112531185805
 21
297.4014666772239934
 31
0.0
  0
LINE
  5
30E0C
  8
0
 10
6663.3938423904091906
 20
297.413037239844698
 30
0.0
 11
6663.3938423904091906
 21
297.4068809478545177
 31
0.0
  0
LINE
  5
30E0D
  8
0
 10
6663.3938423904091906
 20
297.4068809478545177
 30
0.0
 11
6663.3728639352948449
 21
297.4068809478545177
 31
0.0
  0
LINE
  5
30E0E
  8
0
 10
6663.4701125311075884
 20
297.3977190282075185
 30
0.0
 11
6663.4799550506340893
 21
297.403233267856308
 31
0.0
  0
LINE
  5
30E0F
  8
0
 10
6663.4799550506340893
 20
297.403233267856308
 30
0.0
 11
6663.470112531185805
 21
297.3995805497104925
 31
0.0
  0
LINE
  5
30E10
  8
0
 10
6663.470112531185805
 20
297.3995805497104925
 30
0.0
 11
6663.4504274921100659
 21
297.3905819650346984
 31
0.0
  0
LINE
  5
30E11
  8
0
 10
6663.4504274921100659
 20
297.3905819650346984
 30
0.0
 11
6663.4405849722670609
 21
297.3850740196407969
 31
0.0
  0
LINE
  5
30E12
  8
0
 10
6663.4405849722670609
 20
297.3850740196407969
 30
0.0
 11
6663.4504274915871065
 21
297.3885585378558858
 31
0.0
  0
LINE
  5
30E13
  8
0
 10
6663.4504274915871065
 20
297.3885585378558858
 30
0.0
 11
6663.4701125311075884
 21
297.3977190282075185
 31
0.0
  0
LINE
  5
30E14
  8
0
 10
6663.4521162011860724
 20
297.3924239193767107
 30
0.0
 11
6663.442273681507686
 21
297.3904442319545183
 31
0.0
  0
LINE
  5
30E15
  8
0
 10
6663.442273681507686
 20
297.3904442319545183
 30
0.0
 11
6663.4225886421172618
 21
297.382714770974701
 31
0.0
  0
LINE
  5
30E16
  8
0
 10
6663.4225886421172618
 20
297.382714770974701
 30
0.0
 11
6663.412746467699435
 21
297.3768615255173131
 31
0.0
  0
LINE
  5
30E17
  8
0
 10
6663.412746467699435
 20
297.3768615255173131
 30
0.0
 11
6663.4225886421081668
 21
297.3787225486545935
 31
0.0
  0
LINE
  5
30E18
  8
0
 10
6663.4225886421081668
 20
297.3787225486545935
 30
0.0
 11
6663.4422736814649397
 21
297.3865551906085898
 31
0.0
  0
LINE
  5
30E19
  8
0
 10
6663.4422736814649397
 20
297.3865551906085898
 30
0.0
 11
6663.4521162008259125
 21
297.3924239193041217
 31
0.0
  0
LINE
  5
30E1A
  8
0
 10
6663.4144348318086486
 20
297.3740248654546008
 30
0.0
 11
6663.4242773515206864
 21
297.378552247413495
 31
0.0
  0
LINE
  5
30E1B
  8
0
 10
6663.4242773515206864
 20
297.378552247413495
 30
0.0
 11
6663.4144348318086486
 21
297.376293408354627
 31
0.0
  0
LINE
  5
30E1C
  8
0
 10
6663.4144348318086486
 20
297.376293408354627
 30
0.0
 11
6663.3947497925082644
 21
297.3695945059262158
 31
0.0
  0
LINE
  5
30E1D
  8
0
 10
6663.3947497925082644
 20
297.3695945059262158
 30
0.0
 11
6663.3849072729735781
 21
297.3650447478283922
 31
0.0
  0
LINE
  5
30E1E
  8
0
 10
6663.3849072729735781
 20
297.3650447478283922
 30
0.0
 11
6663.3947497924473282
 21
297.3672158009470081
 31
0.0
  0
LINE
  5
30E1F
  8
0
 10
6663.3947497924473282
 20
297.3672158009470081
 30
0.0
 11
6663.4144348318086486
 21
297.3740248654546008
 31
0.0
  0
LINE
  5
30E20
  8
0
 10
6663.4242773515079534
 20
297.3850484033545172
 30
0.0
 11
6663.4237927331805622
 21
297.3850082232086152
 31
0.0
  0
LINE
  5
30E21
  8
0
 10
6663.4237927331805622
 20
297.3850082232086152
 30
0.0
 11
6663.3853918911081564
 21
297.3721087944546184
 31
0.0
  0
LINE
  5
30E22
  8
0
 10
6663.3853918911081564
 20
297.3721087944546184
 30
0.0
 11
6663.38490727280805
 21
297.3718198902545282
 31
0.0
  0
LINE
  5
30E23
  8
0
 10
6663.38490727280805
 20
297.3718198902545282
 30
0.0
 11
6663.3947497924582422
 21
297.3722012091383817
 31
0.0
  0
LINE
  5
30E24
  8
0
 10
6663.3947497924582422
 20
297.3722012091383817
 30
0.0
 11
6663.4144348318086486
 21
297.3788463273745037
 31
0.0
  0
LINE
  5
30E25
  8
0
 10
6663.4144348318086486
 20
297.3788463273745037
 30
0.0
 11
6663.4242773515079534
 21
297.3850484033545172
 31
0.0
  0
LINE
  5
30E26
  8
0
 10
6663.4144348318086486
 20
297.3818647613589974
 30
0.0
 11
6663.4144348318086486
 21
297.3788463273745037
 31
0.0
  0
LINE
  5
30E27
  8
0
 10
6663.3947497925355492
 20
297.3752522563223124
 30
0.0
 11
6663.3947497924582422
 21
297.3722012091383817
 31
0.0
  0
ARC
  5
30E28
  8
0
 10
6663.2098836410459626
 20
296.53078499226541
 30
0.0
 40
0.9907778036421404
 50
86.3795402437102382
 51
90.0094419631505644
  0
ARC
  5
30E29
  8
0
 10
6663.21631446299034
 20
296.6324208205209061
 30
0.0
 40
0.8889387293334348
 50
81.6371364599138332
 51
86.3795402437102382
  0
ARC
  5
30E2A
  8
0
 10
6663.2522754960627935
 20
296.877045496105211
 30
0.0
 40
0.6416849572602049
 50
75.7000096166145795
 51
81.6371364599138332
  0
ARC
  5
30E2B
  8
0
 10
6663.3119873694313355
 20
297.1113046722206263
 30
0.0
 40
0.3999353566080042
 50
69.0115803900100531
 51
75.7000096166145795
  0
ARC
  5
30E2C
  8
0
 10
6663.3718831507021605
 20
297.2674328290822814
 30
0.0
 40
0.2327124336010319
 50
59.8983846403629627
 51
69.0115803900100531
  0
ARC
  5
30E2D
  8
0
 10
6663.4343236718750632
 20
297.3751413815693923
 30
0.0
 40
0.1082136345577782
 50
42.4086314602814198
 51
59.8983846403629627
  0
ARC
  5
30E2E
  8
0
 10
6663.4837227838734179
 20
297.4202626181627807
 30
0.0
 40
0.0413092381560233
 50
14.2387393853937603
 51
42.4086314602814198
  0
ARC
  5
30E2F
  8
0
 10
6663.4938064571388168
 20
297.4228214354179727
 30
0.0
 40
0.0309059688480669
 50
338.2939031340753786
 51
14.2387393853906001
  0
ARC
  5
30E30
  8
0
 10
6663.474688598245848
 20
297.4304317120822816
 30
0.0
 40
0.0514828694776183
 50
309.327695089552094
 51
338.2939031340753786
  0
ARC
  5
30E31
  8
0
 10
6663.3991588804456114
 20
297.5226200429867163
 30
0.0
 40
0.1706609992923054
 50
294.0776258888984103
 51
309.327695089552094
  0
ARC
  5
30E32
  8
0
 10
6663.32778482854701
 20
297.6823460434288791
 30
0.0
 40
0.3456085642981783
 50
282.5815451836945726
 51
294.0776258888984103
  0
ARC
  5
30E33
  8
0
 10
6663.2118734626837977
 20
298.2016893836909048
 30
0.0
 40
0.8777297439283978
 50
275.8155114794026872
 51
282.5815451836945726
  0
ARC
  5
30E34
  8
0
 10
6663.2203563008106357
 20
298.1184016775657142
 30
0.0
 40
0.7940111645430579
 50
270.5508267839596215
 51
275.8155114794026872
  0
ARC
  5
30E35
  8
0
 10
6663.0539548234646645
 20
315.4265807745072721
 30
0.0
 40
18.1029901379969793
 50
270.4930024445903882
 51
270.5508267839596215
  0
ARC
  5
30E36
  8
0
 10
6663.2133893469263057
 20
297.958443468462292
 30
0.0
 40
0.6050011347579874
 50
290.5412571893190261
 51
294.6804447212642799
  0
ARC
  5
30E37
  8
0
 10
6663.2117141384869683
 20
297.9629059282012236
 30
0.0
 40
0.6097676703843558
 50
284.5433320636266785
 51
290.5415299234813915
  0
ARC
  5
30E38
  8
0
 10
6663.2100583657193056
 20
297.9692884096240846
 30
0.0
 40
0.6163614289920833
 50
279.4417785608512759
 51
284.5433320636266785
  0
ARC
  5
30E39
  8
0
 10
6663.2099599417433637
 20
297.969880262031495
 30
0.0
 40
0.6169614094509145
 50
274.1872895596958983
 51
279.4417785608512759
  0
ARC
  5
30E3A
  8
0
 10
6663.1938573538382116
 20
298.4101152414294802
 30
0.0
 40
1.0573193892107531
 50
270.8596435859302005
 51
273.3156146313526165
  0
ARC
  5
30E3B
  8
0
 10
6663.1860182133959825
 20
296.0420928523524822
 30
0.0
 40
1.4961100999299399
 50
84.6015876374642488
 51
89.0922524970428356
  0
ARC
  5
30E3C
  8
0
 10
6663.230747979348962
 20
296.6843680327992274
 30
0.0
 40
0.8526236375710375
 50
79.4096961498325555
 51
83.5334356104431635
  0
ARC
  5
30E3D
  8
0
 10
6663.2794622803894526
 20
296.9449144468568988
 30
0.0
 40
0.5875622918335707
 50
72.3691511909100029
 51
79.4096961498325555
  0
ARC
  5
30E3E
  8
0
 10
6663.3653870864627606
 20
297.2152786050667146
 30
0.0
 40
0.3038725839775694
 50
62.4424732371463875
 51
72.3691511909100029
  0
ARC
  5
30E3F
  8
0
 10
6663.4390284054434233
 20
297.3563961471900825
 30
0.0
 40
0.1446959382152485
 50
50.6171986676647734
 51
62.4424732371463875
  0
ARC
  5
30E40
  8
0
 10
6663.4819930900866893
 20
297.4087342334589721
 30
0.0
 40
0.0769815423986103
 50
33.8852437695512165
 51
50.6171986676647734
  0
ARC
  5
30E41
  8
0
 10
6663.5130920062247242
 20
297.429620213893088
 30
0.0
 40
0.0395200052747603
 50
9.5639381141980842
 51
33.8852437695512165
  0
ARC
  5
30E42
  8
0
 10
6663.5180046425402907
 20
297.4304479440077102
 30
0.0
 40
0.0345381248362207
 50
331.2278010078496209
 51
9.5639381141980842
  0
ARC
  5
30E43
  8
0
 10
6663.4789539375060485
 20
297.4526133711029843
 30
0.0
 40
0.079439012214561
 50
305.9948823643214268
 51
330.7714749030668031
  0
LINE
  5
30E44
  8
0
 10
6663.3865959822232981
 20
297.3664361475076134
 30
0.0
 11
6663.3964385018698522
 21
297.371335730951273
 31
0.0
  0
LINE
  5
30E45
  8
0
 10
6663.3964385018698522
 20
297.371335730951273
 30
0.0
 11
6663.3865959823442608
 21
297.3705840888953276
 31
0.0
  0
LINE
  5
30E46
  8
0
 10
6663.3865959823442608
 20
297.3705840888953276
 30
0.0
 11
6663.3669109428446973
 21
297.3649923998572149
 31
0.0
  0
LINE
  5
30E47
  8
0
 10
6663.3669109428446973
 20
297.3649923998572149
 30
0.0
 11
6663.3576067331432569
 21
297.3601022723328811
 31
0.0
  0
LINE
  5
30E48
  8
0
 10
6663.3576067331432569
 20
297.3601022723328811
 30
0.0
 11
6663.3669109426591604
 21
297.3607751098140852
 31
0.0
  0
LINE
  5
30E49
  8
0
 10
6663.3669109426591604
 20
297.3607751098140852
 30
0.0
 11
6663.3865959820050193
 21
297.3664361473997246
 31
0.0
  0
LINE
  5
30E4A
  8
0
 10
6663.3685996522081041
 20
297.3672020138545236
 30
0.0
 11
6663.3681150339079977
 21
297.3672174745544794
 31
0.0
  0
LINE
  5
30E4B
  8
0
 10
6663.3681150339079977
 20
297.3672174745544794
 30
0.0
 11
6663.3297141918073976
 21
297.3582738964544774
 31
0.0
  0
LINE
  5
30E4C
  8
0
 10
6663.3297141918073976
 20
297.3582738964544774
 30
0.0
 11
6663.3292295735091102
 21
297.3580304293545282
 31
0.0
  0
LINE
  5
30E4D
  8
0
 10
6663.3292295735091102
 20
297.3580304293545282
 30
0.0
 11
6663.3390720931765827
 21
297.3573470063773243
 31
0.0
  0
LINE
  5
30E4E
  8
0
 10
6663.3390720931765827
 20
297.3573470063773243
 30
0.0
 11
6663.3587571323660086
 21
297.3619530855825133
 31
0.0
  0
LINE
  5
30E4F
  8
0
 10
6663.3587571323660086
 20
297.3619530855825133
 30
0.0
 11
6663.3685996522081041
 21
297.3672020138545236
 31
0.0
  0
LINE
  5
30E50
  8
0
 10
6663.3685996522326604
 20
297.3603328348203831
 30
0.0
 11
6663.3587571325097088
 21
297.356723122254607
 31
0.0
  0
LINE
  5
30E51
  8
0
 10
6663.3587571325097088
 20
297.356723122254607
 30
0.0
 11
6663.3390720927864095
 21
297.3520102629602775
 31
0.0
  0
LINE
  5
30E52
  8
0
 10
6663.3390720927864095
 20
297.3520102629602775
 30
0.0
 11
6663.3292295735691368
 21
297.3509793644366823
 31
0.0
  0
LINE
  5
30E53
  8
0
 10
6663.3292295735691368
 20
297.3509793644366823
 30
0.0
 11
6663.3390720931156466
 21
297.3546249293103187
 31
0.0
  0
LINE
  5
30E54
  8
0
 10
6663.3390720931156466
 20
297.3546249293103187
 30
0.0
 11
6663.3587571325497265
 21
297.3592660901575186
 31
0.0
  0
LINE
  5
30E55
  8
0
 10
6663.3587571325497265
 20
297.3592660901575186
 30
0.0
 11
6663.3685996522326604
 21
297.3603328348203831
 31
0.0
  0
LINE
  5
30E56
  8
0
 10
6663.3404984379076268
 20
297.3562535659544892
 30
0.0
 11
6663.3309182831708313
 21
297.3565834005070201
 31
0.0
  0
LINE
  5
30E57
  8
0
 10
6663.3309182831708313
 20
297.3565834005070201
 30
0.0
 11
6663.3112332435539429
 21
297.3529449610521738
 31
0.0
  0
LINE
  5
30E58
  8
0
 10
6663.3112332435539429
 20
297.3529449610521738
 30
0.0
 11
6663.3013907238773754
 21
297.3489342386400835
 31
0.0
  0
LINE
  5
30E59
  8
0
 10
6663.3013907238773754
 20
297.3489342386400835
 30
0.0
 11
6663.3112332433029223
 21
297.3485831789192275
 31
0.0
  0
LINE
  5
30E5A
  8
0
 10
6663.3112332433029223
 20
297.3485831789192275
 30
0.0
 11
6663.3309182829088968
 21
297.3522645665531741
 31
0.0
  0
LINE
  5
30E5B
  8
0
 10
6663.3309182829088968
 20
297.3522645665531741
 30
0.0
 11
6663.3404984379076268
 21
297.3562535659544892
 31
0.0
  0
LINE
  5
30E5C
  8
0
 10
6663.3410946399380919
 20
297.3519981323191814
 30
0.0
 11
6663.3307511731536579
 21
297.3505572684072149
 31
0.0
  0
LINE
  5
30E5D
  8
0
 10
6663.3307511731536579
 20
297.3505572684072149
 30
0.0
 11
6663.3112332434830023
 21
297.346874920994594
 31
0.0
  0
LINE
  5
30E5E
  8
0
 10
6663.3112332434830023
 20
297.346874920994594
 30
0.0
 11
6663.2991773409667076
 21
297.3438598860975048
 31
0.0
  0
LINE
  5
30E5F
  8
0
 10
6663.3129219528809699
 20
297.347915890871775
 30
0.0
 11
6663.3030794334790698
 21
297.3479077546961094
 31
0.0
  0
LINE
  5
30E60
  8
0
 10
6663.3030794334790698
 20
297.3479077546961094
 30
0.0
 11
6663.2833943939085657
 21
297.3451764240929265
 31
0.0
  0
LINE
  5
30E61
  8
0
 10
6663.2833943939085657
 20
297.3451764240929265
 30
0.0
 11
6663.2735518742247223
 21
297.3424130676331174
 31
0.0
  0
LINE
  5
30E62
  8
0
 10
6663.2735518742247223
 20
297.3424130676331174
 30
0.0
 11
6663.2833943939085657
 21
297.3424130676331174
 31
0.0
  0
LINE
  5
30E63
  8
0
 10
6663.2833943939085657
 20
297.3424130676331174
 30
0.0
 11
6663.3030794332089499
 21
297.3451915450544902
 31
0.0
  0
LINE
  5
30E64
  8
0
 10
6663.3030794332089499
 20
297.3451915450544902
 30
0.0
 11
6663.3129219528809699
 21
297.347915890871775
 31
0.0
  0
LINE
  5
30E65
  8
0
 10
6663.3129219529637339
 20
297.3550251870378247
 30
0.0
 11
6663.3124373346072389
 21
297.3550906722546188
 31
0.0
  0
LINE
  5
30E66
  8
0
 10
6663.3124373346072389
 20
297.3550906722546188
 30
0.0
 11
6663.2742290290198071
 21
297.3498452872835855
 31
0.0
  0
LINE
  5
30E67
  8
0
 10
6663.2742290290198071
 20
297.3498452872835855
 30
0.0
 11
6663.2735518742038039
 21
297.3496253549527069
 31
0.0
  0
LINE
  5
30E68
  8
0
 10
6663.2735518742038039
 20
297.3496253549527069
 30
0.0
 11
6663.2833943937512231
 21
297.3479680915352787
 31
0.0
  0
LINE
  5
30E69
  8
0
 10
6663.2833943937512231
 20
297.3479680915352787
 30
0.0
 11
6663.3030794332089499
 21
297.350679552054487
 31
0.0
  0
LINE
  5
30E6A
  8
0
 10
6663.3030794332089499
 20
297.350679552054487
 30
0.0
 11
6663.3129219529082548
 21
297.3550251871545242
 31
0.0
  0
LINE
  5
30E6B
  8
0
 10
6663.2850831032310452
 20
297.3466803106674092
 30
0.0
 11
6663.2752405837318292
 21
297.3479946193676824
 31
0.0
  0
LINE
  5
30E6C
  8
0
 10
6663.2752405837318292
 20
297.3479946193676824
 30
0.0
 11
6663.2555555442449986
 21
297.3462007106843998
 31
0.0
  0
LINE
  5
30E6D
  8
0
 10
6663.2555555442449986
 20
297.3462007106843998
 30
0.0
 11
6663.2457130245047665
 21
297.3430720747833789
 31
0.0
  0
LINE
  5
30E6E
  8
0
 10
6663.2457130245047665
 20
297.3430720747833789
 30
0.0
 11
6663.2555555439757882
 21
297.3417608430365817
 31
0.0
  0
LINE
  5
30E6F
  8
0
 10
6663.2555555439757882
 20
297.3417608430365817
 30
0.0
 11
6663.2752405835508398
 21
297.3435753315653756
 31
0.0
  0
LINE
  5
30E70
  8
0
 10
6663.2752405835508398
 20
297.3435753315653756
 30
0.0
 11
6663.2850831031128109
 21
297.346680310683098
 31
0.0
  0
LINE
  5
30E71
  8
0
 10
6663.2869564432739935
 20
297.3422037909833762
 30
0.0
 11
6663.275240583608138
 21
297.3418201249431263
 31
0.0
  0
LINE
  5
30E72
  8
0
 10
6663.275240583608138
 20
297.3418201249431263
 30
0.0
 11
6663.2555555442449986
 21
297.3399888409048799
 31
0.0
  0
LINE
  5
30E73
  8
0
 10
6663.2555555442449986
 20
297.3399888409048799
 30
0.0
 11
6663.2447896166577266
 21
297.3382965299221041
 31
0.0
  0
LINE
  5
30E74
  8
0
 10
6663.2572442536247763
 20
297.340903327891283
 30
0.0
 11
6663.2474017339081911
 21
297.3418654907545147
 31
0.0
  0
LINE
  5
30E75
  8
0
 10
6663.2474017339081911
 20
297.3418654907545147
 30
0.0
 11
6663.2277166946078069
 21
297.3409635662864048
 31
0.0
  0
LINE
  5
30E76
  8
0
 10
6663.2277166946078069
 20
297.3409635662864048
 30
0.0
 11
6663.2178741748593893
 21
297.3390864821157038
 31
0.0
  0
LINE
  5
30E77
  8
0
 10
6663.2178741748593893
 20
297.3390864821157038
 30
0.0
 11
6663.2277173805068742
 21
297.33814507732518
 31
0.0
  0
LINE
  5
30E78
  8
0
 10
6663.2277173805068742
 20
297.33814507732518
 30
0.0
 11
6663.2474017338890917
 21
297.3390601163517886
 31
0.0
  0
LINE
  5
30E79
  8
0
 10
6663.2474017338890917
 20
297.3390601163517886
 30
0.0
 11
6663.2572442536247763
 21
297.340903327891283
 31
0.0
  0
LINE
  5
30E7A
  8
0
 10
6663.2572442536093149
 20
297.3481435168545204
 30
0.0
 11
6663.256759635308299
 21
297.34825541975448
 31
0.0
  0
LINE
  5
30E7B
  8
0
 10
6663.256759635308299
 20
297.34825541975448
 30
0.0
 11
6663.2183587932086084
 21
297.3465162627546192
 31
0.0
  0
LINE
  5
30E7C
  8
0
 10
6663.2183587932086084
 20
297.3465162627546192
 30
0.0
 11
6663.2178741748457469
 21
297.3463600489344003
 31
0.0
  0
LINE
  5
30E7D
  8
0
 10
6663.2178741748457469
 20
297.3463600489344003
 30
0.0
 11
6663.2277166945614226
 21
297.3437854979026156
 31
0.0
  0
LINE
  5
30E7E
  8
0
 10
6663.2277166945614226
 20
297.3437854979026156
 30
0.0
 11
6663.247401733832703
 21
297.3446809819503756
 31
0.0
  0
LINE
  5
30E7F
  8
0
 10
6663.247401733832703
 20
297.3446809819503756
 30
0.0
 11
6663.2572442536093149
 21
297.3481435168545204
 31
0.0
  0
LINE
  5
30E80
  8
0
 10
6663.2195628842609949
 20
297.344565781826816
 30
0.0
 11
6663.2294054037856768
 21
297.3423277411756089
 31
0.0
  0
LINE
  5
30E81
  8
0
 10
6663.2294054037856768
 20
297.3423277411756089
 30
0.0
 11
6663.2195628843073791
 21
297.3401072762546846
 31
0.0
  0
ARC
  5
30E82
  8
0
 10
6663.4513401289996182
 20
297.480443385883575
 30
0.0
 40
0.0817240818100043
 50
300.7321351306305814
 51
328.5988919883876065
  0
ARC
  5
30E83
  8
0
 10
6663.3353583505049755
 20
297.6734403395146842
 30
0.0
 40
0.3068891179221304
 50
296.046298990400885
 51
300.9314703310815844
  0
ARC
  5
30E84
  8
0
 10
6663.185919879814719
 20
297.9835566983786066
 30
0.0
 40
0.6511429088229778
 50
289.1328622383333027
 51
293.967633914025896
  0
ARC
  5
30E85
  8
0
 10
6663.2478060067032857
 20
297.8022000745685887
 30
0.0
 40
0.4595214748845363
 50
284.4611518110551174
 51
289.2542827042187241
  0
ARC
  5
30E86
  8
0
 10
6663.1500472407205962
 20
298.181265270021413
 30
0.0
 40
0.8509894796179031
 50
282.044826232489072
 51
284.4611518110551174
  0
ARC
  5
30E87
  8
0
 10
6663.2306927317258669
 20
297.8033123058112892
 30
0.0
 40
0.4645284358182874
 50
276.8247362073133786
 51
282.044826232489072
  0
ARC
  5
30E88
  8
0
 10
6663.1938453453221882
 20
298.1111931552928809
 30
0.0
 40
0.7746064056296662
 50
274.0801609868304922
 51
276.8247362073133786
  0
ARC
  5
30E89
  8
0
 10
6663.2049700457027939
 20
298.0279079699961926
 30
0.0
 40
0.6907601150270734
 50
270.3940232322834163
 51
273.6512771864182128
  0
LINE
  5
30E8A
  8
0
 10
6663.2261473371690954
 20
297.3374725574930721
 30
0.0
 11
6663.2294054039903131
 21
297.3377364036359154
 31
0.0
  0
LINE
  5
30E8B
  8
0
 10
6663.2294054039903131
 20
297.3377364036359154
 30
0.0
 11
6663.2195628843692248
 21
297.3383200667209962
 31
0.0
  0
LINE
  5
30E8C
  8
0
 10
6663.2195628843692248
 20
297.3383200667209962
 30
0.0
 11
6663.2097203674593402
 21
297.3382395278546255
 31
0.0
  0
LINE
  5
30E8D
  8
0
 10
6663.2195628843692248
 20
297.3383200667209962
 30
0.0
 11
6663.2195628843692248
 21
297.337302014641125
 31
0.0
  0
LINE
  5
30E8E
  8
0
 10
6663.2195628842609949
 20
297.344565781826816
 30
0.0
 11
6663.2195628843073791
 21
297.3401072762546846
 31
0.0
  0
LINE
  5
30E8F
  8
0
 10
6663.2277166945614226
 20
297.3437854979026156
 30
0.0
 11
6663.2277166945614226
 21
297.346940077930185
 31
0.0
  0
LINE
  5
30E90
  8
0
 10
6663.247401733832703
 20
297.3446809819503756
 30
0.0
 11
6663.247401733832703
 21
297.3478316045731731
 31
0.0
  0
LINE
  5
30E91
  8
0
 10
6663.2277166946078069
 20
297.3409635662864048
 30
0.0
 11
6663.2277173805068742
 21
297.33814507732518
 31
0.0
  0
LINE
  5
30E92
  8
0
 10
6663.2474017339081911
 20
297.3418654907545147
 30
0.0
 11
6663.2474017338890917
 21
297.3390601163517886
 31
0.0
  0
LINE
  5
30E93
  8
0
 10
6663.2555555442449986
 20
297.3399888409048799
 30
0.0
 11
6663.2555555442449986
 21
297.3390487808450757
 31
0.0
  0
LINE
  5
30E94
  8
0
 10
6663.275240583608138
 20
297.3418201249431263
 30
0.0
 11
6663.275240583608138
 21
297.340875104857389
 31
0.0
  0
LINE
  5
30E95
  8
0
 10
6663.2833943939085657
 20
297.3451764240929265
 30
0.0
 11
6663.2833943939085657
 21
297.3424130676331174
 31
0.0
  0
LINE
  5
30E96
  8
0
 10
6663.2752405837318292
 20
297.3479946193676824
 30
0.0
 11
6663.2752405835508398
 21
297.3435753315653756
 31
0.0
  0
LINE
  5
30E97
  8
0
 10
6663.2555555442449986
 20
297.3462007106843998
 30
0.0
 11
6663.2555555439757882
 21
297.3417608430365817
 31
0.0
  0
LINE
  5
30E98
  8
0
 10
6663.2833943937512231
 20
297.3479680915352787
 30
0.0
 11
6663.2833943937512231
 21
297.3511035442430739
 31
0.0
  0
LINE
  5
30E99
  8
0
 10
6663.3030794332089499
 20
297.350679552054487
 30
0.0
 11
6663.3030794332089499
 21
297.3538059831114992
 31
0.0
  0
LINE
  5
30E9A
  8
0
 10
6663.3030794332089499
 20
297.3451915450544902
 30
0.0
 11
6663.3030794334790698
 21
297.3479077546961094
 31
0.0
  0
LINE
  5
30E9B
  8
0
 10
6663.3112332434830023
 20
297.346874920994594
 30
0.0
 11
6663.3112332434830023
 21
297.3458192526949802
 31
0.0
  0
LINE
  5
30E9C
  8
0
 10
6663.3307511731536579
 20
297.3505572684072149
 30
0.0
 11
6663.3307511731536579
 21
297.3496829330135824
 31
0.0
  0
LINE
  5
30E9D
  8
0
 10
6663.3112332433029223
 20
297.3485831789192275
 30
0.0
 11
6663.3112332435539429
 21
297.3529449610521738
 31
0.0
  0
LINE
  5
30E9E
  8
0
 10
6663.3309182831708313
 20
297.3565834005070201
 30
0.0
 11
6663.3309182829088968
 21
297.3522645665531741
 31
0.0
  0
LINE
  5
30E9F
  8
0
 10
6663.3390720931156466
 20
297.3546249293103187
 30
0.0
 11
6663.3390720927864095
 21
297.3520102629602775
 31
0.0
  0
LINE
  5
30EA0
  8
0
 10
6663.3390720931765827
 20
297.3573470063773243
 30
0.0
 11
6663.3390720931765827
 21
297.3604533570382955
 31
0.0
  0
LINE
  5
30EA1
  8
0
 10
6663.3587571323660086
 20
297.3619530855825133
 30
0.0
 11
6663.3587571323660086
 21
297.3650380139300182
 31
0.0
  0
LINE
  5
30EA2
  8
0
 10
6663.3587571325497265
 20
297.3592660901575186
 30
0.0
 11
6663.3587571325097088
 21
297.356723122254607
 31
0.0
  0
LINE
  5
30EA3
  8
0
 10
6663.3669109426591604
 20
297.3607751098140852
 30
0.0
 11
6663.3669109428446973
 21
297.3649923998572149
 31
0.0
  0
LINE
  5
30EA4
  8
0
 10
6663.3865959823442608
 20
297.3705840888953276
 30
0.0
 11
6663.3865959820050193
 21
297.3664361473997246
 31
0.0
  0
LINE
  5
30EA5
  8
0
 10
6663.3947497924473282
 20
297.3672158009470081
 30
0.0
 11
6663.3947497925082644
 21
297.3695945059262158
 31
0.0
  0
LINE
  5
30EA6
  8
0
 10
6663.4144348318086486
 20
297.376293408354627
 30
0.0
 11
6663.4144348318086486
 21
297.3740248654546008
 31
0.0
  0
LINE
  5
30EA7
  8
0
 10
6663.4225886421081668
 20
297.3787225486545935
 30
0.0
 11
6663.4225886421172618
 21
297.382714770974701
 31
0.0
  0
LINE
  5
30EA8
  8
0
 10
6663.442273681507686
 20
297.3904442319545183
 30
0.0
 11
6663.4422736814649397
 21
297.3865551906085898
 31
0.0
  0
LINE
  5
30EA9
  8
0
 10
6663.4504274921100659
 20
297.3905819650346984
 30
0.0
 11
6663.4504274915871065
 21
297.3885585378558858
 31
0.0
  0
LINE
  5
30EAA
  8
0
 10
6663.4701125311075884
 20
297.3977190282075185
 30
0.0
 11
6663.470112531185805
 21
297.3995805497104925
 31
0.0
  0
LINE
  5
30EAB
  8
0
 10
6663.2097204891097135
 20
297.3444868702545136
 30
0.0
 11
6663.2097203674593402
 21
297.3444868712297762
 31
0.0
  0
LINE
  5
30EAC
  8
0
 10
6664.0344390649588604
 20
286.4574421894545253
 30
0.0
 11
6664.0344390649588604
 21
295.5545714554054939
 31
0.0
  0
ARC
  5
30EAD
  8
0
 10
6663.1888439548565657
 20
298.9973821819548903
 30
0.0
 40
0.6786640876659343
 50
77.7984671723960588
 51
88.2372442073509546
  0
ARC
  5
30EAE
  8
0
 10
6663.2408059167873944
 20
299.2986601666912065
 30
0.0
 40
0.3734321274342047
 50
69.9101211451523739
 51
75.8207832647892701
  0
ARC
  5
30EAF
  8
0
 10
6663.2911878949098536
 20
299.4364107861748039
 30
0.0
 40
0.2267570549519452
 50
56.8594898390961418
 51
69.9101211451523739
  0
ARC
  5
30EB0
  8
0
 10
6663.2881320048509224
 20
299.4602178477858843
 30
0.0
 40
0.2090741294942854
 50
31.0769193940617114
 51
52.5875581322470325
  0
ARC
  5
30EB1
  8
0
 10
6663.2052595702662074
 20
298.804466517587116
 30
0.0
 40
0.7033211580889427
 50
77.8785403042678013
 51
89.6366004874198978
  0
ARC
  5
30EB2
  8
0
 10
6663.2796009981093448
 20
299.186090523304415
 30
0.0
 40
0.3146832531241643
 50
64.8000142905404033
 51
76.5217278755237515
  0
ARC
  5
30EB3
  8
0
 10
6663.2856265672553491
 20
299.2454667141548725
 30
0.0
 40
0.2591522252736714
 50
26.1204372890405203
 51
60.4117369412659428
  0
LINE
  5
30EB4
  8
0
 10
6663.2097202458080574
 20
297.3444868702545136
 30
0.0
 11
6663.2097203674593402
 21
297.3444868712297762
 31
0.0
  0
ARC
  5
30EB5
  8
0
 10
6692.042449668277186
 20
306.4600579719690927
 30
0.0
 40
29.3946169107277484
 50
193.5599072820878064
 51
194.5302096016633868
  0
ARC
  5
30EB6
  8
0
 10
6698.7810022093954103
 20
307.5700156531361813
 30
0.0
 40
36.2013623078945201
 50
193.5549330381242044
 51
194.8918104148193891
  0
ARC
  5
30EB7
  8
0
 10
6680.5995604186518904
 20
302.9753607120325114
 30
0.0
 40
17.4513268804135002
 50
195.6541864840492053
 51
197.3039626159645081
  0
ARC
  5
30EB8
  8
0
 10
6658.1369497089672223
 20
296.0454739081815205
 30
0.0
 40
6.0562124954352221
 50
13.2411800506332504
 51
16.6884633831428104
  0
ARC
  5
30EB9
  8
0
 10
6663.2452018020130708
 20
295.9926345532329037
 30
0.0
 40
2.2624652918303489
 50
85.1741191849830841
 51
89.429964669014737
  0
ARC
  5
30EBA
  8
0
 10
6663.322845231786232
 20
296.9605839958159095
 30
0.0
 40
1.291421678590599
 50
79.5659569238315783
 51
84.9938390870367897
  0
ARC
  5
30EBB
  8
0
 10
6663.3982437697741261
 20
297.3478368882488212
 30
0.0
 40
0.8969264482964304
 50
71.221793629974016
 51
79.8226850282759699
  0
ARC
  5
30EBC
  8
0
 10
6663.5601409124392376
 20
297.8313969252762945
 30
0.0
 40
0.3869971840648196
 50
60.7102887857015432
 51
70.8692737458490853
  0
ARC
  5
30EBD
  8
0
 10
6663.6658860206871395
 20
298.0119111848051148
 30
0.0
 40
0.1778702153031187
 50
29.8310532323202793
 51
61.9712086784372786
  0
ARC
  5
30EBE
  8
0
 10
6663.7429463422813569
 20
298.0592358664840731
 30
0.0
 40
0.0875216080158115
 50
11.2112155646397902
 51
28.0496276527567687
  0
ARC
  5
30EBF
  8
0
 10
6659.519331503354806
 20
296.9168088876684806
 30
0.0
 40
4.462713169969927
 50
11.7133630438746703
 51
15.0586020988914502
  0
ARC
  5
30EC0
  8
0
 10
6658.9572421882066919
 20
296.9975026258454136
 30
0.0
 40
5.0004459906973597
 50
6.510373204187605
 51
9.4999458732020425
  0
ARC
  5
30EC1
  8
0
 10
6670.1227480220450161
 20
298.3022307765444907
 30
0.0
 40
6.241065178043935
 50
186.7888614070566007
 51
188.4814511283942977
  0
ARC
  5
30EC2
  8
0
 10
6665.9270827320860917
 20
297.6922020771409052
 30
0.0
 40
2.0013721382828669
 50
188.9239962378665894
 51
195.7571412944060967
  0
ARC
  5
30EC3
  8
0
 10
6660.4378401417334317
 20
296.187928012131124
 30
0.0
 40
3.6903432035913029
 50
13.1596822504129793
 51
15.0908273581791104
  0
ARC
  5
30EC4
  8
0
 10
6663.8436115467702621
 20
297.1282605661697858
 30
0.0
 40
0.1784249772961035
 50
21.4469946193057304
 51
42.3191099262982107
  0
ARC
  5
30EC5
  8
0
 10
6663.749629700285368
 20
297.0913405308589859
 30
0.0
 40
0.2793986197776477
 50
5.6617314343112088
 51
21.4469946193057304
  0
ARC
  5
30EC6
  8
0
 10
6663.2564730416197563
 20
297.0432580655062793
 30
0.0
 40
0.7748935037886894
 50
359.5940453938653718
 51
5.6022447425606217
  0
ARC
  5
30EC7
  8
0
 10
6675.6584184481571356
 20
296.9433134058908195
 30
0.0
 40
11.6274550042149194
 50
179.5345587021209894
 51
180.6892276555186925
  0
ARC
  5
30EC8
  8
0
 10
8659.2936949754985108
 20
300.387787506971506
 30
0.0
 40
1995.2651097721529823
 50
180.1029275299617893
 51
180.1387901540960002
  0
LINE
  5
30EC9
  8
0
 10
6664.0321549450591192
 20
297.4326527049544779
 30
0.0
 11
6663.9425596321980265
 21
297.4326527049544779
 31
0.0
  0
ARC
  5
30ECA
  8
0
 10
6663.9365470974616983
 20
297.1807932197984883
 30
0.0
 40
0.2693957326780777
 50
69.212843035285033
 51
79.7061517354005105
  0
ARC
  5
30ECB
  8
0
 10
6663.8186457804413294
 20
296.58489011235622
 30
0.0
 40
0.8768275404514735
 50
79.0842071335628702
 51
82.0653292715420548
  0
ARC
  5
30ECC
  8
0
 10
6662.5979362520311042
 20
269.1880378132502187
 30
0.0
 40
28.46038118808411
 50
88.5920193533946048
 51
88.7682755327738704
  0
ARC
  5
30ECD
  8
0
 10
6663.2172099691324547
 20
296.0076639882433938
 30
0.0
 40
1.634123462098483
 50
85.3127679955020284
 51
87.1925633062921577
  0
ARC
  5
30ECE
  8
0
 10
6663.2309590231352558
 20
296.1753545606185867
 30
0.0
 40
1.4658701870947031
 50
82.5238674331254458
 51
85.3127679955020284
  0
ARC
  5
30ECF
  8
0
 10
6663.2676341441901968
 20
296.45482933367839
 30
0.0
 40
1.183999271104121
 50
76.332079179349094
 51
82.5238674331254458
  0
ARC
  5
30ED0
  8
0
 10
6663.3636794125259257
 20
296.8604255556494991
 30
0.0
 40
0.7671980830446602
 50
69.9816530680932658
 51
76.1442840079442931
  0
ARC
  5
30ED1
  8
0
 10
6663.5110275945371541
 20
297.2488770709912274
 30
0.0
 40
0.3518177783594772
 50
56.4999815379055832
 51
70.8726327842504134
  0
ARC
  5
30ED2
  8
0
 10
6663.6357360653692012
 20
297.4328708071071787
 30
0.0
 40
0.1295797595850211
 50
36.0788310076506988
 51
57.5787564255001385
  0
ARC
  5
30ED3
  8
0
 10
6663.6925927757938553
 20
297.4722219562930832
 30
0.0
 40
0.0604772421989348
 50
6.8092674061926806
 51
37.6696119387584929
  0
ARC
  5
30ED4
  8
0
 10
6663.6787046469153211
 20
297.4739996946128144
 30
0.0
 40
0.0741351833960013
 50
341.6651899662932124
 51
4.1714774815654323
  0
ARC
  5
30ED5
  8
0
 10
6663.6810228806625673
 20
297.4749390574307881
 30
0.0
 40
0.072248315786281
 50
319.6728354327522084
 51
340.3796277770359211
  0
ARC
  5
30ED6
  8
0
 10
6663.595736417129956
 20
297.5616199858441178
 30
0.0
 40
0.1936694707529362
 50
291.4270375501723152
 51
316.4497103438209251
  0
ARC
  5
30ED7
  8
0
 10
6663.3714610171673485
 20
298.1143786524784218
 30
0.0
 40
0.7901844518323725
 50
278.750532788667897
 51
291.9231988152507142
  0
ARC
  5
30ED8
  8
0
 10
6663.2924320336160235
 20
298.4347267060289255
 30
0.0
 40
1.1192120906503009
 50
269.8989979807856798
 51
280.2544330782644124
  0
ARC
  5
30ED9
  8
0
 10
6663.3248062861503058
 20
291.1442656503447211
 30
0.0
 40
6.1713462861304382
 50
90.3188867917201321
 51
91.0685382678897639
  0
ARC
  5
30EDA
  8
0
 10
6591.6625514389570526
 20
310.1687364157434104
 30
0.0
 40
73.2004145506216872
 50
350.0071303127223814
 51
350.1279865448847772
  0
ARC
  5
30EDB
  8
0
 10
6668.5114989367057206
 20
296.8266406471101959
 30
0.0
 40
4.7982197824409232
 50
168.5771256918980043
 51
170.4987405217256082
  0
ARC
  5
30EDC
  8
0
 10
6664.8245985744069912
 20
297.5763540463054824
 30
0.0
 40
1.0358796703044411
 50
162.3662488661450993
 51
168.8358428767471082
  0
ARC
  5
30EDD
  8
0
 10
6663.1001731259439111
 20
291.2704349963021855
 30
0.0
 40
6.8115553643027402
 50
87.7046998673801852
 51
89.0784975143105839
  0
ARC
  5
30EDE
  8
0
 10
6663.2499150565390664
 20
295.9507167765999043
 30
0.0
 40
2.129367449190164
 50
81.7635234006883422
 51
86.6869351295434569
  0
ARC
  5
30EDF
  8
0
 10
6663.325070525065712
 20
296.469917943677217
 30
0.0
 40
1.6047550243051241
 50
77.3284981025933149
 51
81.7635234006883422
  0
ARC
  5
30EE0
  8
0
 10
6663.5769552323054086
 20
297.5902164030514996
 30
0.0
 40
0.456489138798733
 50
68.1472443468127551
 51
77.3284981025933149
  0
ARC
  5
30EE1
  8
0
 10
6663.6895318701654105
 20
297.8709282043720918
 30
0.0
 40
0.1540447392932776
 50
55.3189652781497827
 51
68.1472443468127551
  0
ARC
  5
30EE2
  8
0
 10
6663.6598082082837209
 20
297.8510093257082758
 30
0.0
 40
0.1877957362442328
 50
32.1173414847652197
 51
51.3162817341772524
  0
ARC
  5
30EE3
  8
0
 10
6663.7388144132419256
 20
297.9024680927444138
 30
0.0
 40
0.0935355876920329
 50
10.6702975061984802
 51
31.1497442734599197
  0
ARC
  5
30EE4
  8
0
 10
6485.1281927414556776
 20
257.7416602508121173
 30
0.0
 40
183.1635324950021015
 50
12.6522436448632298
 51
12.67124484348777
  0
ARC
  5
30EE5
  8
0
 10
6673.2276734187116745
 20
300.0144139873257245
 30
0.0
 40
9.627652637968497
 50
192.9275880801477001
 51
193.4873922972903983
  0
ARC
  5
30EE6
  8
0
 10
6661.7021304468689777
 20
297.2745192643898235
 30
0.0
 40
2.2191873881942632
 50
8.0633672969723094
 51
12.8732511074041298
  0
ARC
  5
30EE7
  8
0
 10
6657.2205324849082899
 20
296.642591389623874
 30
0.0
 40
6.7451182623086368
 50
6.5712733920807507
 51
8.0383476648065173
  0
ARC
  5
30EE8
  8
0
 10
6674.1056197395719209
 20
298.5109986256425145
 30
0.0
 40
10.2431405935501108
 50
186.1451417471483012
 51
188.1333485349275065
  0
ARC
  5
30EE9
  8
0
 10
6588.9094238137531647
 20
284.4413226482841992
 30
0.0
 40
76.1097441728092861
 50
9.3306346767307105
 51
9.5448616794326835
  0
ARC
  5
30EEA
  8
0
 10
6654.1870746208369383
 20
295.1475689760491719
 30
0.0
 40
9.9599697473059354
 50
8.7140528074366141
 51
9.4397393485562002
  0
LINE
  5
30EEC
  8
0
 10
6664.0344390649588604
 20
294.4236626670544865
 30
0.0
 11
6662.3850016699589105
 21
294.4236626670544865
 31
0.0
  0
LINE
  5
30EED
  8
0
 10
6663.1517300520317804
 20
298.2549878737863196
 30
0.0
 11
6663.267710682885081
 21
298.2549878737863196
 31
0.0
  0
LINE
  5
31084
  8
0
 10
6663.0885071870143292
 20
297.4326000243901262
 30
0.0
 11
6663.0885071871107357
 21
297.4146498357129076
 31
0.0
  0
LINE
  5
31085
  8
0
 10
6663.3309335479043511
 20
297.4326000243901262
 30
0.0
 11
6663.3309335478061257
 21
297.4146498357129076
 31
0.0
  0
ENDSEC
  0
EOF
