  0
SECTION
  2
HEADER
  9
$ACADVER
  1
AC1009
  9
$INSBASE
 10
321.5363959183918041
 20
-5.7335115839310307
 30
0.0
  9
$EXTMIN
 10
313.8604052083230158
 20
-6.9146204941819462
 30
-0.0015258207003583
  9
$EXTMAX
 10
321.5624426858335028
 20
-4.551463537012018
 30
0.0000000349246037
  9
$LIMMIN
 10
0.0
 20
0.0
  9
$LIMMAX
 10
11.6929133858000007
 20
8.2677165353999982
  9
$ORTHOMODE
 70
     0
  9
$REGENMODE
 70
     1
  9
$FILLMODE
 70
     1
  9
$QTEXTMODE
 70
     0
  9
$MIRRTEXT
 70
     0
  9
$DRAGMODE
 70
     2
  9
$LTSCALE
 40
0.6431102362
  9
$OSMODE
 70
  4095
  9
$ATTMODE
 70
     1
  9
$TEXTSIZE
 40
0.2
  9
$TRACEWID
 40
0.05
  9
$TEXTSTYLE
  7
STANDARD
  9
$CLAYER
  8
0
  9
$CELTYPE
  6
BYLAYER
  9
$CECOLOR
 62
   256
  9
$DIMSCALE
 40
1.0
  9
$DIMASZ
 40
0.1875
  9
$DIMEXO
 40
0.0625
  9
$DIMDLI
 40
0.4443307087
  9
$DIMRND
 40
0.0
  9
$DIMDLE
 40
0.0
  9
$DIMEXE
 40
0.125
  9
$DIMTP
 40
0.01
  9
$DIMTM
 40
0.01
  9
$DIMTXT
 40
1.0
  9
$DIMCEN
 40
0.1052362205
  9
$DIMTSZ
 40
0.0
  9
$DIMTOL
 70
     1
  9
$DIMLIM
 70
     0
  9
$DIMTIH
 70
     1
  9
$DIMTOH
 70
     1
  9
$DIMSE1
 70
     0
  9
$DIMSE2
 70
     0
  9
$DIMTAD
 70
     0
  9
$DIMZIN
 70
     0
  9
$DIMBLK
  1

  9
$DIMASO
 70
     1
  9
$DIMSHO
 70
     1
  9
$DIMPOST
  1
\X
  9
$DIMAPOST
  1

  9
$DIMALT
 70
     1
  9
$DIMALTD
 70
     2
  9
$DIMALTF
 40
25.3999999999999986
  9
$DIMLFAC
 40
1.0
  9
$DIMTOFL
 70
     0
  9
$DIMTVP
 40
0.0
  9
$DIMTIX
 70
     0
  9
$DIMSOXD
 70
     0
  9
$DIMSAH
 70
     0
  9
$DIMBLK1
  1

  9
$DIMBLK2
  1

  9
$DIMSTYLE
  2
STANDARD
  9
$DIMCLRD
 70
     0
  9
$DIMCLRE
 70
     0
  9
$DIMCLRT
 70
     0
  9
$DIMTFAC
 40
1.0
  9
$DIMGAP
 40
0.09
  9
$LUNITS
 70
     2
  9
$LUPREC
 70
     4
  9
$SKETCHINC
 40
0.1
  9
$FILLETRAD
 40
0.0
  9
$AUNITS
 70
     0
  9
$AUPREC
 70
     0
  9
$MENU
  1
.
  9
$ELEVATION
 40
0.0
  9
$PELEVATION
 40
0.0
  9
$THICKNESS
 40
0.0
  9
$LIMCHECK
 70
     0
  9
$BLIPMODE
 70
     0
  9
$CHAMFERA
 40
0.0
  9
$CHAMFERB
 40
0.0
  9
$SKPOLY
 70
     0
  9
$TDCREATE
 40
2458172.4620254631154239
  9
$TDUPDATE
 40
2460398.5185879631899297
  9
$TDINDWG
 40
0.3431772338
  9
$TDUSRTIMER
 40
0.3431772338
  9
$USRTIMER
 70
     1
  9
$ANGBASE
 50
0.0
  9
$ANGDIR
 70
     0
  9
$PDMODE
 70
     0
  9
$PDSIZE
 40
0.3125
  9
$PLINEWID
 40
0.0
  9
$COORDS
 70
     1
  9
$SPLFRAME
 70
     0
  9
$SPLINETYPE
 70
     6
  9
$SPLINESEGS
 70
     8
  9
$ATTDIA
 70
     1
  9
$ATTREQ
 70
     1
  9
$HANDLING
 70
     1
  9
$HANDSEED
  5
6B36
  9
$SURFTAB1
 70
     6
  9
$SURFTAB2
 70
     6
  9
$SURFTYPE
 70
     6
  9
$SURFU
 70
     6
  9
$SURFV
 70
     6
  9
$UCSNAME
  2

  9
$UCSORG
 10
0.0
 20
0.0
 30
0.0
  9
$UCSXDIR
 10
1.0
 20
0.0
 30
0.0
  9
$UCSYDIR
 10
0.0
 20
1.0
 30
0.0
  9
$PUCSNAME
  2

  9
$PUCSORG
 10
0.0
 20
0.0
 30
0.0
  9
$PUCSXDIR
 10
1.0
 20
0.0
 30
0.0
  9
$PUCSYDIR
 10
0.0
 20
1.0
 30
0.0
  9
$USERI1
 70
     0
  9
$USERI2
 70
     0
  9
$USERI3
 70
     0
  9
$USERI4
 70
     0
  9
$USERI5
 70
     0
  9
$USERR1
 40
0.0
  9
$USERR2
 40
0.0
  9
$USERR3
 40
0.0
  9
$USERR4
 40
0.0
  9
$USERR5
 40
0.0
  9
$WORLDVIEW
 70
     1
  9
$SHADEDGE
 70
     3
  9
$SHADEDIF
 70
    70
  9
$TILEMODE
 70
     1
  9
$MAXACTVP
 70
    64
  9
$PLIMCHECK
 70
     0
  9
$PEXTMIN
 10
1.0000000000000000E+20
 20
1.0000000000000000E+20
 30
1.0000000000000000E+20
  9
$PEXTMAX
 10
-1.0000000000000000E+20
 20
-1.0000000000000000E+20
 30
-1.0000000000000000E+20
  9
$PLIMMIN
 10
0.0
 20
0.0
  9
$PLIMMAX
 10
12.0
 20
9.0
  9
$UNITMODE
 70
     0
  9
$VISRETAIN
 70
     1
  9
$PLINEGEN
 70
     0
  9
$PSLTSCALE
 70
     1
  0
ENDSEC
  0
SECTION
  2
TABLES
  0
TABLE
  2
VPORT
 70
     1
  0
VPORT
  2
*ACTIVE
 70
     0
 10
0.0
 20
0.0
 11
1.0
 21
1.0
 12
193.1002653470054895
 22
-11.0453161859747997
 13
0.0
 23
0.0
 14
1.0
 24
1.0
 15
0.0
 25
0.0
 16
0.0
 26
0.0
 36
30.6214257250603907
 17
124.6111586000725993
 27
5.3122741703778242
 37
0.0
 40
3.092163667094689
 41
2.498684210526315
 42
50.0
 43
0.0
 44
0.0
 50
0.0
 51
0.0
 71
     0
 72
   100
 73
     1
 74
     1
 75
     0
 76
     0
 77
     0
 78
     0
  0
ENDTAB
  0
TABLE
  2
LTYPE
 70
     2
  0
LTYPE
  2
CONTINUOUS
 70
     0
  3
Solid line
 72
    65
 73
     0
 40
0.0
  0
LTYPE
  2
PHANTOM2
 70
     0
  3
___ _ _ ___ _ _ ___ _ _ ___ _ _
 72
    65
 73
     6
 40
1.25
 49
0.625
 49
-0.125
 49
0.125
 49
-0.125
 49
0.125
 49
-0.125
  0
ENDTAB
  0
TABLE
  2
LAYER
 70
     2
  0
LAYER
  2
0
 70
     0
 62
   255
  6
CONTINUOUS
  0
LAYER
  2
DEFPOINTS
 70
     0
 62
     7
  6
CONTINUOUS
  0
ENDTAB
  0
TABLE
  2
STYLE
 70
     1
  0
STYLE
  2
STANDARD
 70
     0
 40
0.0
 41
0.8
 50
0.0
 71
     0
 42
0.2
  3
txt
  4

  0
ENDTAB
  0
TABLE
  2
VIEW
 70
     0
  0
ENDTAB
  0
TABLE
  2
UCS
 70
     0
  0
ENDTAB
  0
TABLE
  2
APPID
 70
     9
  0
APPID
  2
ACAD
 70
     0
  0
APPID
  2
ACAD_MLEADERVER
 70
     0
  0
APPID
  2
ACAD_EXEMPT_FROM_CAD_STANDARDS
 70
     0
  0
APPID
  2
ACAD_DSTYLE_DIMJAG
 70
     0
  0
APPID
  2
ACAD_DSTYLE_DIMTALN
 70
     0
  0
APPID
  2
ACAD_NAV_VCDISPLAY
 70
     0
  0
APPID
  2
ACAECLAYERSTANDARD
 70
     0
  0
APPID
  2
ACCMTRANSPARENCY
 70
     0
  0
APPID
  2
ACDBATTR
 70
     0
  0
ENDTAB
  0
TABLE
  2
DIMSTYLE
 70
     1
  0
DIMSTYLE
  2
STANDARD
 70
     0
  3

  4

  5

  6

  7

 40
1.0
 41
0.1875
 42
0.0625
 43
0.38
 44
0.125
 45
0.0
 46
0.0
 47
0.01
 48
0.01
140
0.15625
141
0.09
142
0.0
143
25.3999999999999986
144
1.0
145
0.0
146
1.0
147
0.09
 71
     1
 72
     0
 73
     1
 74
     1
 75
     0
 76
     0
 77
     0
 78
     4
170
     0
171
     2
172
     0
173
     0
174
     0
175
     0
176
     0
177
     0
178
     0
  0
ENDTAB
  0
ENDSEC
  0
SECTION
  2
BLOCKS
  0
BLOCK
  8
0
  2
$MODEL_SPACE
 70
     0
 10
0.0
 20
0.0
 30
0.0
  3
$MODEL_SPACE
  1

  0
ENDBLK
  5
21
  8
0
  0
BLOCK
 67
     1
  8
0
  2
$PAPER_SPACE
 70
     0
 10
0.0
 20
0.0
 30
0.0
  3
$PAPER_SPACE
  1

  0
ENDBLK
  5
1D
 67
     1
  8
0
  0
BLOCK
  8
0
  2
_FILLED
 70
     0
 10
0.0
 20
0.0
 30
0.0
  3
_FILLED
  1

  0
SOLID
  5
572C
  8
0
  6
BYBLOCK
 62
     0
 10
0.0
 20
0.0
 30
0.0
 11
-1.0
 21
0.1666666667
 31
0.0
 12
-1.0
 22
-0.1666666667
 32
0.0
 13
-1.0
 23
-0.1666666667
 33
0.0
  0
ENDBLK
  5
572D
  8
0
  6
BYBLOCK
 62
     0
  0
ENDSEC
  0
SECTION
  2
ENTITIES
  0
ATTDEF
  5
4C62
  8
DEFPOINTS
 10
321.537425889721078
 20
-5.7333732257780676
 30
0.0
 40
0.001
  1
K-33851T-4
  3

  2
MODELNUMBER
 70
     0
1001
ACDBATTR
1070
     0
1070
     1
  0
ATTDEF
  5
4C63
  8
DEFPOINTS
 10
321.537425889721078
 20
-5.7350398924447328
 30
0.0
 40
0.001
  1

  3

  2
TRADENAME
 70
     0
1001
ACDBATTR
1070
     0
1070
     1
  0
ATTDEF
  5
4C64
  8
DEFPOINTS
 10
321.537425889721078
 20
-5.7367065591113979
 30
0.0
 40
0.001
  1
BATHROOM SINK FAUCET
  3

  2
PRODUCT
 70
     0
1001
ACDBATTR
1070
     0
1070
     1
  0
ARC
  5
690E
  8
0
 10
343.2908551118646869
 20
-3165.7301237566580312
 30
0.0
 40
3160.3741167775560825
 50
90.4487643419743961
 51
90.5219944842106941
  0
ARC
  5
690F
  8
0
 10
310.6549432280773999
 20
416.3925477815628824
 30
0.0
 40
421.8972208925276846
 50
270.4375220896441192
 51
270.5219944842107225
  0
ARC
  5
6910
  8
0
 10
314.7213728618066853
 20
-16.4599654310182189
 30
0.0
 40
11.0000782418572403
 50
92.1149225925251329
 51
94.4044266740269222
  0
ARC
  5
6911
  8
0
 10
315.5127756428123007
 20
-37.8902737762517816
 30
0.0
 40
32.4449945189978379
 50
91.3293215814398707
 51
92.1149225925251329
  0
ARC
  5
6912
  8
0
 10
313.7859819586406047
 20
129.4771469238322936
 30
0.0
 40
134.9346742778593011
 50
270.4136261722898098
 51
272.0692845585672899
  0
ARC
  5
6913
  8
0
 10
313.8772371720395995
 20
-5.5044628339428199
 30
0.0
 40
0.0121067009653043
 50
92.9685598806408251
 51
156.8420552150327865
  0
ARC
  5
6914
  8
0
 10
313.8797603256346065
 20
-5.5055420674348268
 30
0.0
 40
0.0148509766427696
 50
156.8420552150342075
 51
220.1359856816245895
  0
ARC
  5
6915
  8
0
 10
312.9207859507213243
 20
-6.2659506314528768
 30
0.0
 40
1.2090238890456799
 50
31.8607824441118304
 51
38.3911151240619191
  0
ARC
  5
6916
  8
0
 10
313.9959472531356823
 20
-5.5937822573311102
 30
0.0
 40
0.0590510091998632
 50
215.1259487840893883
 51
221.6322064031170953
  0
ARC
  5
6917
  8
0
 10
320.1653805712001031
 20
-0.4675351926023588
 30
0.0
 40
8.0802600636225268
 50
219.737494742307689
 51
223.6655113563411135
  0
ARC
  5
6918
  8
0
 10
314.3344513865371823
 20
-6.0328872536916442
 30
0.0
 40
0.0196845979858116
 50
223.8626605669149114
 51
262.0007384721429844
  0
ARC
  5
6919
  8
0
 10
58.5793503696064874
 20
-1829.7932304274399939
 30
0.0
 40
1841.5862615893070142
 50
81.9828176054696911
 51
82.0171823959501296
  0
ARC
  5
691A
  8
0
 10
315.4294944681832931
 20
-6.1913276380591951
 30
0.0
 40
0.0153041259291141
 50
254.8973637603550912
 51
314.257594105886426
  0
ARC
  5
691B
  8
0
 10
315.6275081450958169
 20
-6.4425690298679639
 30
0.0
 40
0.3046775271340858
 50
108.8582066029843958
 51
127.941540085327901
  0
ARC
  5
691C
  8
0
 10
315.8252376133748953
 20
-7.2443870838787383
 30
0.0
 40
1.129666898564178
 50
92.9963825578536927
 51
105.201214308556402
  0
ARC
  5
691D
  8
0
 10
316.2547853677966145
 20
-19.000627574570661
 30
0.0
 40
12.8936239031831992
 50
87.7825689113666954
 51
92.1717206504814897
  0
ARC
  5
691E
  8
0
 10
338.5203912988064872
 20
1034.3616768858619253
 30
0.0
 40
1040.7059896640189436
 50
268.8015514275630835
 51
268.9132570412215841
  0
LINE
  5
691F
  8
0
 10
321.5363959183918041
 20
-6.9067139461310312
 30
0.0
 11
321.5363959183918041
 21
-4.560309221731031
 31
0.0
  0
LINE
  5
6920
  8
0
 10
321.5284959183917977
 20
-4.5524092217310317
 30
0.0
 11
321.386815603391824
 21
-4.5524092217310317
 31
0.0
  0
LINE
  5
6921
  8
0
 10
321.5284959183917977
 20
-6.9146139461310341
 30
0.0
 11
321.386815603391824
 21
-6.9146139461310341
 31
0.0
  0
ARC
  5
6922
  8
0
 10
321.5284959183917977
 20
-6.9067139461310312
 30
0.0
 40
0.0079
 50
270.0
 51
0.0
  0
LINE
  5
6923
  8
0
 10
321.3789156033918175
 20
-6.9067139461310312
 30
0.0
 11
321.3789156033918175
 21
-4.560309221731031
 31
0.0
  0
ARC
  5
6924
  8
0
 10
321.386815603391824
 20
-6.9067139461310338
 30
0.0
 40
0.0079
 50
179.9999999999870113
 51
269.9999999999739089
  0
LINE
  5
6925
  8
0
 10
321.3789156033918175
 20
-6.2846926862310317
 30
0.0
 11
319.9694927687917811
 21
-6.2846926862310317
 31
0.0
  0
LINE
  5
6926
  8
0
 10
319.9321077293918165
 20
-6.2846926862310317
 30
0.0
 11
319.386697036014823
 21
-6.2846542878310308
 31
0.0
  0
LINE
  5
6927
  8
0
 10
321.3789156033918175
 20
-5.1823304815310323
 30
0.0
 11
319.9687148097420959
 21
-5.1823304815310323
 31
0.0
  0
LINE
  5
6928
  8
0
 10
319.9329744093805061
 20
-5.1823304815310323
 30
0.0
 11
319.386697036014823
 21
-5.1823304815310323
 31
0.0
  0
ARC
  5
6929
  8
0
 10
321.5284959183917977
 20
-4.5603092217310346
 30
0.0
 40
0.0079
 50
0.0000000000126204
 51
90.0
  0
ARC
  5
692A
  8
0
 10
321.386815603391824
 20
-4.560309221731031
 30
0.0
 40
0.0079
 50
90.0000000000260485
 51
179.9999999999934914
  0
LINE
  5
692B
  8
0
 10
319.9615927687917747
 20
-6.2767926862310333
 30
0.0
 11
319.9615927687917747
 21
-5.1901920831310298
 31
0.0
  0
LINE
  5
692C
  8
0
 10
319.9419077293918008
 20
-6.2748926862310297
 30
0.0
 11
319.9419077293918008
 21
-5.1920920831310333
 31
0.0
  0
LINE
  5
692D
  8
0
 10
319.9615927687917747
 20
-6.2256375681310301
 30
0.0
 11
319.9419077293918008
 21
-6.2256375681310301
 31
0.0
  0
ARC
  5
692E
  8
0
 10
319.9694927687917811
 20
-6.2767926862310333
 30
0.0
 40
0.0079
 50
179.9999999999934914
 51
269.9999999999869829
  0
ARC
  5
692F
  8
0
 10
319.9321077293918165
 20
-6.2748926862310297
 30
0.0
 40
0.0098
 50
269.9999999999902229
 51
359.9999999999947136
  0
LINE
  5
6930
  8
0
 10
319.9615927687917747
 20
-5.241347201231032
 30
0.0
 11
319.9419077293918008
 21
-5.241347201231032
 31
0.0
  0
ARC
  5
6931
  8
0
 10
319.9694927687917811
 20
-5.1901920831310298
 30
0.0
 40
0.0079
 50
90.0000000000130314
 51
180.0000000000061107
  0
ARC
  5
6932
  8
0
 10
319.9321077293918165
 20
-5.1920920831310333
 30
0.0
 40
0.0098
 50
0.0000000000048853
 51
90.0000000000097771
  0
ARC
  5
6933
  8
0
 10
322.2760749383882057
 20
-12.7322846332441308
 30
0.0
 40
8.2036022355940847
 50
113.0786324795644049
 51
116.5337248133760966
  0
ARC
  5
6934
  8
0
 10
318.7878720682545008
 20
-5.7463326101849361
 30
0.0
 40
0.395203876667118
 50
116.5337248133760966
 51
125.6877724520947055
  0
ARC
  5
6935
  8
0
 10
318.5830460170586207
 20
-5.4611585908522278
 30
0.0
 40
0.04409430324184
 50
125.687772452094606
 51
151.7288157911835924
  0
ARC
  5
6936
  8
0
 10
318.8340684404843159
 20
-5.5961574354816062
 30
0.0
 40
0.3291152588113707
 50
151.7288157911835924
 51
156.853015465298995
  0
ARC
  5
6937
  8
0
 10
319.4491726965815133
 20
-5.7067951788833664
 30
0.0
 40
0.9485910804773952
 50
165.3438596542441132
 51
181.613909014481294
  0
ARC
  5
6938
  8
0
 10
319.5127819586359124
 20
-6.4608171673428698
 30
0.0
 40
1.288367516205194
 50
97.1693886797994537
 51
106.4207344914076003
  0
ARC
  5
6939
  8
0
 10
320.4410179937692078
 20
-9.6104839729487939
 30
0.0
 40
4.5719666274329631
 50
106.4207344914076003
 51
111.6581007697443937
  0
ARC
  5
693A
  8
0
 10
317.7662826966093235
 20
-2.8748374076885912
 30
0.0
 40
2.6753186271968459
 50
290.8538751809433052
 51
291.6581007697445216
  0
ARC
  5
693B
  8
0
 10
318.7595442881753911
 20
-5.4822288165561233
 30
0.0
 40
0.1148531503675191
 50
110.8538751809433052
 51
148.578987761088996
  0
ARC
  5
693C
  8
0
 10
318.8464429963530051
 20
-5.5353157669342394
 30
0.0
 40
0.2166844313345853
 50
148.578987761088996
 51
173.1531343748928009
  0
ARC
  5
693D
  8
0
 10
320.2049431989264008
 20
-5.6984342168754081
 30
0.0
 40
1.584942604744523
 50
173.1531343748928009
 51
181.268153601265908
  0
ARC
  5
693E
  8
0
 10
319.0765619865528038
 20
-5.232713479163869
 30
0.0
 40
0.0501823298717456
 50
89.7217312730325318
 51
108.8944967397134036
  0
ARC
  5
693F
  8
0
 10
319.213475689557697
 20
22.9577186503368189
 30
0.0
 40
28.1405822750490593
 50
269.7217312730325034
 51
270.3526904544768854
  0
ARC
  5
6940
  8
0
 10
322.2760749383882057
 20
1.2652998638820629
 30
0.0
 40
8.2036022355940847
 50
243.4662751866239034
 51
246.9213675204356093
  0
ARC
  5
6941
  8
0
 10
318.7878720682545008
 20
-5.7206521591771269
 30
0.0
 40
0.395203876667118
 50
234.3122275479053087
 51
243.4662751866239034
  0
ARC
  5
6942
  8
0
 10
318.5830460170586207
 20
-6.0058261785098352
 30
0.0
 40
0.04409430324184
 50
208.2711842088164076
 51
234.3122275479053087
  0
ARC
  5
6943
  8
0
 10
318.8340684404843159
 20
-5.8708273338804569
 30
0.0
 40
0.3291152588113707
 50
203.146984534701005
 51
208.2711842088162086
  0
ARC
  5
6944
  8
0
 10
319.4491726965815133
 20
-5.7601895904786966
 30
0.0
 40
0.9485910804773952
 50
178.3860909855183934
 51
194.6561403457558015
  0
ARC
  5
6945
  8
0
 10
319.5127819586359124
 20
-5.0061676020191932
 30
0.0
 40
1.288367516205194
 50
253.5792655085923002
 51
262.8306113202004894
  0
ARC
  5
6946
  8
0
 10
320.4410179937692078
 20
-1.8565007964132709
 30
0.0
 40
4.5719666274329631
 50
248.3418992302555921
 51
253.5792655085923002
  0
ARC
  5
6947
  8
0
 10
317.7662826966093235
 20
-8.5921473616734723
 30
0.0
 40
2.6753186271968459
 50
68.3418992302555637
 51
69.1461248190566806
  0
ARC
  5
6948
  8
0
 10
318.7595442881753911
 20
-5.9847559528059397
 30
0.0
 40
0.1148531503675191
 50
211.4210122389108903
 51
249.1461248190566948
  0
ARC
  5
6949
  8
0
 10
318.8464429963530051
 20
-5.9316690024278236
 30
0.0
 40
0.2166844313345853
 50
186.8468656251071138
 51
211.4210122389108903
  0
ARC
  5
694A
  8
0
 10
320.2049431989264008
 20
-5.768550552486654
 30
0.0
 40
1.584942604744523
 50
178.731846398733893
 51
186.8468656251071138
  0
ARC
  5
694B
  8
0
 10
319.0765619865528038
 20
-6.234271290198194
 30
0.0
 40
0.0501823298717456
 50
251.1055032602866106
 51
270.2782687269674966
  0
ARC
  5
694C
  8
0
 10
319.213475689557697
 20
-34.4247034196988935
 30
0.0
 40
28.1405822750490593
 50
89.6473095455230293
 51
90.2782687269674682
  0
LINE
  5
694E
  8
0
 10
314.5318565440358043
 20
-6.0805087891311027
 30
0.0
 11
314.5291947958145897
 21
-6.099448111828127
 31
0.0
  0
ARC
  5
694F
  8
0
 10
314.5681817272151193
 20
-6.1049273677109506
 30
0.0
 40
0.0393700782962743
 50
171.999999998101714
 51
217.0000004794717938
  0
LINE
  5
6950
  8
0
 10
314.5367393848525808
 20
-6.1286208725554419
 30
0.0
 11
314.5436790518124894
 21
-6.1378301214979594
 31
0.0
  0
LINE
  5
6951
  8
0
 10
314.5436790518124894
 20
-6.1378301214979594
 30
0.0
 11
315.2064568929358188
 21
-6.2309774727311051
 31
0.0
  0
LINE
  5
6952
  8
0
 10
315.2064568929358188
 20
-6.2309774727311051
 30
0.0
 11
315.2156661419601278
 21
-6.224037805714282
 31
0.0
  0
ARC
  5
6953
  8
0
 10
315.1919726364059784
 20
-6.1925954623887298
 30
0.0
 40
0.0393700794925238
 50
307.000000460823685
 51
351.9999992757968812
  0
ARC
  5
6954
  8
0
 10
364.0003028572270978
 20
-13.0521595611622505
 30
0.0
 40
49.2486276336414903
 50
171.9776930106893076
 51
171.9999992757967107
  0
ARC
  5
6955
  8
0
 10
314.9502707064621063
 20
-5.6560132747996654
 30
0.0
 40
0.5928436930413027
 50
236.1924854186723053
 51
256.9568765697437129
  0
LINE
  5
6956
  8
0
 10
314.8164751652357722
 20
-6.2335618853311043
 30
0.0
 11
314.8243849609877998
 21
-6.1772807643722842
 31
0.0
  0
LINE
  5
6957
  8
0
 10
314.7931954154357754
 20
-6.1728973597311043
 30
0.0
 11
314.7924263418357782
 21
-6.1783696026311041
 31
0.0
  0
LINE
  5
6958
  8
0
 10
314.7924263418357782
 20
-6.1783696026311041
 30
0.0
 11
314.7915841789358069
 21
-6.1783306834311036
 31
0.0
  0
LINE
  5
6959
  8
0
 10
314.7915841789358069
 20
-6.1783306834311036
 30
0.0
 11
314.779222661565484
 21
-6.1709336172012801
 31
0.0
  0
LINE
  5
695A
  8
0
 10
314.7914357367358207
 20
-6.185418124131103
 30
0.0
 11
314.7906489389441163
 21
-6.1849852611600751
 31
0.0
  0
LINE
  5
695B
  8
0
 10
314.7906489389441163
 20
-6.1849852611600751
 30
0.0
 11
314.7736407176357716
 21
-6.1835119475311053
 31
0.0
  0
LINE
  5
695C
  8
0
 10
314.7736407176357716
 20
-6.1835119475311053
 30
0.0
 11
314.7726668943358277
 21
-6.1904410601311026
 31
0.0
  0
LINE
  5
695D
  8
0
 10
314.7726668943358277
 20
-6.1904410601311026
 30
0.0
 11
314.7887103378358233
 21
-6.1987791249311028
 31
0.0
  0
LINE
  5
695E
  8
0
 10
314.7887103378358233
 20
-6.1987791249311028
 30
0.0
 11
314.7895453620358239
 21
-6.1988688394311051
 31
0.0
  0
LINE
  5
695F
  8
0
 10
314.7895453620358239
 20
-6.1988688394311051
 30
0.0
 11
314.7914357367358207
 21
-6.185418124131103
 31
0.0
  0
LINE
  5
6960
  8
0
 10
314.7875178969358103
 20
-6.2132950033311038
 30
0.0
 11
314.7888285529357972
 21
-6.2039692010311054
 31
0.0
  0
LINE
  5
6961
  8
0
 10
314.7888285529357972
 20
-6.2039692010311054
 30
0.0
 11
314.788033601135794
 21
-6.203594356731104
 31
0.0
  0
LINE
  5
6962
  8
0
 10
314.788033601135794
 20
-6.203594356731104
 30
0.0
 11
314.7711650608358127
 21
-6.2011271606311036
 31
0.0
  0
LINE
  5
6963
  8
0
 10
314.7711650608358127
 20
-6.2011271606311036
 30
0.0
 11
314.7704900529968199
 21
-6.2059300911999511
 31
0.0
  0
LINE
  5
6964
  8
0
 10
314.7704900529968199
 20
-6.2059300911999511
 30
0.0
 11
314.7866895314332965
 21
-6.2131579098483751
 31
0.0
  0
LINE
  5
6965
  8
0
 10
314.7866895314332965
 20
-6.2131579098483751
 30
0.0
 11
314.7875178969358103
 21
-6.2132950033311038
 31
0.0
  0
LINE
  5
6966
  8
0
 10
314.7862797388357876
 20
-6.2221049554311039
 30
0.0
 11
314.7870514044357719
 21
-6.216614269931104
 31
0.0
  0
LINE
  5
6967
  8
0
 10
314.7870514044357719
 20
-6.216614269931104
 30
0.0
 11
314.7862491217152865
 21
-6.2162915879853289
 31
0.0
  0
LINE
  5
6968
  8
0
 10
314.7862491217152865
 20
-6.2162915879853289
 30
0.0
 11
314.7695129564357899
 21
-6.2128824943311036
 31
0.0
  0
LINE
  5
6969
  8
0
 10
314.7695129564357899
 20
-6.2128824943311036
 30
0.0
 11
314.7691155995742065
 21
-6.2157098352726328
 31
0.0
  0
LINE
  5
696A
  8
0
 10
314.7691155995742065
 20
-6.2157098352726328
 30
0.0
 11
314.785457791535805
 21
-6.2219221943311052
 31
0.0
  0
LINE
  5
696B
  8
0
 10
314.785457791535805
 20
-6.2219221943311052
 30
0.0
 11
314.7862797388357876
 21
-6.2221049554311039
 31
0.0
  0
LINE
  5
696C
  8
0
 10
314.7858041815080128
 20
-6.2255871563535301
 30
0.0
 11
314.786049717535775
 21
-6.2237416424311043
 31
0.0
  0
LINE
  5
696D
  8
0
 10
314.786049717535775
 20
-6.2237416424311043
 30
0.0
 11
314.785240632435773
 21
-6.2234673622311041
 31
0.0
  0
LINE
  5
696E
  8
0
 10
314.785240632435773
 20
-6.2234673622311041
 30
0.0
 11
314.7686338829639112
 21
-6.2191374270223507
 31
0.0
  0
LINE
  5
696F
  8
0
 10
314.7686338829639112
 20
-6.2191374270223507
 30
0.0
 11
314.768502652335826
 21
-6.220071181631103
 31
0.0
  0
LINE
  5
6970
  8
0
 10
314.768502652335826
 20
-6.220071181631103
 30
0.0
 11
314.7769041816183062
 21
-6.2229415704794819
 31
0.0
  0
LINE
  5
6971
  8
0
 10
314.7479144401357871
 20
-6.166533533631104
 30
0.0
 11
314.7473324910412202
 21
-6.1706743166835132
 31
0.0
  0
LINE
  5
6972
  8
0
 10
314.7473324910412202
 20
-6.1706743166835132
 30
0.0
 11
314.763159080600019
 21
-6.1805553779297782
 31
0.0
  0
LINE
  5
6973
  8
0
 10
314.763159080600019
 20
-6.1805553779297782
 30
0.0
 11
314.7801161893357857
 21
-6.1823923765311051
 31
0.0
  0
LINE
  5
6974
  8
0
 10
314.7801161893357857
 20
-6.1823923765311051
 30
0.0
 11
314.7812489199358197
 21
-6.1743325792311046
 31
0.0
  0
LINE
  5
6975
  8
0
 10
314.7812489199358197
 20
-6.1743325792311046
 30
0.0
 11
314.7747017688903952
 21
-6.170299198035992
 31
0.0
  0
LINE
  5
6976
  8
0
 10
314.7623492984988047
 20
-6.1863172763106551
 30
0.0
 11
314.7455319536394995
 21
-6.1834858054373418
 31
0.0
  0
LINE
  5
6977
  8
0
 10
314.7455319536394995
 20
-6.1834858054373418
 30
0.0
 11
314.7447023446358116
 21
-6.189388780331103
 31
0.0
  0
LINE
  5
6978
  8
0
 10
314.7447023446358116
 20
-6.189388780331103
 30
0.0
 11
314.7607001164885219
 21
-6.1980518157958597
 31
0.0
  0
LINE
  5
6979
  8
0
 10
314.7607001164885219
 20
-6.1980518157958597
 30
0.0
 11
314.7775190260358045
 21
-6.2008721535311038
 31
0.0
  0
LINE
  5
697A
  8
0
 10
314.7775190260358045
 20
-6.2008721535311038
 30
0.0
 11
314.7783384722341111
 21
-6.1950414909433853
 31
0.0
  0
LINE
  5
697B
  8
0
 10
314.7783384722341111
 20
-6.1950414909433853
 30
0.0
 11
314.762349298498691
 21
-6.1863172763106506
 31
0.0
  0
LINE
  5
697C
  8
0
 10
314.7757535079358036
 20
-6.2134344672311039
 30
0.0
 11
314.7762867109425997
 21
-6.2096405307484188
 31
0.0
  0
LINE
  5
697D
  8
0
 10
314.7762867109425997
 20
-6.2096405307484188
 30
0.0
 11
314.760141669781774
 21
-6.2020442847617376
 31
0.0
  0
LINE
  5
697E
  8
0
 10
314.760141669781774
 20
-6.2020442847617376
 30
0.0
 11
314.7434551486358032
 21
-6.1982630411311037
 31
0.0
  0
LINE
  5
697F
  8
0
 10
314.7434551486358032
 20
-6.1982630411311037
 30
0.0
 11
314.7429156516976718
 21
-6.202101761255391
 31
0.0
  0
LINE
  5
6980
  8
0
 10
314.7429156516976718
 20
-6.202101761255391
 30
0.0
 11
314.7590664231844926
 21
-6.2096761476119564
 31
0.0
  0
LINE
  5
6981
  8
0
 10
314.7590664231844926
 20
-6.2096761476119564
 30
0.0
 11
314.7757535079509239
 21
-6.213434467123526
 31
0.0
  0
LINE
  5
6982
  8
0
 10
314.7203465162450016
 20
-6.1626591145884211
 30
0.0
 11
314.7193561224357836
 21
-6.1697061321311031
 31
0.0
  0
LINE
  5
6983
  8
0
 10
314.7193561224357836
 20
-6.1697061321311031
 30
0.0
 11
314.7351372855545151
 21
-6.1799104196045738
 31
0.0
  0
LINE
  5
6984
  8
0
 10
314.7351372855545151
 20
-6.1799104196045738
 30
0.0
 11
314.7519033644337014
 21
-6.1831066665460019
 31
0.0
  0
LINE
  5
6985
  8
0
 10
314.7519033644337014
 20
-6.1831066665460019
 30
0.0
 11
314.752885069599472
 21
-6.1761214711536327
 31
0.0
  0
LINE
  5
6986
  8
0
 10
314.752885069599472
 20
-6.1761214711536327
 30
0.0
 11
314.7371167713358204
 21
-6.1658256460311049
 31
0.0
  0
LINE
  5
6987
  8
0
 10
314.7371167713358204
 20
-6.1658256460311049
 30
0.0
 11
314.7204775167713819
 21
-6.1626775253959192
 31
0.0
  0
LINE
  5
6988
  8
0
 10
314.7249257086231182
 20
-6.1750322718512747
 30
0.0
 11
314.7240877847357865
 21
-6.1809944099311043
 31
0.0
  0
LINE
  5
6989
  8
0
 10
314.7240877847357865
 20
-6.1809944099311043
 30
0.0
 11
314.7075115792338238
 21
-6.17644714354571
 31
0.0
  0
LINE
  5
698A
  8
0
 10
314.7075115792338238
 20
-6.17644714354571
 30
0.0
 11
314.6917813754303097
 21
-6.1658802626700959
 31
0.0
  0
LINE
  5
698B
  8
0
 10
314.6917813754303097
 20
-6.1658802626700959
 30
0.0
 11
314.6926357733312898
 21
-6.1598009053426921
 31
0.0
  0
LINE
  5
698C
  8
0
 10
314.6926357733312898
 20
-6.1598009053426921
 30
0.0
 11
314.7092037406512759
 21
-6.164406789315783
 31
0.0
  0
LINE
  5
698D
  8
0
 10
314.7092037406512759
 20
-6.164406789315783
 30
0.0
 11
314.7249257086357943
 21
-6.175032271931105
 31
0.0
  0
LINE
  5
698E
  8
0
 10
314.7344467680698017
 20
-6.1848237067873439
 30
0.0
 11
314.7178184501357805
 21
-6.1806472394311038
 31
0.0
  0
LINE
  5
698F
  8
0
 10
314.7178184501357805
 20
-6.1806472394311038
 30
0.0
 11
314.7171277940122991
 21
-6.1855615134109661
 31
0.0
  0
LINE
  5
6990
  8
0
 10
314.7171277940122991
 20
-6.1855615134109661
 30
0.0
 11
314.7330760434264221
 21
-6.1945769191979174
 31
0.0
  0
LINE
  5
6991
  8
0
 10
314.7330760434264221
 20
-6.1945769191979174
 30
0.0
 11
314.7497096153358029
 21
-6.1987160021311034
 31
0.0
  0
LINE
  5
6992
  8
0
 10
314.7497096153358029
 20
-6.1987160021311034
 30
0.0
 11
314.7503897643358073
 21
-6.193876490731105
 31
0.0
  0
LINE
  5
6993
  8
0
 10
314.7503897643358073
 20
-6.193876490731105
 30
0.0
 11
314.7344467679810123
 21
-6.1848237068044556
 31
0.0
  0
LINE
  5
6994
  8
0
 10
314.7747651571488063
 20
-6.2204669483389861
 30
0.0
 11
314.7750280494357753
 21
-6.2185963729311036
 31
0.0
  0
LINE
  5
6995
  8
0
 10
314.7750280494357753
 20
-6.2185963729311036
 30
0.0
 11
314.7587361165026891
 21
-6.2120264022251019
 31
0.0
  0
LINE
  5
6996
  8
0
 10
314.7587361165026891
 20
-6.2120264022251019
 30
0.0
 11
314.7421817658627106
 21
-6.2073236304097072
 31
0.0
  0
LINE
  5
6997
  8
0
 10
314.7421817658627106
 20
-6.2073236304097072
 30
0.0
 11
314.7419158577242797
 21
-6.2092156653128887
 31
0.0
  0
LINE
  5
6998
  8
0
 10
314.7419158577242797
 20
-6.2092156653128887
 30
0.0
 11
314.7582073398157263
 21
-6.2157888443748801
 31
0.0
  0
LINE
  5
6999
  8
0
 10
314.7582073398157263
 20
-6.2157888443748801
 30
0.0
 11
314.7747651571357892
 21
-6.2204669484311044
 31
0.0
  0
LINE
  5
699A
  8
0
 10
314.7374812091434251
 20
-6.2093524783716401
 30
0.0
 11
314.7477075813358169
 21
-6.2129612147311031
 31
0.0
  0
LINE
  5
699B
  8
0
 10
314.7477075813358169
 20
-6.2129612147311031
 30
0.0
 11
314.7478397557358107
 21
-6.2120207444311042
 31
0.0
  0
LINE
  5
699C
  8
0
 10
314.7478397557358107
 20
-6.2120207444311042
 30
0.0
 11
314.7315994288279057
 21
-6.2050835781872999
 31
0.0
  0
LINE
  5
699D
  8
0
 10
314.7315994288279057
 20
-6.2050835781872999
 30
0.0
 11
314.7152299866828002
 21
-6.1990651142201996
 31
0.0
  0
LINE
  5
699E
  8
0
 10
314.7152299866828002
 20
-6.1990651142201996
 30
0.0
 11
314.7150958869357851
 21
-6.2000192833311054
 31
0.0
  0
LINE
  5
699F
  8
0
 10
314.7150958869357851
 20
-6.2000192833311054
 30
0.0
 11
314.7190521011859801
 21
-6.2019085037154467
 31
0.0
  0
LINE
  5
69A0
  8
0
 10
314.7483249636358096
 20
-6.2085683108311036
 30
0.0
 11
314.748725232435504
 21
-6.2057202505332061
 31
0.0
  0
LINE
  5
69A1
  8
0
 10
314.748725232435504
 20
-6.2057202505332061
 30
0.0
 11
314.7326271001202258
 21
-6.1977713172666826
 31
0.0
  0
LINE
  5
69A2
  8
0
 10
314.7326271001202258
 20
-6.1977713172666826
 30
0.0
 11
314.7161285301281737
 21
-6.1926716448849923
 31
0.0
  0
LINE
  5
69A3
  8
0
 10
314.7161285301281737
 20
-6.1926716448849923
 30
0.0
 11
314.7157223179357857
 21
-6.1955619949311043
 31
0.0
  0
LINE
  5
69A4
  8
0
 10
314.7157223179357857
 20
-6.1955619949311043
 30
0.0
 11
314.731820676931477
 21
-6.2035093162616191
 31
0.0
  0
LINE
  5
69A5
  8
0
 10
314.731820676931477
 20
-6.2035093162616191
 30
0.0
 11
314.7483249637124914
 21
-6.2085683107893921
 31
0.0
  0
LINE
  5
69A6
  8
0
 10
314.7222837864358098
 20
-6.1938305252311032
 30
0.0
 11
314.7228284244428096
 21
-6.1899552240271234
 31
0.0
  0
LINE
  5
69A7
  8
0
 10
314.7228284244428096
 20
-6.1899552240271234
 30
0.0
 11
314.7069361498440117
 21
-6.1805415367726333
 31
0.0
  0
LINE
  5
69A8
  8
0
 10
314.7069361498440117
 20
-6.1805415367726333
 30
0.0
 11
314.6904979430852904
 21
-6.1750123584206547
 31
0.0
  0
LINE
  5
69A9
  8
0
 10
314.6904979430852904
 20
-6.1750123584206547
 30
0.0
 11
314.6899431413357888
 21
-6.1789599776311031
 31
0.0
  0
LINE
  5
69AA
  8
0
 10
314.6899431413357888
 20
-6.1789599776311031
 30
0.0
 11
314.7058368301317728
 21
-6.18836360285973
 31
0.0
  0
LINE
  5
69AB
  8
0
 10
314.7058368301317728
 20
-6.18836360285973
 30
0.0
 11
314.7222837864358098
 21
-6.1938305252311032
 31
0.0
  0
LINE
  5
69AC
  8
0
 10
314.6652106684358046
 20
-6.1549102765311039
 30
0.0
 11
314.664608139535801
 21
-6.1591974925311037
 31
0.0
  0
LINE
  5
69AD
  8
0
 10
314.664608139535801
 20
-6.1591974925311037
 30
0.0
 11
314.6802810556479812
 21
-6.1701719965878112
 31
0.0
  0
LINE
  5
69AE
  8
0
 10
314.6802810556479812
 20
-6.1701719965878112
 30
0.0
 11
314.6966655809346776
 21
-6.1760831386385693
 31
0.0
  0
LINE
  5
69AF
  8
0
 10
314.6966655809346776
 20
-6.1760831386385693
 30
0.0
 11
314.6973645520307059
 21
-6.171109701267353
 31
0.0
  0
LINE
  5
69B0
  8
0
 10
314.6973645520307059
 20
-6.171109701267353
 30
0.0
 11
314.6816949138924997
 21
-6.1601118722534913
 31
0.0
  0
LINE
  5
69B1
  8
0
 10
314.6816949138924997
 20
-6.1601118722534913
 30
0.0
 11
314.6686566522458861
 21
-6.1553951793389201
 31
0.0
  0
LINE
  5
69B2
  8
0
 10
314.6952436435357754
 20
-6.1862007493311051
 30
0.0
 11
314.6956545515434982
 21
-6.1832769866763151
 31
0.0
  0
LINE
  5
69B3
  8
0
 10
314.6956545515434982
 20
-6.1832769866763151
 30
0.0
 11
314.6798183275557221
 21
-6.1734644784067827
 31
0.0
  0
LINE
  5
69B4
  8
0
 10
314.6798183275557221
 20
-6.1734644784067827
 30
0.0
 11
314.6635742904293238
 21
-6.1665537109776087
 31
0.0
  0
LINE
  5
69B5
  8
0
 10
314.6635742904293238
 20
-6.1665537109776087
 30
0.0
 11
314.6631542833903268
 21
-6.1695422167567102
 31
0.0
  0
LINE
  5
69B6
  8
0
 10
314.6631542833903268
 20
-6.1695422167567102
 30
0.0
 11
314.6789875527305185
 21
-6.1793757486688206
 31
0.0
  0
LINE
  5
69B7
  8
0
 10
314.6789875527305185
 20
-6.1793757486688206
 30
0.0
 11
314.6952436435357754
 21
-6.1862007493311051
 31
0.0
  0
LINE
  5
69B8
  8
0
 10
314.7212746508989767
 20
-6.201010897634732
 30
0.0
 11
314.7215430203332858
 21
-6.1991013496484539
 31
0.0
  0
LINE
  5
69B9
  8
0
 10
314.7215430203332858
 20
-6.1991013496484539
 30
0.0
 11
314.705498464193397
 21
-6.1907712018300378
 31
0.0
  0
LINE
  5
69BA
  8
0
 10
314.705498464193397
 20
-6.1907712018300378
 30
0.0
 11
314.689188782935787
 21
-6.1843275170311029
 31
0.0
  0
LINE
  5
69BB
  8
0
 10
314.689188782935787
 20
-6.1843275170311029
 30
0.0
 11
314.6889155535358213
 21
-6.1862716450311046
 31
0.0
  0
LINE
  5
69BC
  8
0
 10
314.6889155535358213
 20
-6.1862716450311046
 30
0.0
 11
314.7049567871545719
 21
-6.1946254341876807
 31
0.0
  0
LINE
  5
69BD
  8
0
 10
314.7049567871545719
 20
-6.1946254341876807
 30
0.0
 11
314.7212746508989767
 21
-6.201010897634732
 31
0.0
  0
LINE
  5
69BE
  8
0
 10
314.6881883504008783
 20
-6.1877805951759788
 30
0.0
 11
314.6946100669662201
 21
-6.1907088810010906
 31
0.0
  0
LINE
  5
69BF
  8
0
 10
314.6946100669662201
 20
-6.1907088810010906
 30
0.0
 11
314.6947456866358266
 21
-6.1897438968311027
 31
0.0
  0
LINE
  5
69C0
  8
0
 10
314.6947456866358266
 20
-6.1897438968311027
 30
0.0
 11
314.678759713722684
 21
-6.1809969073241069
 31
0.0
  0
LINE
  5
69C1
  8
0
 10
314.678759713722684
 20
-6.1809969073241069
 30
0.0
 11
314.6626454321320807
 21
-6.1731628810646413
 31
0.0
  0
LINE
  5
69C2
  8
0
 10
314.6626454321320807
 20
-6.1731628810646413
 30
0.0
 11
314.6625068702358021
 21
-6.1741488007311034
 31
0.0
  0
LINE
  5
69C3
  8
0
 10
314.6625068702358021
 20
-6.1741488007311034
 30
0.0
 11
314.6643100350852933
 21
-6.1753302674010424
 31
0.0
  0
LINE
  5
69C4
  8
0
 10
314.6553581130913244
 20
-6.1535255901571944
 30
0.0
 11
314.6702017072822173
 21
-6.1643529940331891
 31
0.0
  0
LINE
  5
69C5
  8
0
 10
314.6702017072822173
 20
-6.1643529940331891
 30
0.0
 11
314.6696390236357956
 21
-6.1683566966311041
 31
0.0
  0
LINE
  5
69C6
  8
0
 10
314.6696390236357956
 20
-6.1683566966311041
 30
0.0
 11
314.6534510450517246
 21
-6.1610470527986108
 31
0.0
  0
LINE
  5
69C7
  8
0
 10
314.6534510450517246
 20
-6.1610470527986108
 30
0.0
 11
314.6401799861891959
 21
-6.1513924433967668
 31
0.0
  0
LINE
  5
69C8
  8
0
 10
314.6370577800357751
 20
-6.1551980966311026
 30
0.0
 11
314.6367735794322016
 21
-6.1572202885572578
 31
0.0
  0
LINE
  5
69C9
  8
0
 10
314.6367735794322016
 20
-6.1572202885572578
 30
0.0
 11
314.6525392783673851
 21
-6.1675346087446101
 31
0.0
  0
LINE
  5
69CA
  8
0
 10
314.6525392783673851
 20
-6.1675346087446101
 30
0.0
 11
314.6685971399527944
 21
-6.1757700843245793
 31
0.0
  0
LINE
  5
69CB
  8
0
 10
314.6685971399527944
 20
-6.1757700843245793
 30
0.0
 11
314.668874132735823
 21
-6.1737991780311052
 31
0.0
  0
LINE
  5
69CC
  8
0
 10
314.668874132735823
 20
-6.1737991780311052
 30
0.0
 11
314.6531003358218186
 21
-6.163542478030525
 31
0.0
  0
LINE
  5
69CD
  8
0
 10
314.6531003358218186
 20
-6.163542478030525
 30
0.0
 11
314.6370577800357751
 21
-6.1551980966311026
 31
0.0
  0
LINE
  5
69CE
  8
0
 10
314.6386930503820736
 20
-6.1511843791376419
 30
0.0
 11
314.6434436833292239
 21
-6.1547158379299631
 31
0.0
  0
LINE
  5
69CF
  8
0
 10
314.6434436833292239
 20
-6.1547158379299631
 30
0.0
 11
314.6430167036357943
 21
-6.1577539563311037
 31
0.0
  0
LINE
  5
69D0
  8
0
 10
314.6430167036357943
 20
-6.1577539563311037
 30
0.0
 11
314.6282444992286855
 21
-6.1497150200928106
 31
0.0
  0
LINE
  5
69D1
  8
0
 10
314.6240479504086807
 20
-6.1491252336173954
 30
0.0
 11
314.62679592591968
 21
-6.1506776898459243
 31
0.0
  0
LINE
  5
69D2
  8
0
 10
314.62679592591968
 20
-6.1506776898459243
 30
0.0
 11
314.6424995100383057
 21
-6.1614339800970219
 31
0.0
  0
LINE
  5
69D3
  8
0
 10
314.6424995100383057
 20
-6.1614339800970219
 30
0.0
 11
314.6423586960327157
 21
-6.1624359237530166
 31
0.0
  0
LINE
  5
69D4
  8
0
 10
314.6423586960327157
 20
-6.1624359237530166
 30
0.0
 11
314.6403930711184103
 21
-6.1614234997581887
 31
0.0
  0
ARC
  5
69D5
  8
0
 10
314.9484226309070891
 20
-5.6557535447185847
 30
0.0
 40
0.5928436930413027
 50
267.0431234316787936
 51
287.8075145749759258
  0
LINE
  5
69D6
  8
0
 10
314.9178411879274222
 20
-6.247807950769352
 30
0.0
 11
314.925750983610385
 21
-6.1915268298008348
 31
0.0
  0
LINE
  5
69D7
  8
0
 10
314.9569405291280759
 20
-6.1959102346857859
 30
0.0
 11
314.9561714555579783
 21
-6.2013824775899797
 31
0.0
  0
LINE
  5
69D8
  8
0
 10
314.9561714555579783
 20
-6.2013824775899797
 30
0.0
 11
314.9569917220807724
 21
-6.2015771976086853
 31
0.0
  0
LINE
  5
69D9
  8
0
 10
314.9569917220807724
 20
-6.2015771976086853
 30
0.0
 11
314.9709132830088834
 21
-6.1978739771411169
 31
0.0
  0
LINE
  5
69DA
  8
0
 10
314.9551808504677979
 20
-6.208430999091374
 30
0.0
 11
314.9560564822522792
 21
-6.2082317753605913
 31
0.0
  0
LINE
  5
69DB
  8
0
 10
314.9560564822522792
 20
-6.2082317753605913
 30
0.0
 11
314.9728119341850174
 21
-6.2115036365511003
 31
0.0
  0
LINE
  5
69DC
  8
0
 10
314.9728119341850174
 20
-6.2115036365511003
 30
0.0
 11
314.9718381109469192
 21
-6.2184327491597911
 31
0.0
  0
LINE
  5
69DD
  8
0
 10
314.9718381109469192
 20
-6.2184327491597911
 30
0.0
 11
314.9541178811053896
 21
-6.2220256391261852
 31
0.0
  0
LINE
  5
69DE
  8
0
 10
314.9541178811053896
 20
-6.2220256391261852
 30
0.0
 11
314.9532904756591734
 21
-6.2218817143760949
 31
0.0
  0
LINE
  5
69DF
  8
0
 10
314.9532904756591734
 20
-6.2218817143760949
 30
0.0
 11
314.9551808504677979
 21
-6.208430999091374
 31
0.0
  0
LINE
  5
69E0
  8
0
 10
314.9512630105280095
 20
-6.2363078782717158
 30
0.0
 11
314.9525736666053035
 21
-6.2269820759825762
 31
0.0
  0
LINE
  5
69E1
  8
0
 10
314.9525736666053035
 20
-6.2269820759825762
 30
0.0
 11
314.9534411444124089
 21
-6.2268408709271776
 31
0.0
  0
LINE
  5
69E2
  8
0
 10
314.9534411444124089
 20
-6.2268408709271776
 30
0.0
 11
314.9703362774786228
 21
-6.2291188496642462
 31
0.0
  0
LINE
  5
69E3
  8
0
 10
314.9703362774786228
 20
-6.2291188496642462
 30
0.0
 11
314.969661269576477
 21
-6.2339217802242324
 31
0.0
  0
LINE
  5
69E4
  8
0
 10
314.969661269576477
 20
-6.2339217802242324
 30
0.0
 11
314.9520970746407897
 21
-6.2364044240347267
 31
0.0
  0
LINE
  5
69E5
  8
0
 10
314.9520970746407897
 20
-6.2364044240347267
 30
0.0
 11
314.9512630105280095
 21
-6.2363078782717158
 31
0.0
  0
LINE
  5
69E6
  8
0
 10
314.9500248525815778
 20
-6.2451178303932968
 30
0.0
 11
314.950796518030927
 21
-6.2396271448721272
 31
0.0
  0
LINE
  5
69E7
  8
0
 10
314.950796518030927
 20
-6.2396271448721272
 30
0.0
 11
314.9516566648778166
 21
-6.2395381021653584
 31
0.0
  0
LINE
  5
69E8
  8
0
 10
314.9516566648778166
 20
-6.2395381021653584
 30
0.0
 11
314.9686841730584206
 21
-6.2408741833614183
 31
0.0
  0
LINE
  5
69E9
  8
0
 10
314.9686841730584206
 20
-6.2408741833614183
 30
0.0
 11
314.9682868162079785
 21
-6.2437015243045186
 31
0.0
  0
LINE
  5
69EA
  8
0
 10
314.9682868162079785
 20
-6.2437015243045186
 30
0.0
 11
314.9508653348235043
 21
-6.2451687085287331
 31
0.0
  0
LINE
  5
69EB
  8
0
 10
314.9508653348235043
 20
-6.2451687085287331
 30
0.0
 11
314.9500248525815778
 21
-6.2451178303932968
 31
0.0
  0
LINE
  5
69EC
  8
0
 10
314.9495221629704247
 20
-6.2485962181219881
 30
0.0
 11
314.9497948311695836
 21
-6.246754517377556
 31
0.0
  0
LINE
  5
69ED
  8
0
 10
314.9497948311695836
 20
-6.246754517377556
 30
0.0
 11
314.9506481755540221
 21
-6.2467138764049164
 31
0.0
  0
LINE
  5
69EE
  8
0
 10
314.9506481755540221
 20
-6.2467138764049164
 30
0.0
 11
314.9678050996071761
 21
-6.2471291160555751
 31
0.0
  0
LINE
  5
69EF
  8
0
 10
314.9678050996071761
 20
-6.2471291160555751
 30
0.0
 11
314.9676738689320246
 21
-6.248062870657705
 31
0.0
  0
LINE
  5
69F0
  8
0
 10
314.9676738689320246
 20
-6.248062870657705
 30
0.0
 11
314.958806614253092
 21
-6.248506290194066
 31
0.0
  0
LINE
  5
69F1
  8
0
 10
315.0022215044380118
 20
-6.2022740607156273
 30
0.0
 11
315.001639555320196
 21
-6.2064148437647608
 31
0.0
  0
LINE
  5
69F2
  8
0
 10
315.001639555320196
 20
-6.2064148437647608
 30
0.0
 11
314.9837024714054223
 21
-6.2115507301588719
 31
0.0
  0
LINE
  5
69F3
  8
0
 10
314.9837024714054223
 20
-6.2115507301588719
 30
0.0
 11
314.9668959068666823
 21
-6.2086425539360093
 31
0.0
  0
LINE
  5
69F4
  8
0
 10
314.9668959068666823
 20
-6.2086425539360093
 30
0.0
 11
314.9680286375451033
 21
-6.2005827566470257
 31
0.0
  0
LINE
  5
69F5
  8
0
 10
314.9680286375451033
 20
-6.2005827566470257
 30
0.0
 11
314.9754339135902228
 21
-6.19851026120116
 31
0.0
  0
LINE
  5
69F6
  8
0
 10
314.9828926894874144
 20
-6.2173126285654936
 30
0.0
 11
314.9998390180726915
 21
-6.2192263325402868
 31
0.0
  0
LINE
  5
69F7
  8
0
 10
314.9998390180726915
 20
-6.2192263325402868
 30
0.0
 11
314.9990094090393882
 21
-6.2251293074298877
 31
0.0
  0
LINE
  5
69F8
  8
0
 10
314.9990094090393882
 20
-6.2251293074298877
 30
0.0
 11
314.9812435075482995
 21
-6.2290471680607036
 31
0.0
  0
LINE
  5
69F9
  8
0
 10
314.9812435075482995
 20
-6.2290471680607036
 30
0.0
 11
314.9642987435972259
 21
-6.227122330940289
 31
0.0
  0
LINE
  5
69FA
  8
0
 10
314.9642987435972259
 20
-6.227122330940289
 30
0.0
 11
314.9651181897730794
 21
-6.221291668349429
 31
0.0
  0
LINE
  5
69FB
  8
0
 10
314.9651181897730794
 20
-6.221291668349429
 30
0.0
 11
314.9828926894874144
 21
-6.217312628565498
 31
0.0
  0
LINE
  5
69FC
  8
0
 10
314.9625332255893113
 20
-6.239684644653237
 30
0.0
 11
314.9630664285829198
 21
-6.2358907081686921
 31
0.0
  0
LINE
  5
69FD
  8
0
 10
314.9630664285829198
 20
-6.2358907081686921
 30
0.0
 11
314.9806798473878757
 21
-6.233038904323446
 31
0.0
  0
LINE
  5
69FE
  8
0
 10
314.9806798473878757
 20
-6.233038904323446
 30
0.0
 11
314.9977622130001009
 21
-6.2340035682243524
 31
0.0
  0
LINE
  5
69FF
  8
0
 10
314.9977622130001009
 20
-6.2340035682243524
 30
0.0
 11
314.9972227160770899
 21
-6.2378422883507731
 31
0.0
  0
LINE
  5
6A00
  8
0
 10
314.9972227160770899
 20
-6.2378422883507731
 30
0.0
 11
314.9796098142597884
 21
-6.2406714998789763
 31
0.0
  0
LINE
  5
6A01
  8
0
 10
314.9796098142597884
 20
-6.2406714998789763
 30
0.0
 11
314.9625332256043748
 21
-6.2396846445456582
 31
0.0
  0
LINE
  5
6A02
  8
0
 10
315.029789428331128
 20
-6.2061484797418087
 30
0.0
 11
315.0287990346820948
 21
-6.2131954973070194
 31
0.0
  0
LINE
  5
6A03
  8
0
 10
315.0287990346820948
 20
-6.2131954973070194
 30
0.0
 11
315.0108165242417044
 21
-6.2186546099163058
 31
0.0
  0
LINE
  5
6A04
  8
0
 10
315.0108165242417044
 20
-6.2186546099163058
 30
0.0
 11
314.9938189297685085
 21
-6.2171056820225941
 31
0.0
  0
LINE
  5
6A05
  8
0
 10
314.9938189297685085
 20
-6.2171056820225941
 30
0.0
 11
314.9948006349836191
 21
-6.2101204866371553
 31
0.0
  0
LINE
  5
6A06
  8
0
 10
314.9948006349836191
 20
-6.2101204866371553
 30
0.0
 11
315.0127960101272038
 21
-6.2045698363574751
 31
0.0
  0
LINE
  5
6A07
  8
0
 10
315.0127960101272038
 20
-6.2045698363574751
 30
0.0
 11
315.0296584278366936
 21
-6.2061300687071528
 31
0.0
  0
LINE
  5
6A08
  8
0
 10
315.0219771217488756
 20
-6.2167801253977402
 30
0.0
 11
315.0211391979107134
 21
-6.22274226348447
 31
0.0
  0
LINE
  5
6A09
  8
0
 10
315.0211391979107134
 20
-6.22274226348447
 30
0.0
 11
315.038326665806494
 21
-6.222940171940599
 31
0.0
  0
LINE
  5
6A0A
  8
0
 10
315.038326665806494
 20
-6.222940171940599
 30
0.0
 11
315.0563601352956766
 21
-6.2171184658917191
 31
0.0
  0
LINE
  5
6A0B
  8
0
 10
315.0563601352956766
 20
-6.2171184658917191
 30
0.0
 11
315.0572145332990885
 21
-6.2110391085787127
 31
0.0
  0
LINE
  5
6A0C
  8
0
 10
315.0572145332990885
 20
-6.2110391085787127
 30
0.0
 11
315.04001882725521
 21
-6.2108998177150569
 31
0.0
  0
LINE
  5
6A0D
  8
0
 10
315.04001882725521
 20
-6.2108998177150569
 30
0.0
 11
315.0219771217147127
 21
-6.2167801254709794
 31
0.0
  0
LINE
  5
6A0E
  8
0
 10
315.0101260067626754
 20
-6.2235678970998718
 30
0.0
 11
315.0272613622793756
 21
-6.2241366045925828
 31
0.0
  0
LINE
  5
6A0F
  8
0
 10
315.0272613622793756
 20
-6.2241366045925828
 30
0.0
 11
315.0265707060705154
 21
-6.229050878560435
 31
0.0
  0
LINE
  5
6A10
  8
0
 10
315.0265707060705154
 20
-6.229050878560435
 30
0.0
 11
315.0087552821789245
 21
-6.233321109518811
 31
0.0
  0
LINE
  5
6A11
  8
0
 10
315.0087552821789245
 20
-6.233321109518811
 30
0.0
 11
314.9916251807604795
 21
-6.2327150176203254
 31
0.0
  0
LINE
  5
6A12
  8
0
 10
314.9916251807604795
 20
-6.2327150176203254
 30
0.0
 11
314.9923053297048909
 21
-6.2278755062125093
 31
0.0
  0
LINE
  5
6A13
  8
0
 10
314.9923053297048909
 20
-6.2278755062125093
 30
0.0
 11
315.0101260068435067
 21
-6.2235678971408097
 31
0.0
  0
LINE
  5
6A14
  8
0
 10
314.9615448748457993
 20
-6.2467171257672396
 30
0.0
 11
314.9618077670193088
 21
-6.2448465503434072
 31
0.0
  0
LINE
  5
6A15
  8
0
 10
314.9618077670193088
 20
-6.2448465503434072
 30
0.0
 11
314.9792795074537821
 21
-6.2430217544746682
 31
0.0
  0
LINE
  5
6A16
  8
0
 10
314.9792795074537821
 20
-6.2430217544746682
 30
0.0
 11
314.9964888302134796
 21
-6.2430641575010561
 31
0.0
  0
LINE
  5
6A17
  8
0
 10
314.9964888302134796
 20
-6.2430641575010561
 30
0.0
 11
314.9962229220237759
 21
-6.2449561923970256
 31
0.0
  0
LINE
  5
6A18
  8
0
 10
314.9962229220237759
 20
-6.2449561923970256
 30
0.0
 11
314.9787507306232897
 21
-6.2467841966042883
 31
0.0
  0
LINE
  5
6A19
  8
0
 10
314.9787507306232897
 20
-6.2467841966042883
 30
0.0
 11
314.9615448748327822
 21
-6.2467171258593579
 31
0.0
  0
LINE
  5
6A1A
  8
0
 10
315.0004480690498099
 20
-6.2463100603586268
 30
0.0
 11
314.9896231466249219
 21
-6.246960230201271
 31
0.0
  0
LINE
  5
6A1B
  8
0
 10
314.9896231466249219
 20
-6.246960230201271
 30
0.0
 11
314.9897553211836794
 21
-6.2460197599235867
 31
0.0
  0
LINE
  5
6A1C
  8
0
 10
314.9897553211836794
 20
-6.2460197599235867
 30
0.0
 11
315.0072786675299881
 21
-6.2438277685011228
 31
0.0
  0
LINE
  5
6A1D
  8
0
 10
315.0072786675299881
 20
-6.2438277685011228
 30
0.0
 11
315.024672898741926
 21
-6.2425544793698107
 31
0.0
  0
LINE
  5
6A1E
  8
0
 10
315.024672898741926
 20
-6.2425544793698107
 30
0.0
 11
315.0245387990414088
 21
-6.2435086484872491
 31
0.0
  0
LINE
  5
6A1F
  8
0
 10
315.0245387990414088
 20
-6.2435086484872491
 30
0.0
 11
315.0202151021105124
 21
-6.2442342032430309
 31
0.0
  0
LINE
  5
6A20
  8
0
 10
314.990240529083394
 20
-6.2425673263235453
 30
0.0
 11
314.9906407978277798
 21
-6.2397192660178771
 31
0.0
  0
LINE
  5
6A21
  8
0
 10
314.9906407978277798
 20
-6.2397192660178771
 30
0.0
 11
315.0083063387456832
 21
-6.236515507569738
 31
0.0
  0
LINE
  5
6A22
  8
0
 10
315.0083063387456832
 20
-6.236515507569738
 30
0.0
 11
315.025571442327589
 21
-6.2361610100543103
 31
0.0
  0
LINE
  5
6A23
  8
0
 10
315.025571442327589
 20
-6.2361610100543103
 30
0.0
 11
315.0251652301045056
 21
-6.239051360096119
 31
0.0
  0
LINE
  5
6A24
  8
0
 10
315.0251652301045056
 20
-6.239051360096119
 30
0.0
 11
315.0074999155971796
 21
-6.2422535065703277
 31
0.0
  0
LINE
  5
6A25
  8
0
 10
315.0074999155971796
 20
-6.2422535065703277
 30
0.0
 11
314.9902405290210936
 21
-6.2425673262622956
 31
0.0
  0
LINE
  5
6A26
  8
0
 10
315.0193351994960835
 20
-6.2355783787683619
 30
0.0
 11
315.0198798376185891
 21
-6.2317030775806179
 31
0.0
  0
LINE
  5
6A27
  8
0
 10
315.0198798376185891
 20
-6.2317030775806179
 30
0.0
 11
315.0377512363148753
 21
-6.2270345651532093
 31
0.0
  0
LINE
  5
6A28
  8
0
 10
315.0377512363148753
 20
-6.2270345651532093
 30
0.0
 11
315.0550767029228041
 21
-6.2262505616383841
 31
0.0
  0
LINE
  5
6A29
  8
0
 10
315.0550767029228041
 20
-6.2262505616383841
 30
0.0
 11
315.0545219012724942
 21
-6.23019818086276
 31
0.0
  0
LINE
  5
6A2A
  8
0
 10
315.0545219012724942
 20
-6.23019818086276
 30
0.0
 11
315.0366519166328203
 21
-6.234856631244539
 31
0.0
  0
LINE
  5
6A2B
  8
0
 10
315.0366519166328203
 20
-6.234856631244539
 30
0.0
 11
315.0193351994960835
 21
-6.2355783787683619
 31
0.0
  0
LINE
  5
6A2C
  8
0
 10
315.0849252761361186
 20
-6.2138973178287813
 30
0.0
 11
315.0843227472063859
 21
-6.218184533824612
 31
0.0
  0
LINE
  5
6A2D
  8
0
 10
315.0843227472063859
 20
-6.218184533824612
 30
0.0
 11
315.06623199000461
 21
-6.2244138630515797
 31
0.0
  0
LINE
  5
6A2E
  8
0
 10
315.06623199000461
 20
-6.2244138630515797
 30
0.0
 11
315.0488528418757141
 21
-6.2255798302583001
 31
0.0
  0
LINE
  5
6A2F
  8
0
 10
315.0488528418757141
 20
-6.2255798302583001
 30
0.0
 11
315.0495518128607841
 21
-6.2206063928715061
 31
0.0
  0
LINE
  5
6A30
  8
0
 10
315.0495518128607841
 20
-6.2206063928715061
 30
0.0
 11
315.0676458483013107
 21
-6.2143537387245971
 31
0.0
  0
LINE
  5
6A31
  8
0
 10
315.0676458483013107
 20
-6.2143537387245971
 30
0.0
 11
315.0814791265668759
 21
-6.2134135944586619
 31
0.0
  0
LINE
  5
6A32
  8
0
 10
315.0474309043730727
 20
-6.2356974409362698
 30
0.0
 11
315.0478418124519067
 21
-6.2327736782914691
 31
0.0
  0
LINE
  5
6A33
  8
0
 10
315.0478418124519067
 20
-6.2327736782914691
 30
0.0
 11
315.0657692618128749
 21
-6.2277063448565668
 31
0.0
  0
LINE
  5
6A34
  8
0
 10
315.0657692618128749
 20
-6.2277063448565668
 30
0.0
 11
315.0832888981507267
 21
-6.2255407522782544
 31
0.0
  0
LINE
  5
6A35
  8
0
 10
315.0832888981507267
 20
-6.2255407522782544
 30
0.0
 11
315.0828688909986113
 21
-6.2285292580414628
 31
0.0
  0
LINE
  5
6A36
  8
0
 10
315.0828688909986113
 20
-6.2285292580414628
 30
0.0
 11
315.0649384869258824
 21
-6.2336176151099219
 31
0.0
  0
LINE
  5
6A37
  8
0
 10
315.0649384869258824
 20
-6.2336176151099219
 30
0.0
 11
315.0474309043730727
 21
-6.2356974409362698
 31
0.0
  0
LINE
  5
6A38
  8
0
 10
315.0183260639706759
 20
-6.2427587511735796
 30
0.0
 11
315.0185944334708097
 21
-6.2408492031965501
 31
0.0
  0
LINE
  5
6A39
  8
0
 10
315.0185944334708097
 20
-6.2408492031965501
 30
0.0
 11
315.0363135506345884
 21
-6.2372642302064341
 31
0.0
  0
LINE
  5
6A3A
  8
0
 10
315.0363135506345884
 20
-6.2372642302064341
 30
0.0
 11
315.0537675427401041
 21
-6.2355657202441526
 31
0.0
  0
LINE
  5
6A3B
  8
0
 10
315.0537675427401041
 20
-6.2355657202441526
 30
0.0
 11
315.0534943133952765
 21
-6.2375098482519098
 31
0.0
  0
LINE
  5
6A3C
  8
0
 10
315.0534943133952765
 20
-6.2375098482519098
 30
0.0
 11
315.0357718736079278
 21
-6.2411184625657832
 31
0.0
  0
LINE
  5
6A3D
  8
0
 10
315.0357718736079278
 20
-6.2411184625657832
 30
0.0
 11
315.0183260639706759
 21
-6.2427587511735796
 31
0.0
  0
LINE
  5
6A3E
  8
0
 10
315.0537774228861849
 20
-6.239160788576509
 30
0.0
 11
315.0467973277678766
 21
-6.2402055726012469
 31
0.0
  0
LINE
  5
6A3F
  8
0
 10
315.0467973277678766
 20
-6.2402055726012469
 30
0.0
 11
315.046932947459311
 21
-6.2392405884343196
 31
0.0
  0
LINE
  5
6A40
  8
0
 10
315.046932947459311
 20
-6.2392405884343196
 30
0.0
 11
315.0647106479519266
 21
-6.2352387737699502
 31
0.0
  0
LINE
  5
6A41
  8
0
 10
315.0647106479519266
 20
-6.2352387737699502
 30
0.0
 11
315.082360039885998
 21
-6.2321499223698531
 31
0.0
  0
LINE
  5
6A42
  8
0
 10
315.082360039885998
 20
-6.2321499223698531
 30
0.0
 11
315.0822214778394823
 21
-6.2331358420152014
 31
0.0
  0
LINE
  5
6A43
  8
0
 10
315.0822214778394823
 20
-6.2331358420152014
 30
0.0
 11
315.0801625081892894
 21
-6.2337745210788782
 31
0.0
  0
LINE
  5
6A44
  8
0
 10
315.094777831486681
 20
-6.2152820041596071
 30
0.0
 11
315.077524815986294
 21
-6.2215985237188782
 31
0.0
  0
LINE
  5
6A45
  8
0
 10
315.077524815986294
 20
-6.2215985237188782
 30
0.0
 11
315.0769621322251055
 21
-6.2256022263006576
 31
0.0
  0
LINE
  5
6A46
  8
0
 10
315.0769621322251055
 20
-6.2256022263006576
 30
0.0
 11
315.0945378268705781
 21
-6.223037757286046
 31
0.0
  0
LINE
  5
6A47
  8
0
 10
315.0945378268705781
 20
-6.223037757286046
 30
0.0
 11
315.1099559584264966
 21
-6.2174151506521742
 31
0.0
  0
LINE
  5
6A48
  8
0
 10
315.1119082354139778
 20
-6.2219339759827497
 30
0.0
 11
315.1116240349327882
 21
-6.2239561679261222
 31
0.0
  0
LINE
  5
6A49
  8
0
 10
315.1116240349327882
 20
-6.2239561679261222
 30
0.0
 11
315.0936260604933068
 21
-6.2295253132751887
 31
0.0
  0
LINE
  5
6A4A
  8
0
 10
315.0936260604933068
 20
-6.2295253132751887
 30
0.0
 11
315.0759202485199921
 21
-6.2330156139910278
 31
0.0
  0
LINE
  5
6A4B
  8
0
 10
315.0759202485199921
 20
-6.2330156139910278
 30
0.0
 11
315.0761972413667991
 21
-6.231044707706519
 31
0.0
  0
LINE
  5
6A4C
  8
0
 10
315.0761972413667991
 20
-6.231044707706519
 30
0.0
 11
315.0941871178071096
 21
-6.225533182541346
 31
0.0
  0
LINE
  5
6A4D
  8
0
 10
315.0941871178071096
 20
-6.225533182541346
 30
0.0
 11
315.1119082354139778
 21
-6.2219339759827497
 31
0.0
  0
LINE
  5
6A4E
  8
0
 10
315.1114426431443007
 20
-6.2176250015036656
 30
0.0
 11
315.1059026396972058
 21
-6.2197102056676519
 31
0.0
  0
LINE
  5
6A4F
  8
0
 10
315.1059026396972058
 20
-6.2197102056676519
 30
0.0
 11
315.1054756599987172
 21
-6.2227483240680916
 31
0.0
  0
LINE
  5
6A50
  8
0
 10
315.1054756599987172
 20
-6.2227483240680916
 30
0.0
 11
315.121891445388087
 21
-6.2190925739480827
 31
0.0
  0
LINE
  5
6A51
  8
0
 10
315.1260879942083761
 20
-6.219682360420669
 30
0.0
 11
315.1230185556785841
 21
-6.2204172324241727
 31
0.0
  0
LINE
  5
6A52
  8
0
 10
315.1230185556785841
 20
-6.2204172324241727
 30
0.0
 11
315.1049584663733185
 21
-6.2264283478300788
 31
0.0
  0
LINE
  5
6A53
  8
0
 10
315.1049584663733185
 20
-6.2264283478300788
 30
0.0
 11
315.1048176523830762
 21
-6.227430291488246
 31
0.0
  0
LINE
  5
6A54
  8
0
 10
315.1048176523830762
 20
-6.227430291488246
 30
0.0
 11
315.1069861941948034
 21
-6.2269988867358199
 31
0.0
  0
LINE
  5
6A55
  8
0
 10
314.763159080600019
 20
-6.1805553779297782
 30
0.0
 11
314.7647962769032119
 21
-6.1689061209524789
 31
0.0
  0
LINE
  5
6A56
  8
0
 10
314.7351372855545151
 20
-6.1799104196045738
 30
0.0
 11
314.7371167713358204
 21
-6.1658256460311049
 31
0.0
  0
LINE
  5
6A57
  8
0
 10
314.7092037406512759
 20
-6.164406789315783
 30
0.0
 11
314.7075115792338238
 21
-6.17644714354571
 31
0.0
  0
LINE
  5
6A58
  8
0
 10
314.6816949138924997
 20
-6.1601118722534913
 30
0.0
 11
314.6802810556479812
 21
-6.1701719965878112
 31
0.0
  0
LINE
  5
6A59
  8
0
 10
314.6534510450517246
 20
-6.1610470527986108
 30
0.0
 11
314.6576943824439923
 21
-6.1552297415587338
 31
0.0
  0
LINE
  5
6A5A
  8
0
 10
314.6531003358218186
 20
-6.163542478030525
 30
0.0
 11
314.6525392783673851
 21
-6.1675346087446101
 31
0.0
  0
LINE
  5
6A5B
  8
0
 10
314.6798183275557221
 20
-6.1734644784067827
 30
0.0
 11
314.6789875527305185
 21
-6.1793757486688206
 31
0.0
  0
LINE
  5
6A5C
  8
0
 10
314.7069361498440117
 20
-6.1805415367726333
 30
0.0
 11
314.7058368301317728
 21
-6.18836360285973
 31
0.0
  0
LINE
  5
6A5D
  8
0
 10
314.7326271001202258
 20
-6.1977713172666826
 30
0.0
 11
314.731820676931477
 21
-6.2035093162616191
 31
0.0
  0
LINE
  5
6A5E
  8
0
 10
314.705498464193397
 20
-6.1907712018300378
 30
0.0
 11
314.7038039478954943
 21
-6.1940250703795749
 31
0.0
  0
LINE
  5
6A5F
  8
0
 10
314.760141669781774
 20
-6.2020442847617376
 30
0.0
 11
314.7590664231844926
 21
-6.2096761476119564
 31
0.0
  0
LINE
  5
6A60
  8
0
 10
314.762349298498691
 20
-6.1863172763106489
 30
0.0
 11
314.7607001164885219
 21
-6.1980518157958597
 31
0.0
  0
LINE
  5
6A61
  8
0
 10
314.7344467679810123
 20
-6.1848237068044556
 30
0.0
 11
314.7330760434264221
 21
-6.1945769191979174
 31
0.0
  0
LINE
  5
6A62
  8
0
 10
314.7587361165026891
 20
-6.2120264022251019
 30
0.0
 11
314.7582073398157263
 21
-6.2157888443748801
 31
0.0
  0
LINE
  5
6A63
  8
0
 10
314.9837024714054223
 20
-6.2115507301588719
 30
0.0
 11
314.9839729726897986
 21
-6.1997093967982009
 31
0.0
  0
LINE
  5
6A64
  8
0
 10
314.9828926894874144
 20
-6.217312628565498
 30
0.0
 11
314.9812435075482995
 21
-6.2290471680607036
 31
0.0
  0
LINE
  5
6A65
  8
0
 10
314.9806798473878757
 20
-6.233038904323446
 30
0.0
 11
314.9796098142597884
 21
-6.2406714998789763
 31
0.0
  0
LINE
  5
6A66
  8
0
 10
314.9792795074537821
 20
-6.2430217544746682
 30
0.0
 11
314.9787507306232897
 21
-6.2467841966042883
 31
0.0
  0
LINE
  5
6A67
  8
0
 10
315.0083063387456832
 20
-6.236515507569738
 30
0.0
 11
315.0074999155971796
 21
-6.2422535065703277
 31
0.0
  0
LINE
  5
6A68
  8
0
 10
315.0101260068435067
 20
-6.2235678971408097
 30
0.0
 11
315.0087552821789245
 21
-6.233321109518811
 31
0.0
  0
LINE
  5
6A69
  8
0
 10
315.0127960101272038
 20
-6.2045698363574751
 30
0.0
 11
315.0108165242417044
 21
-6.2186546099163058
 31
0.0
  0
LINE
  5
6A6A
  8
0
 10
315.04001882725521
 20
-6.2108998177150569
 30
0.0
 11
315.038326665806494
 21
-6.222940171940599
 31
0.0
  0
LINE
  5
6A6B
  8
0
 10
315.0377512363148753
 20
-6.2270345651532093
 30
0.0
 11
315.0366519166328203
 21
-6.234856631244539
 31
0.0
  0
LINE
  5
6A6C
  8
0
 10
315.0363135506345884
 20
-6.2372642302064341
 30
0.0
 11
315.0357718736079278
 21
-6.2411184625657832
 31
0.0
  0
LINE
  5
6A6D
  8
0
 10
315.0657692618128749
 20
-6.2277063448565668
 30
0.0
 11
315.0649384869258824
 21
-6.2336176151099219
 31
0.0
  0
LINE
  5
6A6E
  8
0
 10
315.0676458483013107
 20
-6.2143537387245971
 30
0.0
 11
315.06623199000461
 21
-6.2244138630515797
 31
0.0
  0
LINE
  5
6A6F
  8
0
 10
315.0941871178071096
 20
-6.225533182541346
 30
0.0
 11
315.0936260604933068
 21
-6.2295253132751887
 31
0.0
  0
LINE
  5
6A70
  8
0
 10
315.0945378268705781
 20
-6.223037757286046
 30
0.0
 11
315.094777831486681
 21
-6.2152820041596071
 31
0.0
  0
ENDSEC
  0
EOF
