  0
SECTION
  2
HEADER
  9
$ACADVER
  1
AC1009
  9
$INSBASE
 10
4005.771734681315138
 20
32.9676882621344305
 30
0.0
  9
$EXTMIN
 10
3996.6250794483148638
 20
32.9621089517744394
 30
0.0
  9
$EXTMAX
 10
4014.9183149806049187
 20
61.2726882621344515
 30
0.0
  9
$LIMMIN
 10
0.0
 20
0.0
  9
$LIMMAX
 10
11.6929133858000007
 20
8.2677165353999982
  9
$ORTHOMODE
 70
     0
  9
$REGENMODE
 70
     1
  9
$FILLMODE
 70
     1
  9
$QTEXTMODE
 70
     0
  9
$MIRRTEXT
 70
     0
  9
$DRAGMODE
 70
     2
  9
$LTSCALE
 40
0.6431102362
  9
$OSMODE
 70
  4095
  9
$ATTMODE
 70
     1
  9
$TEXTSIZE
 40
0.2
  9
$TRACEWID
 40
0.05
  9
$TEXTSTYLE
  7
STANDARD
  9
$CLAYER
  8
0
  9
$CELTYPE
  6
BYLAYER
  9
$CECOLOR
 62
   256
  9
$DIMSCALE
 40
1.0
  9
$DIMASZ
 40
0.1875
  9
$DIMEXO
 40
0.0625
  9
$DIMDLI
 40
0.4443307087
  9
$DIMRND
 40
0.0
  9
$DIMDLE
 40
0.0
  9
$DIMEXE
 40
0.125
  9
$DIMTP
 40
0.01
  9
$DIMTM
 40
0.01
  9
$DIMTXT
 40
2.0
  9
$DIMCEN
 40
0.1052362205
  9
$DIMTSZ
 40
0.0
  9
$DIMTOL
 70
     1
  9
$DIMLIM
 70
     0
  9
$DIMTIH
 70
     1
  9
$DIMTOH
 70
     1
  9
$DIMSE1
 70
     0
  9
$DIMSE2
 70
     0
  9
$DIMTAD
 70
     0
  9
$DIMZIN
 70
     0
  9
$DIMBLK
  1

  9
$DIMASO
 70
     1
  9
$DIMSHO
 70
     1
  9
$DIMPOST
  1
\X
  9
$DIMAPOST
  1

  9
$DIMALT
 70
     1
  9
$DIMALTD
 70
     2
  9
$DIMALTF
 40
25.3999999999999986
  9
$DIMLFAC
 40
1.0
  9
$DIMTOFL
 70
     0
  9
$DIMTVP
 40
0.0
  9
$DIMTIX
 70
     0
  9
$DIMSOXD
 70
     0
  9
$DIMSAH
 70
     0
  9
$DIMBLK1
  1

  9
$DIMBLK2
  1

  9
$DIMSTYLE
  2
STANDARD
  9
$DIMCLRD
 70
     0
  9
$DIMCLRE
 70
     0
  9
$DIMCLRT
 70
     0
  9
$DIMTFAC
 40
1.0
  9
$DIMGAP
 40
0.09
  9
$LUNITS
 70
     2
  9
$LUPREC
 70
     4
  9
$SKETCHINC
 40
0.1
  9
$FILLETRAD
 40
0.0
  9
$AUNITS
 70
     0
  9
$AUPREC
 70
     0
  9
$MENU
  1
.
  9
$ELEVATION
 40
0.0
  9
$PELEVATION
 40
0.0
  9
$THICKNESS
 40
0.0
  9
$LIMCHECK
 70
     0
  9
$BLIPMODE
 70
     0
  9
$CHAMFERA
 40
0.0
  9
$CHAMFERB
 40
0.0
  9
$SKPOLY
 70
     0
  9
$TDCREATE
 40
2458060.468368056230247
  9
$TDUPDATE
 40
2459100.8682291670702398
  9
$TDINDWG
 40
0.4599028935
  9
$TDUSRTIMER
 40
0.4599028935
  9
$USRTIMER
 70
     1
  9
$ANGBASE
 50
0.0
  9
$ANGDIR
 70
     0
  9
$PDMODE
 70
     0
  9
$PDSIZE
 40
0.3125
  9
$PLINEWID
 40
0.0
  9
$COORDS
 70
     1
  9
$SPLFRAME
 70
     0
  9
$SPLINETYPE
 70
     6
  9
$SPLINESEGS
 70
     8
  9
$ATTDIA
 70
     1
  9
$ATTREQ
 70
     1
  9
$HANDLING
 70
     1
  9
$HANDSEED
  5
862A
  9
$SURFTAB1
 70
     6
  9
$SURFTAB2
 70
     6
  9
$SURFTYPE
 70
     6
  9
$SURFU
 70
     6
  9
$SURFV
 70
     6
  9
$UCSNAME
  2

  9
$UCSORG
 10
0.0
 20
0.0
 30
0.0
  9
$UCSXDIR
 10
1.0
 20
0.0
 30
0.0
  9
$UCSYDIR
 10
0.0
 20
1.0
 30
0.0
  9
$PUCSNAME
  2

  9
$PUCSORG
 10
0.0
 20
0.0
 30
0.0
  9
$PUCSXDIR
 10
1.0
 20
0.0
 30
0.0
  9
$PUCSYDIR
 10
0.0
 20
1.0
 30
0.0
  9
$USERI1
 70
     0
  9
$USERI2
 70
     0
  9
$USERI3
 70
     0
  9
$USERI4
 70
     0
  9
$USERI5
 70
     0
  9
$USERR1
 40
0.0
  9
$USERR2
 40
0.0
  9
$USERR3
 40
0.0
  9
$USERR4
 40
0.0
  9
$USERR5
 40
0.0
  9
$WORLDVIEW
 70
     1
  9
$SHADEDGE
 70
     3
  9
$SHADEDIF
 70
    70
  9
$TILEMODE
 70
     1
  9
$MAXACTVP
 70
    64
  9
$PLIMCHECK
 70
     0
  9
$PEXTMIN
 10
1.0000000000000000E+20
 20
1.0000000000000000E+20
 30
1.0000000000000000E+20
  9
$PEXTMAX
 10
-1.0000000000000000E+20
 20
-1.0000000000000000E+20
 30
-1.0000000000000000E+20
  9
$PLIMMIN
 10
0.0
 20
0.0
  9
$PLIMMAX
 10
12.0
 20
9.0
  9
$UNITMODE
 70
     0
  9
$VISRETAIN
 70
     1
  9
$PLINEGEN
 70
     0
  9
$PSLTSCALE
 70
     1
  0
ENDSEC
  0
SECTION
  2
TABLES
  0
TABLE
  2
VPORT
 70
     1
  0
VPORT
  2
*ACTIVE
 70
     0
 10
0.0
 20
0.0
 11
1.0
 21
1.0
 12
0.0
 22
0.0
 13
0.0
 23
0.0
 14
1.0
 24
1.0
 15
0.0
 25
0.0
 16
0.0
 26
0.0
 36
123.9310090644382001
 17
4005.7716064453120453
 27
47.1173993855551885
 37
0.0
 40
33.7065368574178521
 41
2.8917682926829258
 42
50.0
 43
0.0
 44
0.0
 50
0.0
 51
0.0
 71
     0
 72
   100
 73
     1
 74
     1
 75
     0
 76
     0
 77
     0
 78
     0
  0
ENDTAB
  0
TABLE
  2
LTYPE
 70
     2
  0
LTYPE
  2
CONTINUOUS
 70
     0
  3
Solid line
 72
    65
 73
     0
 40
0.0
  0
LTYPE
  2
PHANTOM2
 70
     0
  3
___ _ _ ___ _ _ ___ _ _ ___ _ _
 72
    65
 73
     6
 40
1.25
 49
0.625
 49
-0.125
 49
0.125
 49
-0.125
 49
0.125
 49
-0.125
  0
ENDTAB
  0
TABLE
  2
LAYER
 70
     2
  0
LAYER
  2
0
 70
     0
 62
   255
  6
CONTINUOUS
  0
LAYER
  2
DEFPOINTS
 70
     0
 62
     7
  6
CONTINUOUS
  0
ENDTAB
  0
TABLE
  2
STYLE
 70
     1
  0
STYLE
  2
STANDARD
 70
     0
 40
0.0
 41
0.8
 50
0.0
 71
     0
 42
0.2
  3
txt
  4

  0
ENDTAB
  0
TABLE
  2
VIEW
 70
     0
  0
ENDTAB
  0
TABLE
  2
UCS
 70
     0
  0
ENDTAB
  0
TABLE
  2
APPID
 70
     9
  0
APPID
  2
ACAD
 70
     0
  0
APPID
  2
ACAD_MLEADERVER
 70
     0
  0
APPID
  2
ACAD_EXEMPT_FROM_CAD_STANDARDS
 70
     0
  0
APPID
  2
ACAD_NAV_VCDISPLAY
 70
     0
  0
APPID
  2
ACAECLAYERSTANDARD
 70
     0
  0
APPID
  2
ACCMTRANSPARENCY
 70
     0
  0
APPID
  2
ACAD_DSTYLE_DIMJAG
 70
     0
  0
APPID
  2
ACAD_DSTYLE_DIMTALN
 70
     0
  0
APPID
  2
ACDBATTR
 70
     0
  0
ENDTAB
  0
TABLE
  2
DIMSTYLE
 70
     1
  0
DIMSTYLE
  2
STANDARD
 70
     0
  3

  4

  5

  6

  7

 40
1.0
 41
0.1875
 42
0.0625
 43
0.38
 44
0.125
 45
0.0
 46
0.0
 47
0.01
 48
0.01
140
0.15625
141
0.09
142
0.0
143
25.3999999999999986
144
1.0
145
0.0
146
1.0
147
0.09
 71
     1
 72
     0
 73
     1
 74
     1
 75
     0
 76
     0
 77
     0
 78
     4
170
     0
171
     2
172
     0
173
     0
174
     0
175
     0
176
     0
177
     0
178
     0
  0
ENDTAB
  0
ENDSEC
  0
SECTION
  2
BLOCKS
  0
BLOCK
  8
0
  2
$MODEL_SPACE
 70
     0
 10
0.0
 20
0.0
 30
0.0
  3
$MODEL_SPACE
  1

  0
ENDBLK
  5
21
  8
0
  0
BLOCK
 67
     1
  8
0
  2
$PAPER_SPACE
 70
     0
 10
0.0
 20
0.0
 30
0.0
  3
$PAPER_SPACE
  1

  0
ENDBLK
  5
1D
 67
     1
  8
0
  0
BLOCK
  8
0
  2
_FILLED
 70
     0
 10
0.0
 20
0.0
 30
0.0
  3
_FILLED
  1

  0
SOLID
  5
69B4
  8
0
  6
BYBLOCK
 62
     0
 10
0.0
 20
0.0
 30
0.0
 11
-1.0
 21
0.1666666667
 31
0.0
 12
-1.0
 22
-0.1666666667
 32
0.0
 13
-1.0
 23
-0.1666666667
 33
0.0
  0
ENDBLK
  5
69B5
  8
0
  6
BYBLOCK
 62
     0
  0
BLOCK
  8
0
  2
A$CDFAF6206
 70
     0
 10
0.0
 20
0.0
 30
0.0
  3
A$CDFAF6206
  1

  0
LINE
  5
6A0E
  8
0
 10
7.4646650085734834
 20
10.9287685970688493
 30
0.0
 11
7.4646650085734896
 21
10.8905784766688498
 31
0.0
  0
ARC
  5
6A0F
  8
0
 10
7.7269027075262349
 20
10.8926811525838598
 30
0.0
 40
0.2622461286616791
 50
180.4593995232625048
 51
217.0214027758331099
  0
LINE
  5
6A10
  8
0
 10
9.767814609867095
 20
10.9287685970688493
 30
0.0
 11
9.767814609867095
 21
10.8905433757650094
 31
0.0
  0
ARC
  5
6A11
  8
0
 10
9.5068669568548287
 20
10.8922438613003703
 30
0.0
 40
0.2609531936261092
 50
322.8847083717149076
 51
359.6266329125650145
  0
LINE
  5
6A12
  8
0
 10
7.517522606271406
 20
10.7347792678688396
 30
0.0
 11
9.7149570120691777
 21
10.7347792678688396
 31
0.0
  0
LINE
  5
6A13
  8
0
 10
7.4646650085734834
 20
10.9287685970688493
 30
0.0
 11
9.7678146123202936
 21
10.9287685970688493
 31
0.0
  0
ARC
  5
6A14
  8
0
 10
4.0826771419203629
 20
8.527951346868889
 30
0.0
 40
4.0826771653999172
 50
13.3117747050523896
 51
32.7200330051415591
  0
ARC
  5
6A15
  8
0
 10
4.0826771460567306
 20
8.5279513475907933
 30
0.0
 40
4.0826771612084691
 50
359.6656501984817851
 51
13.3117747085593798
  0
ARC
  5
6A16
  8
0
 10
13.1498041284835097
 20
8.5279508235212234
 30
0.0
 40
4.0826788382043553
 50
147.2799733478981068
 51
166.6882233021349862
  0
ARC
  5
6A17
  8
0
 10
13.1498064934207992
 20
8.5279506557033251
 30
0.0
 40
4.0826811782395342
 50
166.688228652086309
 51
180.3343397625230011
  0
LINE
  5
6A18
  8
0
 10
8.1652847935202928
 20
8.504127000268852
 30
0.0
 11
9.0671948248202892
 21
8.5041270002687881
 31
0.0
  0
LINE
  5
6A19
  8
0
 10
8.1652847935202786
 20
8.5041270002667204
 30
0.0
 11
8.1652847935202928
 21
8.3607006934688481
 31
0.0
  0
ARC
  5
6A1A
  8
0
 10
5.6196779630382627
 20
8.3631022096452732
 30
0.0
 40
2.545607963272567
 50
342.0511668832173768
 51
359.945947387132378
  0
LINE
  5
6A1B
  8
0
 10
9.0671948248202892
 20
8.5041270002687881
 30
0.0
 11
9.0671948248202892
 21
8.2885990108688503
 31
0.0
  0
ARC
  5
6A1C
  8
0
 10
9.4521885297801163
 20
7.9614488056228501
 30
0.0
 40
0.5052201595850959
 50
139.6436242991769916
 51
174.6757930071850069
  0
ARC
  5
6A1D
  8
0
 10
9.9238413395551746
 20
8.1492417579399508
 30
0.0
 40
0.9848265662939324
 50
188.2263441834095943
 51
209.5593615864376034
  0
ARC
  5
6A1E
  8
0
 10
8.0788764238271256
 20
7.5665710856463297
 30
0.0
 40
0.0393715937169877
 50
162.1669117288323037
 51
227.2023190037006088
  0
ARC
  5
6A1F
  8
0
 10
8.7223682141740682
 20
8.2079667397440517
 30
0.0
 40
0.947895137885075
 50
225.0018610752970858
 51
261.4598823366255829
  0
ARC
  5
6A20
  8
0
 10
8.6645157662702701
 20
8.1695128573935332
 30
0.0
 40
0.9027466462812931
 50
264.7303071214498118
 51
281.8608311947915013
  0
ARC
  5
6A21
  8
0
 10
8.6645157662698935
 20
8.1695128573999671
 30
0.0
 40
0.9027466462876658
 50
299.1741886792128753
 51
299.1743179154552195
  0
ARC
  5
6A22
  8
0
 10
9.0843330931590316
 20
7.4150554710086141
 30
0.0
 40
0.0393703053609601
 50
251.9700352025496954
 51
252.4698971938937859
  0
ARC
  5
6A23
  8
0
 10
9.0843330931590316
 20
7.4150554710086141
 30
0.0
 40
0.0393703053609601
 50
297.2453716727138726
 51
6.8376113572703074
  0
LINE
  5
6A24
  8
0
 10
9.0671948248202892
 20
7.663402160468852
 30
0.0
 11
9.1234233799329516
 21
7.419742732911689
 31
0.0
  0
ARC
  5
6A25
  8
0
 10
8.8843741880892395
 20
9.8961379890094676
 30
0.0
 40
2.5255097382132701
 50
263.792800240752797
 51
274.9514951129821156
  0
ARC
  5
6A26
  8
0
 10
8.8258167405968848
 20
9.2763025889666508
 30
0.0
 40
1.9029970832759311
 50
246.0108363320686067
 51
263.5276935074397215
  0
ARC
  5
6A27
  8
0
 10
8.607491361665744
 20
8.3225444804829642
 30
0.0
 40
1.064510137163637
 50
283.1717405874071005
 51
297.7022170607311864
  0
LINE
  5
6A28
  8
0
 10
9.0671948248202892
 20
8.2885990108688503
 30
0.0
 11
26.2014378595979593
 21
8.2885990108689942
 31
0.0
  0
LINE
  5
6A29
  8
0
 10
26.2014378595979913
 20
7.6634021604689053
 30
0.0
 11
9.0671948248202892
 21
7.6634021604688618
 31
0.0
  0
LINE
  5
6A2A
  8
0
 10
27.8039676758446994
 20
10.9287685970690802
 30
0.0
 11
27.8039676758446888
 21
10.8905784766690807
 31
0.0
  0
ARC
  5
6A2B
  8
0
 10
27.5417299768919399
 20
10.8926811525840801
 30
0.0
 40
0.2622461286616791
 50
322.9785972241680838
 51
359.5406004767386889
  0
LINE
  5
6A2C
  8
0
 10
25.5008180745510913
 20
10.9287685970690305
 30
0.0
 11
25.5008180745510913
 21
10.8905433757651799
 31
0.0
  0
ARC
  5
6A2D
  8
0
 10
25.7617657275633505
 20
10.8922438613005497
 30
0.0
 40
0.2609531936261092
 50
180.3733670874362929
 51
217.1152916282862861
  0
LINE
  5
6A2E
  8
0
 10
27.7511100781467803
 20
10.7347792678690706
 30
0.0
 11
25.5536756723490015
 21
10.7347792678690208
 31
0.0
  0
LINE
  5
6A2F
  8
0
 10
27.8039676758446888
 20
10.9287685970686006
 30
0.0
 11
25.5008180745510806
 21
10.9287685970686006
 31
0.0
  0
ARC
  5
6A30
  8
0
 10
31.1859555424978616
 20
8.5279513468691981
 30
0.0
 40
4.0826771653999172
 50
147.2799669948597057
 51
166.6882252949490066
  0
ARC
  5
6A31
  8
0
 10
31.185955538361501
 20
8.5279513475911024
 30
0.0
 40
4.0826771612084691
 50
166.6882252914419098
 51
180.3343498015194086
  0
ARC
  5
6A32
  8
0
 10
22.1188285559344706
 20
8.5279508235212251
 30
0.0
 40
4.0826788382046102
 50
13.3117766978667795
 51
32.7200266521023977
  0
ARC
  5
6A33
  8
0
 10
22.1188261909974315
 20
8.5279506557034264
 30
0.0
 40
4.0826811782395342
 50
359.665660237478221
 51
13.31177134791497
  0
LINE
  5
6A34
  8
0
 10
27.1033478908979397
 20
8.5041270002690652
 30
0.0
 11
26.2014378595979416
 21
8.5041270002689835
 31
0.0
  0
LINE
  5
6A35
  8
0
 10
27.1033478908979504
 20
8.5041270002669354
 30
0.0
 11
27.1033478908979397
 21
8.3607006934690649
 31
0.0
  0
ARC
  5
6A36
  8
0
 10
29.6489547213799689
 20
8.3631022096455467
 30
0.0
 40
2.545607963272567
 50
180.0540526128687873
 51
197.9488331167837032
  0
LINE
  5
6A37
  8
0
 10
26.2014378595979416
 20
8.5041270002689835
 30
0.0
 11
26.2014378595979487
 21
8.2885990108690457
 31
0.0
  0
ARC
  5
6A38
  8
0
 10
25.8164441546381305
 20
7.9614488056230366
 30
0.0
 40
0.5052201595850959
 50
5.324206992816312
 51
40.3563757008241879
  0
ARC
  5
6A39
  8
0
 10
25.3447913448601803
 20
8.149241757940846
 30
0.0
 40
0.9848265662968968
 50
330.4406384136033807
 51
351.7736558165743759
  0
ARC
  5
6A3A
  8
0
 10
27.1897562605911212
 20
7.5665710856465473
 30
0.0
 40
0.0393715937169877
 50
312.7976809963004143
 51
17.8330882711689185
  0
ARC
  5
6A3B
  8
0
 10
26.5462644702441715
 20
8.2079667397442542
 30
0.0
 40
0.947895137885075
 50
278.5401176633754972
 51
314.9981389247041079
  0
ARC
  5
6A3C
  8
0
 10
26.6041169181479695
 20
8.1695128573937392
 30
0.0
 40
0.9027466462812931
 50
258.139168805210204
 51
275.2696928785518935
  0
ARC
  5
6A3D
  8
0
 10
26.6041169181483497
 20
8.1695128574001732
 30
0.0
 40
0.9027466462876658
 50
240.8256820845460027
 51
240.8258113207880058
  0
ARC
  5
6A3E
  8
0
 10
26.1842995912592293
 20
7.4150554710088086
 30
0.0
 40
0.0393703053609601
 50
287.5301028061073794
 51
288.0299647974517825
  0
ARC
  5
6A3F
  8
0
 10
26.1842995912592293
 20
7.4150554710088086
 30
0.0
 40
0.0393703053609601
 50
173.1623886427310026
 51
242.7546283272870085
  0
LINE
  5
6A40
  8
0
 10
26.2014378595981192
 20
7.6634021604690448
 30
0.0
 11
26.1452093044853093
 21
7.4197427329118826
 31
0.0
  0
ARC
  5
6A41
  8
0
 10
26.384258496328961
 20
9.8961379890096666
 30
0.0
 40
2.5255097382132701
 50
265.0485048870193054
 51
276.2071997592482262
  0
ARC
  5
6A42
  8
0
 10
26.4428159438213299
 20
9.2763025889668516
 30
0.0
 40
1.9029970832759311
 50
276.4723064925619838
 51
293.9891636679327007
  0
ARC
  5
6A43
  8
0
 10
26.6611413227524885
 20
8.3225444804831703
 30
0.0
 40
1.064510137163637
 50
242.2977829392704052
 51
256.8282594125943774
  0
LINE
  5
6A44
  8
0
 62
     4
 10
17.9031473532159602
 20
10.9287685970686006
 30
0.0
 11
24.6329820359843588
 21
20.0952817181593808
 31
0.0
  0
LINE
  5
6A45
  8
0
 62
     4
 10
17.9031473532159602
 20
-0.0000000300842942
 30
0.0
 11
22.3963351323106608
 21
4.993614497796286
 31
0.0
  0
ENDBLK
  5
6A49
  8
0
  0
ENDSEC
  0
SECTION
  2
ENTITIES
  0
ATTDEF
  5
3930
  8
DEFPOINTS
 10
4005.7719188664627836
 20
32.9654422851077697
 30
0.0
 40
0.001
  1
K-3453T-AT
  3

  2
MODELNUMBER
 70
     0
1001
ACDBATTR
1070
     0
1070
     1
  0
ATTDEF
  5
3931
  8
DEFPOINTS
 10
4005.7719188664627836
 20
32.9637756184410975
 30
0.0
 40
0.001
  1
MEMOIRS
  3

  2
TRADENAME
 70
     0
1001
ACDBATTR
1070
     0
1070
     1
  0
ATTDEF
  5
3932
  8
DEFPOINTS
 10
4005.7719188664627836
 20
32.9621089517744394
 30
0.0
 40
0.001
  1
TOILET
  3

  2
PRODUCT
 70
     0
1001
ACDBATTR
1070
     0
1070
     1
  0
LINE
  5
828C
  8
0
 10
3997.5072042321530716
 20
58.8326882933646829
 30
0.0
 11
4014.0363321151148739
 21
58.8326882621344183
 31
0.0
  0
ARC
  5
828D
  8
0
 10
4014.0363321152558456
 20
58.9073820033674096
 30
0.0
 40
0.0746937412329842
 50
269.9999998917410267
 51
1.874768112531525
  0
ARC
  5
828E
  8
0
 10
13654920.7496675699949265
 20
-238218.3591586955008097
 30
0.0
 40
13652986.0512240491807461
 50
178.9999995534643062
 51
179.0000008086533114
  0
ARC
  5
828F
  8
0
 10
4014.2361875825149582
 20
59.2067841079344177
 30
0.0
 40
0.1200000000000088
 50
131.6602056920065138
 51
179.0000010661578926
  0
ARC
  5
8290
  8
0
 10
4013.1238932918868159
 20
60.4432889316721997
 30
0.0
 40
1.5431744267025851
 50
311.9971850411470768
 51
358.3113867181269825
  0
ARC
  5
8291
  8
0
 10
4014.8573184064011912
 20
60.3837064862905777
 30
0.0
 40
0.1914414343162834
 50
110.3667808531198062
 51
175.7735973076389087
  0
ARC
  5
8292
  8
0
 10
4014.7225640545398164
 20
60.7466940416128836
 30
0.0
 40
0.195751929088031
 50
290.366780853119792
 51
359.8165827247649986
  0
ARC
  5
8293
  8
0
 10
4014.7138103435040648
 20
61.0675331615531931
 30
0.0
 40
0.2053371049172553
 50
5.161007295570414
 51
87.5874469924741135
  0
ARC
  5
8294
  8
0
 10
3996.8254334702492088
 20
61.0718860540764226
 30
0.0
 40
0.2008508326396894
 50
91.2607747806422367
 51
175.9692501579121995
  0
ARC
  5
8295
  8
0
 10
3996.8151165083631895
 20
60.7427001001750071
 30
0.0
 40
0.1900370604204726
 50
180.0035886250392991
 51
250.8637691302978112
  0
ARC
  5
8296
  8
0
 10
3996.6872486148449752
 20
60.3843702229135602
 30
0.0
 40
0.1904384395960046
 50
4.1350799475049396
 51
69.8600094277724395
  0
ARC
  5
8297
  8
0
 10
3998.4168350530608222
 20
60.4419587550186179
 30
0.0
 40
1.5402682363383651
 50
181.6316149960020141
 51
228.6627187003404913
  0
ARC
  5
8298
  8
0
 10
3997.2974425772031282
 20
59.2051557805696405
 30
0.0
 40
0.1298730136118138
 50
1.642522989975544
 51
38.2010357325692596
  0
ARC
  5
8299
  8
0
 10
42195.6945621257982566
 20
725.886360232168613
 30
0.0
 40
38204.0846452210025745
 50
180.9998864067767954
 51
181.0003349844089939
  0
ARC
  5
829A
  8
0
 10
3997.5072039666220007
 20
58.9074468942093787
 30
0.0
 40
0.0747586629961554
 50
178.1823034186687096
 51
269.9478883298929759
  0
ARC
  5
829B
  8
0
 10
3996.8403888031871247
 20
60.9009618274750295
 30
0.0
 40
0.3489637063705334
 50
255.4667866759494927
 51
275.9603733343794261
  0
ARC
  5
829C
  8
0
 10
3997.1924469809518996
 20
55.6350878196005922
 30
0.0
 40
4.9289255153592713
 50
90.6870265748847402
 51
93.6737742769601311
  0
LINE
  5
829D
  8
0
 10
3997.1333419778161442
 20
60.5636546240344273
 30
0.0
 11
4014.4101260709157941
 21
60.5636393662344119
 31
0.0
  0
ARC
  5
829E
  8
0
 10
4014.4101230829260203
 20
57.1802653893275021
 30
0.0
 40
3.3833739769082301
 50
85.6483679863777638
 51
89.9999493998677451
  0
ARC
  5
829F
  8
0
 10
4014.7086517470079343
 20
61.457016414776362
 30
0.0
 40
0.9040979152058184
 50
267.3495797371650724
 51
272.5656552820162801
  0
ARC
  5
82A0
  8
0
 10
4014.7382796360398061
 20
60.6991601147244211
 30
0.0
 40
0.1457392731288656
 50
274.2668670328123994
 51
291.3171917347003728
  0
ARC
  5
82A1
  8
0
 10
3997.4775672328810288
 20
59.498138973345263
 30
0.0
 40
0.2263382023446014
 50
249.7097141206209017
 51
277.403537903600693
  0
ARC
  5
82A2
  8
0
 10
3997.7858671281610441
 20
57.1255083351229729
 30
0.0
 40
2.1662388540657331
 50
94.499092376330637
 51
97.4035379036007782
  0
ARC
  5
82A3
  8
0
 10
3997.6820498613510608
 20
59.0077976449878321
 30
0.0
 40
0.2850466726508491
 50
90.0700937718873718
 51
103.4104756269299941
  0
LINE
  5
82A4
  8
0
 10
3997.6817011447160439
 20
59.2928441043344208
 30
0.0
 11
4013.8618511773020145
 21
59.2928441917308504
 31
0.0
  0
ARC
  5
82A5
  8
0
 10
4013.8618511788208707
 20
59.0115871285266067
 30
0.0
 40
0.2812570632042437
 50
76.4981643098432613
 51
90.0000003094825303
  0
ARC
  5
82A6
  8
0
 10
4014.1382337796130741
 20
60.8297907145720771
 30
0.0
 40
1.5590254334312501
 50
262.232209455076827
 51
267.6324148327493049
  0
ARC
  5
82A7
  8
0
 10
4014.0870184915779646
 20
59.3872180534902512
 30
0.0
 40
0.1158749296698515
 50
263.464536250587912
 51
302.4449896247858192
  0
ARC
  5
82A8
  8
0
 10
3998.4923278427349942
 20
47.0527413574401692
 30
0.0
 40
0.1600485532188942
 50
174.2557931573462042
 51
250.8393592933419995
  0
ARC
  5
82A9
  8
0
 10
3998.3802977561631451
 20
46.731182420790951
 30
0.0
 40
0.1804671744649505
 50
28.5753793516069905
 51
70.7496776829797795
  0
ARC
  5
82AA
  8
0
 10
4525.5381161491213788
 20
326.980280615944082
 30
0.0
 40
596.841252319478599
 50
207.9959536258666049
 51
208.0149612421749907
  0
LINE
  5
82AB
  8
0
 10
3998.6317537055151661
 20
46.6426882621344205
 30
0.0
 11
4012.9117126470150652
 21
46.6426882621344205
 31
0.0
  0
LINE
  5
82AC
  8
0
 10
4012.9117126470150652
 20
46.6426882621344205
 30
0.0
 11
4013.0039092267152228
 21
46.8160440657344168
 31
0.0
  0
ARC
  5
82AD
  8
0
 10
4013.1628793107488491
 20
46.731498306560141
 30
0.0
 40
0.180054083575966
 50
109.2268758811417939
 51
151.9944182793493042
  0
ARC
  5
82AE
  8
0
 10
4013.0507682407901484
 20
47.0529602504461479
 30
0.0
 40
0.1603966079830333
 50
289.2258891445187032
 51
5.6530894199119111
  0
ARC
  5
82AF
  8
0
 10
4003.7344914157351923
 20
47.4024969376815477
 30
0.0
 40
5.1538679620602821
 50
188.4777274265020139
 51
256.6167610108961981
  0
ARC
  5
82B0
  8
0
 10
4002.4889051742597985
 20
42.2061172681139283
 30
0.0
 40
0.1899172985495662
 50
0.5866541648218846
 51
73.9037717412322905
  0
LINE
  5
82B1
  8
0
 10
4000.8244249629151454
 20
32.9676882621344305
 30
0.0
 11
4010.7190443997151306
 21
32.9676882621344305
 31
0.0
  0
ARC
  5
82B2
  8
0
 10
4010.7190443997151306
 20
33.0176888672999169
 30
0.0
 40
0.0500006051654918
 50
270.0
 51
2.9993030822205262
  0
LINE
  5
82B3
  8
0
 10
4010.7689765126151542
 20
33.020305089434423
 30
0.0
 11
4010.743470136572796
 21
33.5071090314183095
 31
0.0
  0
ARC
  5
82B4
  8
0
 10
4010.5627476325148564
 20
33.4976399705702619
 30
0.0
 40
0.1809704025152594
 50
2.9993030822205262
 51
86.5056772978639827
  0
ARC
  5
82B5
  8
0
 10
4010.5933823127138567
 20
33.9993283687045889
 30
0.0
 40
0.3216524505798886
 50
180.2921525748151907
 51
266.505677297863997
  0
LINE
  5
82B6
  8
0
 10
4010.2717340436151972
 20
33.9976882621344174
 30
0.0
 11
4010.2717340436151972
 21
34.027350501334432
 31
0.0
  0
ARC
  5
82B7
  8
0
 10
4009.5230115659937837
 20
34.0282168204011413
 30
0.0
 40
0.7487229803124863
 50
359.9336060080804032
 51
68.3587603469238587
  0
ARC
  5
82B8
  8
0
 10
4009.8911009419689435
 20
34.9559529654288497
 30
0.0
 40
0.2493672678596107
 50
179.9013656680309055
 51
248.3587603469241003
  0
LINE
  5
82B9
  8
0
 10
4009.6417336741110375
 20
34.9559529654288497
 30
0.0
 11
4009.6417612644168003
 21
35.1189699122466621
 31
0.0
  0
LINE
  5
82BA
  8
0
 10
4009.6417612644168003
 20
35.1189699122466621
 30
0.0
 11
4001.9017340436162158
 21
35.1189689769238527
 31
0.0
  0
LINE
  5
82BB
  8
0
 10
4001.9017340436162158
 20
35.1189689769238527
 30
0.0
 11
4001.9017340436162158
 21
34.9563831506344229
 31
0.0
  0
ARC
  5
82BC
  8
0
 10
4001.6517327234000732
 20
34.9563831506344229
 30
0.0
 40
0.2500013202144293
 50
291.7158859465649243
 51
359.9999999999992042
  0
ARC
  5
82BD
  8
0
 10
4002.0217396381858634
 20
34.0273467075126774
 30
0.0
 40
0.7500055945801753
 50
111.7158859465647964
 51
179.9997101755297138
  0
LINE
  5
82BE
  8
0
 10
4001.2717340436151972
 20
34.027350501334432
 30
0.0
 11
4001.2717338935722182
 21
33.9976883165639521
 31
0.0
  0
ARC
  5
82BF
  8
0
 10
4000.9465559820691851
 20
34.0027614612971334
 30
0.0
 40
0.3252174825048669
 50
273.903220001810098
 51
359.106193278613091
  0
ARC
  5
82C0
  8
0
 10
4000.9780489379968458
 20
33.5003716117599879
 30
0.0
 40
0.1781724845937549
 50
93.0097031049022291
 51
177.8330049156579946
  0
LINE
  5
82C1
  8
0
 10
4000.8000038710151784
 20
33.5071087023344205
 30
0.0
 11
4000.7744917707150307
 21
33.0203050822344224
 31
0.0
  0
ARC
  5
82C2
  8
0
 10
4000.8252181235270655
 20
33.0184418460878675
 30
0.0
 40
0.0507597812039839
 50
177.8382907179968981
 51
269.1046729513971059
  0
LINE
  5
82C3
  8
0
 10
4010.5737727930149958
 20
33.6781927324344323
 30
0.0
 11
4000.9668648730657878
 21
33.6781927324344323
 31
0.0
  0
LINE
  5
82C4
  8
0
 10
4009.7991358694889641
 20
34.724163276867273
 30
0.0
 11
4001.7442343009561228
 21
34.7241244193480867
 31
0.0
  0
ARC
  5
82C5
  8
0
 10
4009.3616567478661636
 20
35.1130712414149713
 30
0.0
 40
0.2801666191927727
 50
1.2064032408451999
 51
22.975359495719939
  0
ARC
  5
82C6
  8
0
 10
4017.0477472791230866
 20
38.194189274635491
 30
0.0
 40
8.0005466133216459
 50
182.5009731282625864
 51
201.8047317019702973
  0
ARC
  5
82C7
  8
0
 10
24125.6882519951795985
 20
916.6295049938649981
 30
0.0
 40
20135.8188971401214076
 50
182.4934213679539994
 51
182.5013453254879892
  0
ARC
  5
82C8
  8
0
 10
11408.2226267071200709
 20
365.0528860128729889
 30
0.0
 40
7406.398039917125061
 50
182.4964794826140064
 51
182.5105553547346915
  0
ARC
  5
82C9
  8
0
 10
3997.3333305875330552
 20
42.1749781404027502
 30
0.0
 40
11.5238332879469692
 50
1.3426134784189201
 51
3.6573865470458218
  0
ARC
  5
82CA
  8
0
 10
4009.0020478674528022
 20
42.9208458123977366
 30
0.0
 40
0.1686977273139244
 50
109.9579145313148985
 51
183.6573865470454052
  0
ARC
  5
82CB
  8
0
 10
4008.8910185602007914
 20
43.074614872697083
 30
0.0
 40
0.0536626047833013
 50
5.128930208189054
 51
74.6795884368421667
  0
ARC
  5
82CC
  8
0
 10
4008.8334843978232129
 20
42.402968460023942
 30
0.0
 40
0.7269478718447957
 50
84.3386179661768551
 51
112.3744072924275059
  0
ARC
  5
82CD
  8
0
 10
4007.6962166818880178
 20
46.1052556442825932
 30
0.0
 40
3.149896850587985
 50
260.3791395579219738
 51
285.8547336564384977
  0
ARC
  5
82CE
  8
0
 10
4005.771734051959811
 20
29.0228731434807088
 30
0.0
 40
14.0465349436667708
 50
84.2879102589173641
 51
95.7120903423977865
  0
ARC
  5
82CF
  8
0
 10
4003.8427625906961111
 20
46.1262642541476424
 30
0.0
 40
3.171360309623521
 50
251.6365260164405981
 51
279.6373810871169781
  0
ARC
  5
82D0
  8
0
 10
4002.7176165192868211
 20
42.7121689350688669
 30
0.0
 40
0.4234205300468627
 50
72.6839555652666149
 51
89.4720132727919264
  0
ARC
  5
82D1
  8
0
 10
4002.7058864146479209
 20
43.0079538736841087
 30
0.0
 40
0.1285714277662295
 50
83.0166122791159182
 51
146.2350822234033956
  0
ARC
  5
82D2
  8
0
 10
4002.5248914639419127
 20
42.9100333157007796
 30
0.0
 40
0.1848824844450203
 50
0.0128811918527173
 51
66.3686145756739165
  0
ARC
  5
82D3
  8
0
 10
418817.3239677709061652
 20
-18069.5557672121103678
 30
0.0
 40
415209.8572621496859938
 50
177.49982510206749
 51
177.5005246990949104
  0
ARC
  5
82D4
  8
0
 10
3994.4957183529031681
 20
38.1941894013625003
 30
0.0
 40
8.0005490717342571
 50
338.1159994200119741
 51
357.4990257610020876
  0
ARC
  5
82D5
  8
0
 10
4002.1517286192961365
 20
35.1189695266842605
 30
0.0
 40
0.2499945756819869
 50
158.1146016756142103
 51
180.0001259985378113
  0
ARC
  5
82D6
  8
0
 10
4007.6098067746152083
 20
47.4933148956310589
 30
0.0
 40
5.3645911533127064
 50
305.2454587694408019
 51
350.8764921023018815
  0
ARC
  5
82D7
  8
0
 10
4009.0438808368730861
 20
46.2013824113162315
 30
0.0
 40
3.50782964921012
 50
276.611675556594605
 51
298.2759978108109067
  0
ARC
  5
82D8
  8
0
 10
4010.8506125726880782
 20
34.0573315474183715
 30
0.0
 40
8.7724444966515911
 50
99.2019378132718685
 51
102.3493723169844998
  0
ARC
  5
82D9
  8
0
 10
4009.0461603236099108
 20
42.448451775091371
 30
0.0
 40
0.1922287540961849
 50
111.909990495131197
 51
180.1756538897597864
  0
ARC
  5
82DA
  8
0
 10
4009.1246831587009183
 20
40.627981246553901
 30
0.0
 40
0.1912061847102394
 50
99.6901295187587095
 51
180.2352274424229961
  0
ARC
  5
82DB
  8
0
 10
4008.286091458962801
 20
45.5390387562927117
 30
0.0
 40
4.7909341086608279
 50
279.6901295187586811
 51
288.7761476064881094
  0
ARC
  5
82DC
  8
0
 10
4009.4977973500172084
 20
42.2571278411499307
 30
0.0
 40
1.2968493311410401
 50
284.7581893305006133
 51
334.056460090136909
  0
ARC
  5
82DD
  8
0
 10
4009.8865735505301018
 20
41.9905705211646989
 30
0.0
 40
0.8335487035311153
 50
338.8469239136862257
 51
356.1444665686810822
  0
ARC
  5
82DE
  8
0
 10
3820.0445396013678874
 20
48.6966956408291622
 30
0.0
 40
190.7935674801180141
 50
357.9688771346533258
 51
358.3245295798092229
  0
ARC
  5
82DF
  8
0
 10
4010.8821603149940529
 20
43.1150746686627571
 30
0.0
 40
0.125662578047562
 50
162.5719119271768989
 51
178.568213382748894
  0
LINE
  5
82E0
  8
0
 10
3997.8285169918322026
 20
49.0926882621344305
 30
0.0
 11
4012.8026969055149493
 21
49.0926882621344092
 31
0.0
  0
ARC
  5
82E1
  8
0
 10
4012.8026969055149493
 20
48.8926882606386926
 30
0.0
 40
0.2000000014957353
 50
13.9651224273711296
 51
90.0
  0
ARC
  5
82E2
  8
0
 10
4013.9283873607860187
 20
49.1726266866339614
 30
0.0
 40
0.9599760859464316
 50
193.9651224273711136
 51
218.840685778193091
  0
ARC
  5
82E3
  8
0
 10
4012.4510975073580994
 20
47.9831269965701992
 30
0.0
 40
0.9366774996362687
 50
334.7156741491680805
 51
38.8406857781931265
  0
ARC
  5
82E4
  8
0
 10
4014.1744826551289407
 20
47.1690632977402231
 30
0.0
 40
0.9693015331215374
 50
154.7156741491681089
 51
185.9395912096105974
  0
ARC
  5
82E5
  8
0
 10
3998.7408289115360276
 20
48.8925186534377332
 30
0.0
 40
0.2001696170214368
 50
90.0165243331618825
 51
165.9911089587708943
  0
ARC
  5
82E6
  8
0
 10
3997.6143503914449866
 20
49.172854296221999
 30
0.0
 40
0.9606671624059414
 50
321.2404349323318229
 51
346.0323499172710058
  0
ARC
  5
82E7
  8
0
 10
3999.0966050590682244
 20
47.9826422596182525
 30
0.0
 40
0.9403019614143558
 50
141.2323576469221109
 51
205.1474147935556118
  0
ARC
  5
82E8
  8
0
 10
3997.3580287496620258
 20
47.167196591425089
 30
0.0
 40
0.9800104160001769
 50
354.2352488555508216
 51
25.1094096298790888
  0
ARC
  5
82E9
  8
0
 10
3998.7378720362830791
 20
49.380820432507349
 30
0.0
 40
0.0562131548769658
 50
182.9372956260054082
 51
265.3390859296437156
  0
ARC
  5
82EA
  8
0
 10
3998.9316526857051031
 20
52.9592308901401694
 30
0.0
 40
3.639846100881702
 50
266.8761972379825238
 51
267.8850500415395004
  0
LINE
  5
82EB
  8
0
 10
3998.7973261373658715
 20
49.3218642580125888
 30
0.0
 11
4012.7843400317151463
 21
49.3218642580125888
 31
0.0
  0
ARC
  5
82EC
  8
0
 10
4012.7763582479201432
 20
49.4972048446933428
 30
0.0
 40
0.175522164441108
 50
272.6063961282521859
 51
286.7612995193372853
  0
ARC
  5
82ED
  8
0
 10
4012.8129734558588098
 20
49.3756327119308835
 30
0.0
 40
0.0485558030819271
 50
286.7612995193372853
 51
1.978158238024414
  0
ARC
  5
82EE
  8
0
 10
4012.8052830819688097
 20
49.7177178869136895
 30
0.0
 40
0.0564862108484656
 50
1.8824976328484531
 51
80.7922166660689669
  0
ARC
  5
82EF
  8
0
 10
4013.7255160363461073
 20
54.31565032028697
 30
0.0
 40
4.6326688163023482
 50
249.2037967995536007
 51
258.6566016345302046
  0
ARC
  5
82F0
  8
0
 10
3998.7589128779741259
 20
49.6959383912374904
 30
0.0
 40
0.0829369254452797
 50
99.6593469955930686
 51
158.5267292882282959
  0
ARC
  5
82F1
  8
0
 10
3997.8652338041338226
 20
54.173348707040283
 30
0.0
 40
4.4828244490862259
 50
281.3178689792547971
 51
290.8749679121496001
  0
LINE
  5
82F2
  8
0
 10
4000.9763592058870927
 20
49.3218642580125888
 30
0.0
 11
4001.0167858384152169
 21
49.0926882621344305
 31
0.0
  0
LINE
  5
82F3
  8
0
 10
4010.5671088814519862
 20
49.3218642580125888
 30
0.0
 11
4010.5266822489152219
 21
49.0926882621344092
 31
0.0
  0
LINE
  5
82F4
  8
0
 10
4009.2853592060491792
 20
49.3218642580125888
 30
0.0
 11
4009.3257858384149586
 21
49.0926882621344305
 31
0.0
  0
LINE
  5
82F5
  8
0
 10
4002.2581088813230963
 20
49.3218642580125888
 30
0.0
 11
4002.2176822489150254
 21
49.0926882621344305
 31
0.0
  0
ARC
  5
82F6
  8
0
 10
4012.7948395863231781
 20
49.93949208621612
 30
0.0
 40
0.2298689008253322
 50
272.4680147935118839
 51
286.9197543098874803
  0
LINE
  5
82F7
  8
0
 10
3998.819225368467869
 20
49.7098364080344197
 30
0.0
 11
4012.8047381238689013
 21
49.7098364080344197
 31
0.0
  0
ARC
  5
82F8
  8
0
 10
3998.8111168238810933
 20
50.2245073975036007
 30
0.0
 40
0.5147348598030957
 50
255.4419567828662139
 51
270.9026095490066268
  0
ARC
  5
82F9
  8
0
 10
3998.736468542395869
 20
50.0443507767176072
 30
0.0
 40
0.0547521649901435
 50
181.4005150984035879
 51
264.2619186064806058
  0
ARC
  5
82FA
  8
0
 10
3999.0512723379929412
 20
62.0758341245550866
 30
0.0
 40
12.0977150181307298
 50
268.9748896604029937
 51
271.8627913470687076
  0
LINE
  5
82FB
  8
0
 10
4012.1624902107919297
 20
49.95462169962952
 30
0.0
 11
4010.6332305658270343
 21
49.9572526206129268
 31
0.0
  0
LINE
  5
82FC
  8
0
 10
4009.7102012554701105
 20
49.9588405897906682
 30
0.0
 11
4001.8403187102749143
 21
49.9723798466418287
 31
0.0
  0
LINE
  5
82FD
  8
0
 10
4000.9028836904540185
 20
49.973992599239061
 30
0.0
 11
3999.4407475208431606
 21
49.9765080417552525
 31
0.0
  0
ARC
  5
82FE
  8
0
 10
3998.3106609409460361
 20
128.3958226986790976
 30
0.0
 40
78.4195080227396346
 50
270.8284637555228187
 51
272.7073063043591219
  0
ARC
  5
82FF
  8
0
 10
4000.2710377536391206
 20
86.9384848677620141
 30
0.0
 40
36.9158462894113626
 50
272.7073063043591219
 51
276.1677920700419122
  0
ARC
  5
8300
  8
0
 10
4011.1189182551329395
 20
-11.7508513890838593
 30
0.0
 40
62.3679951835334592
 50
95.304724179289579
 51
96.3348592617216326
  0
ARC
  5
8301
  8
0
 10
4005.7752258468999571
 20
44.9889921438622977
 30
0.0
 40
5.3776490056172754
 50
84.6535045404793465
 51
94.5050322510943346
  0
ARC
  5
8302
  8
0
 10
3995.8346324002791334
 20
-55.2451545905311434
 30
0.0
 40
106.103434221280196
 50
83.7932161112978946
 51
84.352361793486935
  0
ARC
  5
8303
  8
0
 10
4010.7242719280848178
 20
79.6983126257705692
 30
0.0
 40
29.6596038533782007
 50
263.3823860111801878
 51
268.0027649415075075
  0
ARC
  5
8304
  8
0
 10
4013.4447373697348667
 20
135.0629396698267044
 30
0.0
 40
85.0890698926416746
 50
267.4712822890654138
 51
269.0915370963576265
  0
ARC
  5
8305
  8
0
 10
3998.8284408571857966
 20
50.4664918656387513
 30
0.0
 40
0.4864785753190329
 50
258.444915754899796
 51
270.7533380605265165
  0
ARC
  5
8306
  8
0
 10
4012.4743888510379293
 20
60.1926278883023826
 30
0.0
 40
10.2150861074320591
 50
267.8751892606558727
 51
271.4258658669870101
  0
ARC
  5
8307
  8
0
 10
4012.7172169911409583
 20
50.4370431639988368
 30
0.0
 40
0.4564797100671993
 50
271.4258658669870101
 51
283.1028816756514175
  0
ARC
  5
8308
  8
0
 10
4012.8084404038231696
 20
50.0443497674785078
 30
0.0
 40
0.0533301701348722
 50
283.2912564096400843
 51
358.4409770334531231
  0
LINE
  5
8309
  8
0
 10
4000.8949451699149904
 20
50.0189082815344292
 30
0.0
 11
4000.9233045652640612
 21
49.85845249063442
 31
0.0
  0
ARC
  5
830A
  8
0
 10
4000.9801747762940067
 20
49.8685038872788695
 30
0.0
 40
0.057751636142121
 50
190.0231010393443967
 51
263.7286189452756844
  0
LINE
  5
830B
  8
0
 10
4000.9738661135152142
 20
49.8110978575344205
 30
0.0
 11
4001.7476099210589382
 21
49.8132378823941195
 31
0.0
  0
ARC
  5
830C
  8
0
 10
4001.7514326221530609
 20
49.8858543063091702
 30
0.0
 40
0.0727169723370622
 50
266.9865955770997061
 51
345.6837165215712275
  0
LINE
  5
830D
  8
0
 10
4001.821891404913913
 20
49.8678732607997475
 30
0.0
 11
4001.8551441438958136
 21
50.0564591746338223
 31
0.0
  0
LINE
  5
830E
  8
0
 10
4010.6442886821978391
 20
50.0199664013471903
 30
0.0
 11
4010.6205736462147797
 21
49.8854715636344181
 31
0.0
  0
ARC
  5
830F
  8
0
 10
4010.5610317945511269
 20
49.8959703841003588
 30
0.0
 40
0.0604603781897324
 50
268.6839414800605823
 51
350.0000134986000262
  0
ARC
  5
8310
  8
0
 10
4010.293580201522218
 20
136.826202096821504
 30
0.0
 40
86.9910830210269665
 50
269.6558209621932178
 51
270.1752399021079896
  0
ARC
  5
8311
  8
0
 10
4009.7814284884470908
 20
49.8945522263598917
 30
0.0
 40
0.0587917994265307
 50
188.6475939082515083
 51
259.8055006336517749
  0
LINE
  5
8312
  8
0
 10
4009.7233050444651781
 20
49.8857124899721427
 30
0.0
 11
4009.6926775524448203
 21
50.0566348311718201
 31
0.0
  0
ARC
  5
8313
  8
0
 10
3998.745609184334171
 20
50.3127315523108507
 30
0.0
 40
0.0639833154487025
 50
116.436803935670298
 51
176.6880656646835916
  0
ARC
  5
8314
  8
0
 10
3989.0622959648089818
 20
80.7627868155586839
 30
0.0
 40
31.8894297074125603
 50
287.623419563596201
 51
291.4882500233601945
  0
ARC
  5
8315
  8
0
 10
4000.7707471864250692
 20
51.0316259189098389
 30
0.0
 40
0.0642385133459283
 50
90.2413773021625474
 51
114.8747735924858944
  0
LINE
  5
8316
  8
0
 10
4000.7704765613761992
 20
51.0958638622064427
 30
0.0
 11
4010.773558111625789
 21
51.0958638622064427
 31
0.0
  0
ARC
  5
8317
  8
0
 10
4010.7732754314811245
 20
51.0378005419839482
 30
0.0
 40
0.0580640083297967
 50
69.8195721376898604
 51
89.7210588149233956
  0
ARC
  5
8318
  8
0
 10
4022.0315864686340319
 20
79.674947569291831
 30
0.0
 40
30.7126469400415587
 50
248.5359714008079948
 51
252.2699782541953084
  0
ARC
  5
8319
  8
0
 10
4012.3016136217997882
 20
49.0583244009182025
 30
0.0
 40
1.4139457223003
 50
68.7099867039194976
 51
74.5368942403928827
  0
ARC
  5
831A
  8
0
 10
4012.7973123550041237
 20
50.31375935301174
 30
0.0
 40
0.0644888643962636
 50
2.2650704748071879
 51
74.0798171977456406
  0
ARC
  5
831B
  8
0
 10
3998.8396907955047936
 20
50.9709093775399324
 30
0.0
 40
0.6732730722294854
 50
256.4312368843637273
 51
273.6085496834248261
  0
ARC
  5
831C
  8
0
 10
3998.1164464829489589
 20
133.7294730970749868
 30
0.0
 40
83.4340147968039076
 50
270.5257735218563084
 51
272.4304646669050953
  0
ARC
  5
831D
  8
0
 10
4000.609735071122941
 20
82.541897346914979
 30
0.0
 40
32.1883476431538398
 50
271.8602452583716058
 51
276.7162132173830855
  0
ARC
  5
831E
  8
0
 10
3994.0772751109670935
 20
130.238885288034794
 30
0.0
 40
80.3271500530362061
 50
277.3648729916990874
 51
278.371178902477709
  0
ARC
  5
831F
  8
0
 10
4004.9132569439489089
 20
43.8251205775712904
 30
0.0
 40
6.995321628318659
 50
79.0670732466145125
 51
82.9507996893774049
  0
ARC
  5
8320
  8
0
 10
4001.2951353052822014
 20
6.922982290692409
 30
0.0
 40
44.0489240504757689
 50
82.1836459093760965
 51
83.5544933395553358
  0
ARC
  5
8321
  8
0
 10
4011.1644552992070203
 20
84.6910796966529631
 30
0.0
 40
34.3481337202858512
 50
263.5160842835928747
 51
268.5679578281955173
  0
ARC
  5
8322
  8
0
 10
4013.1191823879980802
 20
123.6603767293702987
 30
0.0
 40
73.3606595854826224
 50
267.8023644298560271
 51
269.7255393230408913
  0
ARC
  5
8323
  8
0
 10
4012.7791516761972161
 20
50.5209204383850334
 30
0.0
 40
0.2206554330896559
 50
267.0428815898072799
 51
291.9832471209338109
  0
LINE
  5
8324
  8
0
 10
4000.9409280432150808
 20
51.2519838348344194
 30
0.0
 11
4010.6025400441139936
 21
51.2519838348344194
 31
0.0
  0
ARC
  5
8325
  8
0
 10
4010.6025400441139936
 20
51.211983834834399
 30
0.0
 40
0.0400000000000169
 50
69.3921011099163394
 51
90.0
  0
ARC
  5
8326
  8
0
 10
3995.244541883500915
 20
15.9892502777985204
 30
0.0
 40
38.4653171219906014
 50
66.3049423178699726
 51
66.4446537308302538
  0
ARC
  5
8327
  8
0
 10
-490.5474844237455159
 20
-10222.3975072169596388
 30
0.0
 40
11216.4299501806999615
 50
66.339519546510374
 51
66.3399877763439321
  0
ARC
  5
8328
  8
0
 10
4010.7704641437399005
 20
51.1384118543375266
 30
0.0
 40
0.0399982161948834
 50
346.2048152106722796
 51
66.349493532059725
  0
ARC
  5
8329
  8
0
 10
3001.4083025964591798
 20
298.9078891802133171
 30
0.0
 40
1039.3675149584339579
 50
346.206013678106217
 51
346.2082256664461966
  0
ARC
  5
832A
  8
0
 10
4000.9409280432150808
 20
51.2119838348344487
 30
0.0
 40
0.0399999999999707
 50
90.0
 51
113.3164173325528026
  0
ARC
  5
832B
  8
0
 10
4006.9863358694237832
 20
37.1857682088900177
 30
0.0
 40
15.31356148940624
 50
113.3164173325528026
 51
114.0032383662201028
  0
ARC
  5
832C
  8
0
 10
4000.7733497602998796
 20
51.1382411114197168
 30
0.0
 40
0.0402941085220442
 50
114.0032383662201028
 51
193.4421475463992977
  0
ARC
  5
832D
  8
0
 10
4003.9219142172801185
 20
51.8907829780631005
 30
0.0
 40
3.2775425390268551
 50
193.4421475463992977
 51
194.1436129109330864
  0
LINE
  5
832E
  8
0
 10
4001.8101308379468719
 20
49.3218642580125888
 30
0.0
 11
4001.7869526652161767
 21
49.0926882621344305
 31
0.0
  0
LINE
  5
832F
  8
0
 10
4009.7333372497641903
 20
49.3218642580125888
 30
0.0
 11
4009.7565154228141182
 21
49.0926882621344092
 31
0.0
  0
LINE
  5
8330
  8
0
 10
4010.8292859936909736
 20
49.3218642580125888
 30
0.0
 11
4010.8535687986081939
 21
49.1842470046117626
 31
0.0
  0
ARC
  5
8331
  8
0
 10
4010.9128141773007883
 20
49.1947009552428582
 30
0.0
 40
0.060160618185814
 50
190.0069329329205061
 51
266.6443890897633082
  0
ARC
  5
8332
  8
0
 10
4011.5488567499091914
 20
57.0613591109264107
 30
0.0
 40
7.9524752549942868
 50
265.3871050907109748
 51
270.4222318438178263
  0
ARC
  5
8333
  8
0
 10
4011.5378001496051183
 20
56.6571592801434676
 30
0.0
 40
7.5483809265325963
 50
270.5287638667559236
 51
274.8003829902057191
  0
ARC
  5
8334
  8
0
 10
4012.1633607769967966
 20
49.1919386086213777
 30
0.0
 40
0.0570124298456585
 50
276.1641990121808021
 51
352.2212696941253967
  0
LINE
  5
8335
  8
0
 10
4012.2198485872067977
 20
49.1842221032915887
 30
0.0
 11
4012.2440982465391244
 21
49.3218642580125888
 31
0.0
  0
LINE
  5
8336
  8
0
 10
4000.6945795693291075
 20
49.3218642580125888
 30
0.0
 11
4000.6851161243148454
 21
49.2681442435344223
 31
0.0
  0
ARC
  5
8337
  8
0
 10
4000.6260429845551698
 20
49.2785507077789973
 30
0.0
 40
0.0599827503464735
 50
274.5810170171071718
 51
350.0091474171168215
  0
ARC
  5
8338
  8
0
 10
3999.9830361482690932
 20
57.3036332667559165
 30
0.0
 40
8.1107844414768255
 50
269.6309751204364034
 51
274.5810170171071718
  0
ARC
  5
8339
  8
0
 10
3999.976234068516078
 20
56.2475389643924402
 30
0.0
 40
7.0546682339629001
 50
265.1195417562850025
 51
269.6309751204364034
  0
ARC
  5
833A
  8
0
 10
3999.3781898938591439
 20
49.2787464821742418
 30
0.0
 40
0.0603363377179427
 50
191.9928766415440009
 51
267.9612234464415224
  0
LINE
  5
833B
  8
0
 10
3999.319170490714896
 20
49.2662091897344183
 30
0.0
 11
3999.3093329044268103
 21
49.3218642580125888
 31
0.0
  0
ARC
  5
833C
  8
0
 10
-9167.8989325063157594
 20
-49.9836410533501123
 30
0.0
 40
13182.1207684678502119
 50
0.4309647131194272
 51
0.4729730012115703
  0
ARC
  5
833D
  8
0
 10
4013.6950213980949229
 20
49.1669253812287721
 30
0.0
 40
0.1539197599726641
 50
311.3539656295801024
 51
0.43096471311902
  0
ARC
  5
833E
  8
0
 10
4013.9739557615757803
 20
48.8750727449292128
 30
0.0
 40
0.2499999925579774
 50
135.149776673178394
 51
170.2248546926419976
  0
ARC
  5
833F
  8
0
 10
4013.0046746526240895
 20
48.9932356112275684
 30
0.0
 40
0.7268651922114588
 50
336.7162705544743062
 51
354.0206657362451779
  0
ARC
  5
8340
  8
0
 10
4015.1166994084651378
 20
47.8196902836413003
 30
0.0
 40
1.6945687341033411
 50
148.4675991340066901
 51
174.2485499331102119
  0
ARC
  5
8341
  8
0
 10
4013.3731427673192229
 20
47.9941075750001716
 30
0.0
 40
0.0577019693224315
 50
283.5767654357197785
 51
355.4284622870928274
  0
ARC
  5
8342
  8
0
 10
4013.5128802422050285
 20
52.4117981230257897
 30
0.0
 40
3.2597973317590991
 50
251.4221062641020978
 51
269.3562302822954848
  0
ARC
  5
8343
  8
0
 10
4013.5279833022650564
 20
53.7559203454330188
 30
0.0
 40
4.6040044033042911
 50
269.3562302822954848
 51
270.6437697177045152
  0
ARC
  5
8344
  8
0
 10
4013.5819565495489769
 20
48.9524804594269511
 30
0.0
 40
0.1997387049287468
 50
64.712702558830955
 51
90.6437697177044868
  0
ARC
  5
8345
  8
0
 10
4013.6363222803488497
 20
49.0344845996006384
 30
0.0
 40
0.1033399440197564
 50
8.8594209206161025
 51
72.5702026981952883
  0
ARC
  5
8346
  8
0
 10
4013.3267831379771451
 20
49.0184782659024094
 30
0.0
 40
0.4128820158291738
 50
347.7664055370511846
 51
4.4342221173475318
  0
ARC
  5
8347
  8
0
 10
4012.9698667291640959
 20
64.3701567120178737
 30
0.0
 40
15.2784956539606398
 50
269.4074633759079802
 51
272.766991010058689
  0
ARC
  5
8348
  8
0
 10
-140536467.1060391068458557
 20
1128408.677230766043067
 30
0.0
 40
140544994.3653683960437775
 50
359.5399983294959725
 51
359.5400017565809208
  0
ARC
  5
8349
  8
0
 10
3997.8452472934131947
 20
49.1672522465500279
 30
0.0
 40
0.1520732430370553
 50
179.7127427220320044
 51
229.6315142312357125
  0
ARC
  5
834A
  8
0
 10
3997.5691267984839214
 20
48.8747950759396304
 30
0.0
 40
0.2504695145556
 50
9.0171365637859573
 51
44.8335336709629004
  0
ARC
  5
834B
  8
0
 10
3998.7010832850792212
 20
49.0356895640467911
 30
0.0
 40
0.8929064489770953
 50
187.829607647422705
 51
202.2230195934363053
  0
ARC
  5
834C
  8
0
 10
3996.0855016219688878
 20
47.6538740125655096
 30
0.0
 40
2.0713970072138159
 50
19.9658060426929005
 51
30.2689274626883389
  0
ARC
  5
834D
  8
0
 10
3996.4286892901609463
 20
47.8196877504203712
 30
0.0
 40
1.692659078977919
 50
5.7571633034410974
 51
18.6569612475204316
  0
ARC
  5
834E
  8
0
 10
3998.1783209731729585
 20
47.9972368059376393
 30
0.0
 40
0.0659677307142351
 50
186.7505181431388905
 51
251.6461619734388933
  0
ARC
  5
834F
  8
0
 10
3998.0343808597458519
 20
52.2034399486348235
 30
0.0
 40
3.057713224169059
 50
273.9813608371982809
 51
289.5421504850431802
  0
ARC
  5
8350
  8
0
 10
3998.1052142969260785
 20
60.2400765874595407
 30
0.0
 40
11.0878731916767794
 50
269.26900503223942
 51
270.7310534495014736
  0
ARC
  5
8351
  8
0
 10
3997.9528224324408257
 20
48.9960108470884421
 30
0.0
 40
0.1574749667249757
 50
86.0186976445427405
 51
159.7947092962710087
  0
ARC
  5
8352
  8
0
 10
3998.2472409768720354
 20
49.0204342600157901
 30
0.0
 40
0.4432168486708341
 50
176.1232536458551863
 51
191.3579293898048093
  0
LINE
  5
8353
  8
0
 10
3997.7070058203148619
 20
57.5928165298344226
 30
0.0
 11
3997.7070058203148619
 21
57.6863506796344296
 31
0.0
  0
LINE
  5
8354
  8
0
 10
3997.7206636278151564
 20
57.5778787885344201
 30
0.0
 11
3999.5314707947568422
 21
57.4154502861659068
 31
0.0
  0
LINE
  5
8355
  8
0
 10
3999.5314707940160588
 20
57.8637169231366926
 30
0.0
 11
3997.7206636278151564
 21
57.7012884209344321
 31
0.0
  0
ARC
  5
8356
  8
0
 10
3999.5817333528148083
 20
57.639583604734419
 30
0.0
 40
0.715
 50
193.4465530129361071
 51
166.5534469924683947
  0
ARC
  5
8357
  8
0
 10
3999.5817333528148083
 20
57.639583604734419
 30
0.0
 40
0.4034205369
 50
209.2413141894593025
 51
150.7586858247850898
  0
ARC
  5
8358
  8
0
 10
3999.5817333528148083
 20
57.639583604734419
 30
0.0
 40
0.2434565561
 50
244.1660274273721996
 51
115.8339726367177036
  0
ARC
  5
8359
  8
0
 10
3999.5817333528148083
 20
57.639583604734419
 30
0.0
 40
0.2296999548
 50
257.3603633101445212
 51
102.6396368793615039
  0
ARC
  5
835A
  8
0
 10
3997.7220027250718886
 20
57.6863514207867993
 30
0.0
 40
0.0149969047750871
 50
95.1228530152758083
 51
180.0028315778637875
  0
ARC
  5
835B
  8
0
 10
3997.7220027250718886
 20
57.5928157885820369
 30
0.0
 40
0.0149969047750863
 50
179.9971680400985861
 51
264.8771466630657869
  0
ARC
  5
835C
  8
0
 10
3943.4757414082641844
 20
58.7032656527173913
 30
0.0
 40
54.2951834448066109
 50
358.9464784121162779
 51
0.1365752467500519
  0
LINE
  5
835D
  8
0
 10
4014.7224539169151285
 20
61.2726882621344231
 30
0.0
 11
3996.8210141704089438
 21
61.2726882621344231
 31
0.0
  0
LINE
  5
835E
  8
0
 10
4014.9183149806049187
 20
61.0860042216194117
 30
0.0
 11
4014.9183149806049187
 21
60.7460673946876568
 31
0.0
  0
LINE
  5
835F
  8
0
 10
3996.6250794483148638
 20
61.0860042291344882
 30
0.0
 11
3996.6250794483148638
 21
60.7426881975225115
 31
0.0
  0
LINE
  5
8361
  8
0
 10
3998.4397970535537752
 20
46.901559164125203
 30
0.0
 11
4013.103728442009924
 21
46.901559164125203
 31
0.0
  0
LINE
  5
8362
  8
0
 10
4012.8617388070588277
 20
49.7195734516452887
 30
0.0
 11
4012.8615003225208966
 21
49.3773087861837396
 31
0.0
  0
LINE
  5
8363
  8
0
 10
4012.8617508326501593
 20
50.316308123248902
 30
0.0
 11
4012.8617508326501593
 21
50.0428988281344189
 31
0.0
  0
LINE
  5
8364
  8
0
 10
3998.6817327335152186
 20
50.3164279947324218
 30
0.0
 11
3998.6817327335152186
 21
50.0430125699844197
 31
0.0
  0
LINE
  5
8365
  8
0
 10
3998.6817327335152186
 20
49.7262988738344234
 30
0.0
 11
3998.6817327335152186
 21
49.3779399002845594
 31
0.0
  0
ENDSEC
  0
EOF
