  0
SECTION
  2
HEADER
  9
$ACADVER
  1
AC1009
  9
$INSBASE
 10
4252.2106173445290551
 20
159.2884146128916996
 30
0.0
  9
$EXTMIN
 10
4246.0032780650690256
 20
156.8255635328418975
 30
-0.0000000000112498
  9
$EXTMAX
 10
4258.3485724429256152
 20
159.3049036001152103
 30
0.0000000000002956
  9
$LIMMIN
 10
0.0
 20
0.0
  9
$LIMMAX
 10
11.6929133858000007
 20
8.2677165353999982
  9
$ORTHOMODE
 70
     0
  9
$REGENMODE
 70
     1
  9
$FILLMODE
 70
     1
  9
$QTEXTMODE
 70
     0
  9
$MIRRTEXT
 70
     0
  9
$DRAGMODE
 70
     2
  9
$LTSCALE
 40
0.6431102362
  9
$OSMODE
 70
  4095
  9
$ATTMODE
 70
     1
  9
$TEXTSIZE
 40
0.2
  9
$TRACEWID
 40
0.05
  9
$TEXTSTYLE
  7
STANDARD
  9
$CLAYER
  8
0
  9
$CELTYPE
  6
BYLAYER
  9
$CECOLOR
 62
   256
  9
$DIMSCALE
 40
1.0
  9
$DIMASZ
 40
0.1875
  9
$DIMEXO
 40
0.0625
  9
$DIMDLI
 40
0.4443307087
  9
$DIMRND
 40
0.0
  9
$DIMDLE
 40
0.0
  9
$DIMEXE
 40
0.125
  9
$DIMTP
 40
0.01
  9
$DIMTM
 40
0.01
  9
$DIMTXT
 40
2.0
  9
$DIMCEN
 40
0.1052362205
  9
$DIMTSZ
 40
0.0
  9
$DIMTOL
 70
     1
  9
$DIMLIM
 70
     0
  9
$DIMTIH
 70
     1
  9
$DIMTOH
 70
     1
  9
$DIMSE1
 70
     0
  9
$DIMSE2
 70
     0
  9
$DIMTAD
 70
     0
  9
$DIMZIN
 70
     0
  9
$DIMBLK
  1

  9
$DIMASO
 70
     1
  9
$DIMSHO
 70
     1
  9
$DIMPOST
  1
\X
  9
$DIMAPOST
  1

  9
$DIMALT
 70
     1
  9
$DIMALTD
 70
     2
  9
$DIMALTF
 40
25.3999999999999986
  9
$DIMLFAC
 40
1.0
  9
$DIMTOFL
 70
     0
  9
$DIMTVP
 40
0.0
  9
$DIMTIX
 70
     0
  9
$DIMSOXD
 70
     0
  9
$DIMSAH
 70
     0
  9
$DIMBLK1
  1

  9
$DIMBLK2
  1

  9
$DIMSTYLE
  2
STANDARD
  9
$DIMCLRD
 70
     0
  9
$DIMCLRE
 70
     0
  9
$DIMCLRT
 70
     0
  9
$DIMTFAC
 40
1.0
  9
$DIMGAP
 40
0.09
  9
$LUNITS
 70
     2
  9
$LUPREC
 70
     4
  9
$SKETCHINC
 40
0.1
  9
$FILLETRAD
 40
0.0
  9
$AUNITS
 70
     0
  9
$AUPREC
 70
     0
  9
$MENU
  1
.
  9
$ELEVATION
 40
0.0
  9
$PELEVATION
 40
0.0
  9
$THICKNESS
 40
0.0
  9
$LIMCHECK
 70
     0
  9
$BLIPMODE
 70
     0
  9
$CHAMFERA
 40
0.0
  9
$CHAMFERB
 40
0.0
  9
$SKPOLY
 70
     0
  9
$TDCREATE
 40
2458060.468368056230247
  9
$TDUPDATE
 40
2460111.5103009259328246
  9
$TDINDWG
 40
0.3259445602
  9
$TDUSRTIMER
 40
0.3259445602
  9
$USRTIMER
 70
     1
  9
$ANGBASE
 50
0.0
  9
$ANGDIR
 70
     0
  9
$PDMODE
 70
     0
  9
$PDSIZE
 40
0.3125
  9
$PLINEWID
 40
0.0
  9
$COORDS
 70
     1
  9
$SPLFRAME
 70
     0
  9
$SPLINETYPE
 70
     6
  9
$SPLINESEGS
 70
     8
  9
$ATTDIA
 70
     1
  9
$ATTREQ
 70
     1
  9
$HANDLING
 70
     1
  9
$HANDSEED
  5
B3FF
  9
$SURFTAB1
 70
     6
  9
$SURFTAB2
 70
     6
  9
$SURFTYPE
 70
     6
  9
$SURFU
 70
     6
  9
$SURFV
 70
     6
  9
$UCSNAME
  2

  9
$UCSORG
 10
0.0
 20
0.0
 30
0.0
  9
$UCSXDIR
 10
1.0
 20
0.0
 30
0.0
  9
$UCSYDIR
 10
0.0
 20
1.0
 30
0.0
  9
$PUCSNAME
  2

  9
$PUCSORG
 10
0.0
 20
0.0
 30
0.0
  9
$PUCSXDIR
 10
1.0
 20
0.0
 30
0.0
  9
$PUCSYDIR
 10
0.0
 20
1.0
 30
0.0
  9
$USERI1
 70
     0
  9
$USERI2
 70
     0
  9
$USERI3
 70
     0
  9
$USERI4
 70
     0
  9
$USERI5
 70
     0
  9
$USERR1
 40
0.0
  9
$USERR2
 40
0.0
  9
$USERR3
 40
0.0
  9
$USERR4
 40
0.0
  9
$USERR5
 40
0.0
  9
$WORLDVIEW
 70
     1
  9
$SHADEDGE
 70
     3
  9
$SHADEDIF
 70
    70
  9
$TILEMODE
 70
     1
  9
$MAXACTVP
 70
    64
  9
$PLIMCHECK
 70
     0
  9
$PEXTMIN
 10
1.0000000000000000E+20
 20
1.0000000000000000E+20
 30
1.0000000000000000E+20
  9
$PEXTMAX
 10
-1.0000000000000000E+20
 20
-1.0000000000000000E+20
 30
-1.0000000000000000E+20
  9
$PLIMMIN
 10
0.0
 20
0.0
  9
$PLIMMAX
 10
12.0
 20
9.0
  9
$UNITMODE
 70
     0
  9
$VISRETAIN
 70
     1
  9
$PLINEGEN
 70
     0
  9
$PSLTSCALE
 70
     1
  0
ENDSEC
  0
SECTION
  2
TABLES
  0
TABLE
  2
VPORT
 70
     1
  0
VPORT
  2
*ACTIVE
 70
     0
 10
0.0
 20
0.0
 11
1.0
 21
1.0
 12
70.8065404883727751
 22
9.302759506420017
 13
0.0
 23
0.0
 14
1.0
 24
1.0
 15
0.0
 25
0.0
 16
0.0
 26
0.0
 36
40.7906047686327469
 17
4181.369384765625
 27
148.7624740600585938
 37
0.0
 40
4.9076215141384321
 41
2.5251322751322749
 42
50.0
 43
0.0
 44
0.0
 50
0.0
 51
0.0
 71
     0
 72
   100
 73
     1
 74
     1
 75
     0
 76
     0
 77
     0
 78
     0
  0
ENDTAB
  0
TABLE
  2
LTYPE
 70
     2
  0
LTYPE
  2
CONTINUOUS
 70
     0
  3
Solid line
 72
    65
 73
     0
 40
0.0
  0
LTYPE
  2
PHANTOM2
 70
     0
  3
___ _ _ ___ _ _ ___ _ _ ___ _ _
 72
    65
 73
     6
 40
1.25
 49
0.625
 49
-0.125
 49
0.125
 49
-0.125
 49
0.125
 49
-0.125
  0
ENDTAB
  0
TABLE
  2
LAYER
 70
     2
  0
LAYER
  2
0
 70
     0
 62
   255
  6
CONTINUOUS
  0
LAYER
  2
DEFPOINTS
 70
     0
 62
     7
  6
CONTINUOUS
  0
ENDTAB
  0
TABLE
  2
STYLE
 70
     1
  0
STYLE
  2
STANDARD
 70
     0
 40
0.0
 41
0.8
 50
0.0
 71
     0
 42
0.2
  3
txt
  4

  0
ENDTAB
  0
TABLE
  2
VIEW
 70
     0
  0
ENDTAB
  0
TABLE
  2
UCS
 70
     0
  0
ENDTAB
  0
TABLE
  2
APPID
 70
     9
  0
APPID
  2
ACAD
 70
     0
  0
APPID
  2
ACAD_MLEADERVER
 70
     0
  0
APPID
  2
ACAD_EXEMPT_FROM_CAD_STANDARDS
 70
     0
  0
APPID
  2
ACAD_NAV_VCDISPLAY
 70
     0
  0
APPID
  2
ACAECLAYERSTANDARD
 70
     0
  0
APPID
  2
ACCMTRANSPARENCY
 70
     0
  0
APPID
  2
ACAD_DSTYLE_DIMJAG
 70
     0
  0
APPID
  2
ACAD_DSTYLE_DIMTALN
 70
     0
  0
APPID
  2
ACDBATTR
 70
     0
  0
ENDTAB
  0
TABLE
  2
DIMSTYLE
 70
     1
  0
DIMSTYLE
  2
STANDARD
 70
     0
  3

  4

  5

  6

  7

 40
1.0
 41
0.1875
 42
0.0625
 43
0.38
 44
0.125
 45
0.0
 46
0.0
 47
0.01
 48
0.01
140
0.15625
141
0.09
142
0.0
143
25.3999999999999986
144
1.0
145
0.0
146
1.0
147
0.09
 71
     1
 72
     0
 73
     1
 74
     1
 75
     0
 76
     0
 77
     0
 78
     4
170
     0
171
     2
172
     0
173
     0
174
     0
175
     0
176
     0
177
     0
178
     0
  0
ENDTAB
  0
ENDSEC
  0
SECTION
  2
BLOCKS
  0
BLOCK
  8
0
  2
$MODEL_SPACE
 70
     0
 10
0.0
 20
0.0
 30
0.0
  3
$MODEL_SPACE
  1

  0
ENDBLK
  5
21
  8
0
  0
BLOCK
 67
     1
  8
0
  2
$PAPER_SPACE
 70
     0
 10
0.0
 20
0.0
 30
0.0
  3
$PAPER_SPACE
  1

  0
ENDBLK
  5
1D
 67
     1
  8
0
  0
BLOCK
  8
0
  2
_FILLED
 70
     0
 10
0.0
 20
0.0
 30
0.0
  3
_FILLED
  1

  0
SOLID
  5
6DAB
  8
0
  6
BYBLOCK
 62
     0
 10
0.0
 20
0.0
 30
0.0
 11
-1.0
 21
0.1666666667
 31
0.0
 12
-1.0
 22
-0.1666666667
 32
0.0
 13
-1.0
 23
-0.1666666667
 33
0.0
  0
ENDBLK
  5
6DAC
  8
0
  6
BYBLOCK
 62
     0
  0
ENDSEC
  0
SECTION
  2
ENTITIES
  0
ATTDEF
  5
3930
  8
DEFPOINTS
 10
4252.2095772073416811
 20
159.2924760464865983
 30
0.0
 40
0.001
  1
K-34694T
  3

  2
MODELNUMBER
 70
     0
1001
ACDBATTR
1070
     0
1070
     1
  0
ATTDEF
  5
3931
  8
DEFPOINTS
 10
4252.2095772073416811
 20
159.2908093798199047
 30
0.0
 40
0.001
  1
KATALYST
  3

  2
TRADENAME
 70
     0
1001
ACDBATTR
1070
     0
1070
     1
  0
ATTDEF
  5
3932
  8
DEFPOINTS
 10
4252.2095772073416811
 20
159.2891427131532112
 30
0.0
 40
0.001
  1
SHOWERHEAD
  3

  2
PRODUCT
 70
     0
1001
ACDBATTR
1070
     0
1070
     1
  0
LINE
  5
B2CD
  8
0
 10
4246.2106173445290551
 20
156.8907768175916999
 30
0.0
 11
4258.2106173445290551
 21
156.8907768175916999
 31
0.0
  0
LINE
  5
B2CE
  8
0
 10
4246.5059378170290074
 20
157.2332965025917133
 30
0.0
 11
4257.9152968720291028
 21
157.2332965025917133
 31
0.0
  0
LINE
  5
B2CF
  8
0
 10
4251.4921134075293594
 20
158.3120366600917066
 30
0.0
 11
4252.9291212815287508
 21
158.3120366600917066
 31
0.0
  0
LINE
  5
B2D0
  8
0
 10
4246.2106173445290551
 20
156.9773909907916902
 30
0.0
 11
4246.2106173445290551
 21
156.8907768175916999
 31
0.0
  0
LINE
  5
B2D1
  8
0
 10
4246.2106173445290551
 20
156.9773909907916902
 30
0.0
 11
4258.2106173445290551
 21
156.9773909907916902
 31
0.0
  0
LINE
  5
B2D2
  8
0
 10
4246.4468378170286087
 20
157.1741965025917125
 30
0.0
 11
4246.4468378170286087
 21
156.9773909907916902
 31
0.0
  0
ARC
  5
B2D3
  8
0
 10
4246.5059378170290074
 20
157.1741965025917125
 30
0.0
 40
0.0591
 50
90.0
 51
180.0
  0
LINE
  5
B2D4
  8
0
 10
4251.4921134075293594
 20
157.2332965025917133
 30
0.0
 11
4251.4921134075293594
 21
158.3120366600917066
 31
0.0
  0
ARC
  5
B2D5
  8
0
 10
4252.2106173447773472
 20
158.0128240614938875
 30
0.0
 40
0.527559055416382
 50
129.370989552365586
 51
145.4348305383961133
  0
ARC
  5
B2D6
  8
0
 10
4251.8315622263216937
 20
158.4747699911494863
 30
0.0
 40
0.0700000000349795
 50
309.3709895523656996
 51
68.0938162674218148
  0
ARC
  5
B2D7
  8
0
 10
4251.9428543524290944
 20
158.7515315359630961
 30
0.0
 40
0.2283
 50
180.0
 51
248.0938162674218006
  0
LINE
  5
B2D8
  8
0
 10
4251.7345543524288587
 20
159.2884146128916996
 30
0.0
 11
4252.6866803366292515
 21
159.2884146128916996
 31
0.0
  0
LINE
  5
B2D9
  8
0
 10
4251.7145543524293316
 20
158.7515315359630961
 30
0.0
 11
4251.7145543524293316
 21
159.2684146128916893
 31
0.0
  0
ARC
  5
B2DA
  8
0
 10
4251.7345543524288587
 20
159.2684146128916893
 30
0.0
 40
0.02
 50
90.0
 51
180.0
  0
LINE
  5
B2DB
  8
0
 10
4247.1251432910812582
 20
156.8317216994917089
 30
0.0
 11
4247.2173520157766688
 21
156.8317216994917089
 31
0.0
  0
LINE
  5
B2DC
  8
0
 10
4247.111836099028551
 20
156.8907768175916999
 30
0.0
 11
4247.1172863649708233
 21
156.838797859644302
 31
0.0
  0
LINE
  5
B2DD
  8
0
 10
4247.2306592078293761
 20
156.8907768175916999
 30
0.0
 11
4247.2252089418880132
 21
156.838797859644302
 31
0.0
  0
ARC
  5
B2DE
  8
0
 10
4247.1251432910812582
 20
156.839621699491687
 30
0.0
 40
0.0079
 50
185.985888949972491
 51
270.0
  0
ARC
  5
B2DF
  8
0
 10
4247.2173520157766688
 20
156.839621699491687
 30
0.0
 40
0.0079
 50
270.0
 51
354.0141110500388208
  0
LINE
  5
B2E0
  8
0
 10
4251.8576852140440678
 20
158.5397129624194008
 30
0.0
 11
4252.5635494750131329
 21
158.5397129624194008
 31
0.0
  0
LINE
  5
B2E1
  8
0
 10
4251.8759659686193118
 20
158.4206561511917073
 30
0.0
 11
4252.545268720439708
 21
158.4206561511917073
 31
0.0
  0
LINE
  5
B2E2
  8
0
 10
4258.2106173445290551
 20
156.9773909907916902
 30
0.0
 11
4258.2106173445290551
 21
156.8907768175916999
 31
0.0
  0
LINE
  5
B2E3
  8
0
 10
4257.974396872028592
 20
157.1741965025917125
 30
0.0
 11
4257.974396872028592
 21
156.9773909907916902
 31
0.0
  0
ARC
  5
B2E4
  8
0
 10
4257.9152968720291028
 20
157.1741965025917125
 30
0.0
 40
0.0591
 50
0.0
 51
90.0
  0
LINE
  5
B2E5
  8
0
 10
4252.9291212815287508
 20
157.2332965025917133
 30
0.0
 11
4252.9291212815287508
 21
158.3120366600917066
 31
0.0
  0
ARC
  5
B2E6
  8
0
 10
4252.2106173442807631
 20
158.0128240614938875
 30
0.0
 40
0.527559055416382
 50
34.5651694616038512
 51
50.6290104476343572
  0
ARC
  5
B2E7
  8
0
 10
4252.5896724627345975
 20
158.4747699911494863
 30
0.0
 40
0.0700000000349795
 50
111.9061837325781994
 51
230.629010447634414
  0
ARC
  5
B2E8
  8
0
 10
4252.4783803366281063
 20
158.7515315359630961
 30
0.0
 40
0.2283
 50
291.9061837325781994
 51
0.0
  0
LINE
  5
B2E9
  8
0
 10
4252.7066803366287786
 20
158.7515315359630961
 30
0.0
 11
4252.7066803366287786
 21
159.2684146128916893
 31
0.0
  0
ARC
  5
B2EA
  8
0
 10
4252.6866803366292515
 20
159.2684146128916893
 30
0.0
 40
0.02
 50
0.0
 51
90.0
  0
LINE
  5
B2EC
  8
0
 10
4252.0067559746294137
 20
158.3120366600917066
 30
0.0
 11
4252.0067559746294137
 21
157.8395957151917059
 31
0.0
  0
LINE
  5
B2ED
  8
0
 10
4252.0067559746294137
 20
157.8395957151917059
 30
0.0
 11
4252.4144787143295616
 21
157.8395957151917059
 31
0.0
  0
LINE
  5
B2EE
  8
0
 10
4252.4144787143295616
 20
157.8395957151917059
 30
0.0
 11
4252.4144787143295616
 21
158.3120366600917066
 31
0.0
  0
LINE
  5
B2EF
  8
0
 10
4252.0123644667792178
 20
159.1191232742916952
 30
0.0
 11
4252.0123644667792178
 21
158.7515629249917026
 31
0.0
  0
LINE
  5
B2F0
  8
0
 10
4252.0123644667792178
 20
159.1191232742916952
 30
0.0
 11
4252.4088702224289591
 21
159.1191232742916952
 31
0.0
  0
LINE
  5
B2F1
  8
0
 10
4252.4088702224289591
 20
159.1191232742916952
 30
0.0
 11
4252.4088702224289591
 21
158.7515629249917026
 31
0.0
  0
ARC
  5
B2F2
  8
0
 10
4252.2106173445290551
 20
158.664398864791707
 30
0.0
 40
0.4960629920999983
 50
66.4435357125962724
 51
113.5564642874036991
  0
ARC
  5
B2F3
  8
0
 10
4252.1091461186060769
 20
158.7521814596713909
 30
0.0
 40
0.0967836283453499
 50
180.3661742020672989
 51
212.1309461825231892
  0
ARC
  5
B2F4
  8
0
 10
4252.1427753426751224
 20
158.7733023517508002
 30
0.0
 40
0.136495299093555
 50
212.1309461825231892
 51
239.0237739654442066
  0
ARC
  5
B2F5
  8
0
 10
4252.1961451052093253
 20
158.8622080927380864
 30
0.0
 40
0.2401898617933836
 50
239.0237739654442066
 51
256.0796908841912227
  0
ARC
  5
B2F6
  8
0
 10
4252.208420365674101
 20
158.9117348301498112
 30
0.0
 40
0.291215147075568
 50
256.0796908841912227
 51
270.4322536495623126
  0
ARC
  5
B2F7
  8
0
 10
4252.3120885706011904
 20
158.7521814596713909
 30
0.0
 40
0.0967836283453499
 50
327.8690538174766971
 51
359.6338257979326727
  0
ARC
  5
B2F8
  8
0
 10
4252.2784593465330545
 20
158.7733023517508002
 30
0.0
 40
0.136495299093555
 50
300.9762260345556797
 51
327.8690538174766971
  0
ARC
  5
B2F9
  8
0
 10
4252.2250895839988516
 20
158.8622080927380864
 30
0.0
 40
0.2401898617933836
 50
283.9203091158087204
 51
300.9762260345556797
  0
ARC
  5
B2FA
  8
0
 10
4252.2128143235340758
 20
158.9117348301498112
 30
0.0
 40
0.291215147075568
 50
269.5677463504375737
 51
283.9203091158087204
  0
LINE
  5
B2FB
  8
0
 10
4247.9650383042835529
 20
156.8317216994614114
 30
0.0
 11
4248.057247028979873
 21
156.8317216994614114
 31
0.0
  0
LINE
  5
B2FC
  8
0
 10
4247.9517311122326646
 20
156.8907768175614024
 30
0.0
 11
4247.9571813781740275
 21
156.8387978596140044
 31
0.0
  0
LINE
  5
B2FD
  8
0
 10
4248.0705542210316707
 20
156.8907768175614024
 30
0.0
 11
4248.0651039550912174
 21
156.8387978596140044
 31
0.0
  0
ARC
  5
B2FE
  8
0
 10
4247.9650383042835529
 20
156.8396216994613894
 30
0.0
 40
0.0079
 50
185.985888949972491
 51
270.0
  0
ARC
  5
B2FF
  8
0
 10
4248.057247028979873
 20
156.8396216994613894
 30
0.0
 40
0.0079
 50
270.0
 51
354.0141110500388208
  0
LINE
  5
B300
  8
0
 10
4248.8049333173839841
 20
156.8317216994614114
 30
0.0
 11
4248.8971420420803042
 21
156.8317216994614114
 31
0.0
  0
LINE
  5
B301
  8
0
 10
4248.7916261253321863
 20
156.8907768175614024
 30
0.0
 11
4248.7970763912726397
 21
156.8387978596140044
 31
0.0
  0
LINE
  5
B302
  8
0
 10
4248.910449234132102
 20
156.8907768175614024
 30
0.0
 11
4248.9049989681907391
 21
156.8387978596140044
 31
0.0
  0
ARC
  5
B303
  8
0
 10
4248.8049333173839841
 20
156.8396216994613894
 30
0.0
 40
0.0079
 50
185.985888949972491
 51
270.0
  0
ARC
  5
B304
  8
0
 10
4248.8971420420803042
 20
156.8396216994613894
 30
0.0
 40
0.0079
 50
270.0
 51
354.0141110500388208
  0
LINE
  5
B305
  8
0
 10
4249.6448283304844153
 20
156.8317216994614114
 30
0.0
 11
4249.737037055179826
 21
156.8317216994614114
 31
0.0
  0
LINE
  5
B306
  8
0
 10
4249.6315211384317081
 20
156.8907768175614024
 30
0.0
 11
4249.636971404373071
 21
156.8387978596140044
 31
0.0
  0
LINE
  5
B307
  8
0
 10
4249.7503442472334427
 20
156.8907768175614024
 30
0.0
 11
4249.7448939812911703
 21
156.8387978596140044
 31
0.0
  0
ARC
  5
B308
  8
0
 10
4249.6448283304844153
 20
156.8396216994613894
 30
0.0
 40
0.0079
 50
185.985888949972491
 51
270.0
  0
ARC
  5
B309
  8
0
 10
4249.737037055179826
 20
156.8396216994613894
 30
0.0
 40
0.0079
 50
270.0
 51
354.0141110500388208
  0
LINE
  5
B30A
  8
0
 10
4250.4847233435839371
 20
156.8317216994614114
 30
0.0
 11
4250.5769320682802572
 21
156.8317216994614114
 31
0.0
  0
LINE
  5
B30B
  8
0
 10
4250.4714161515321393
 20
156.8907768175614024
 30
0.0
 11
4250.4768664174725927
 21
156.8387978596140044
 31
0.0
  0
LINE
  5
B30C
  8
0
 10
4250.590239260332055
 20
156.8907768175614024
 30
0.0
 11
4250.5847889943906921
 21
156.8387978596140044
 31
0.0
  0
ARC
  5
B30D
  8
0
 10
4250.4847233435839371
 20
156.8396216994613894
 30
0.0
 40
0.0079
 50
185.985888949972491
 51
270.0
  0
ARC
  5
B30E
  8
0
 10
4250.5769320682802572
 20
156.8396216994613894
 30
0.0
 40
0.0079
 50
270.0
 51
354.0141110500388208
  0
LINE
  5
B30F
  8
0
 10
4251.3246183567844128
 20
156.8317216994614114
 30
0.0
 11
4251.4168270814798234
 21
156.8317216994614114
 31
0.0
  0
LINE
  5
B310
  8
0
 10
4251.311311164732615
 20
156.8907768175614024
 30
0.0
 11
4251.3167614306739779
 21
156.8387978596140044
 31
0.0
  0
LINE
  5
B311
  8
0
 10
4251.4301342735316211
 20
156.8907768175614024
 30
0.0
 11
4251.4246840075911678
 21
156.8387978596140044
 31
0.0
  0
ARC
  5
B312
  8
0
 10
4251.3246183567844128
 20
156.8396216994613894
 30
0.0
 40
0.0079
 50
185.985888949972491
 51
270.0
  0
ARC
  5
B313
  8
0
 10
4251.4168270814798234
 20
156.8396216994613894
 30
0.0
 40
0.0079
 50
270.0
 51
354.0141110500388208
  0
LINE
  5
B314
  8
0
 10
4252.164513369883025
 20
156.8317216994614114
 30
0.0
 11
4252.2567220945802546
 21
156.8317216994614114
 31
0.0
  0
LINE
  5
B315
  8
0
 10
4252.1512061778321367
 20
156.8907768175614024
 30
0.0
 11
4252.1566564437725901
 21
156.8387978596140044
 31
0.0
  0
LINE
  5
B316
  8
0
 10
4252.2700292866320524
 20
156.8907768175614024
 30
0.0
 11
4252.264579020691599
 21
156.8387978596140044
 31
0.0
  0
ARC
  5
B317
  8
0
 10
4252.164513369883025
 20
156.8396216994613894
 30
0.0
 40
0.0079
 50
185.985888949972491
 51
270.0
  0
ARC
  5
B318
  8
0
 10
4252.2567220945802546
 20
156.8396216994613894
 30
0.0
 40
0.0079
 50
270.0
 51
354.0141110500388208
  0
LINE
  5
B319
  8
0
 10
4253.0044083829843657
 20
156.8317216994614114
 30
0.0
 11
4253.0966171076797764
 21
156.8317216994614114
 31
0.0
  0
LINE
  5
B31A
  8
0
 10
4252.9911011909316585
 20
156.8907768175614024
 30
0.0
 11
4252.9965514568730214
 21
156.8387978596140044
 31
0.0
  0
LINE
  5
B31B
  8
0
 10
4253.1099242997333931
 20
156.8907768175614024
 30
0.0
 11
4253.1044740337911207
 21
156.8387978596140044
 31
0.0
  0
ARC
  5
B31C
  8
0
 10
4253.0044083829843657
 20
156.8396216994613894
 30
0.0
 40
0.0079
 50
185.985888949972491
 51
270.0
  0
ARC
  5
B31D
  8
0
 10
4253.0966171076797764
 20
156.8396216994613894
 30
0.0
 40
0.0079
 50
270.0
 51
354.0141110500388208
  0
LINE
  5
B31E
  8
0
 10
4253.8443033960838875
 20
156.8317216994614114
 30
0.0
 11
4253.9365121207811171
 21
156.8317216994614114
 31
0.0
  0
LINE
  5
B31F
  8
0
 10
4253.8309962040320897
 20
156.8907768175614024
 30
0.0
 11
4253.8364464699734526
 21
156.8387978596140044
 31
0.0
  0
LINE
  5
B320
  8
0
 10
4253.9498193128320054
 20
156.8907768175614024
 30
0.0
 11
4253.9443690468906425
 21
156.8387978596140044
 31
0.0
  0
ARC
  5
B321
  8
0
 10
4253.8443033960838875
 20
156.8396216994613894
 30
0.0
 40
0.0079
 50
185.985888949972491
 51
270.0
  0
ARC
  5
B322
  8
0
 10
4253.9365121207811171
 20
156.8396216994613894
 30
0.0
 40
0.0079
 50
270.0
 51
354.0141110500388208
  0
LINE
  5
B323
  8
0
 10
4254.6841984092843632
 20
156.8317216994614114
 30
0.0
 11
4254.7764071339797738
 21
156.8317216994614114
 31
0.0
  0
LINE
  5
B324
  8
0
 10
4254.6708912172325654
 20
156.8907768175614024
 30
0.0
 11
4254.6763414831739283
 21
156.8387978596140044
 31
0.0
  0
LINE
  5
B325
  8
0
 10
4254.7897143260315715
 20
156.8907768175614024
 30
0.0
 11
4254.7842640600911182
 21
156.8387978596140044
 31
0.0
  0
ARC
  5
B326
  8
0
 10
4254.6841984092843632
 20
156.8396216994613894
 30
0.0
 40
0.0079
 50
185.985888949972491
 51
270.0
  0
ARC
  5
B327
  8
0
 10
4254.7764071339797738
 20
156.8396216994613894
 30
0.0
 40
0.0079
 50
270.0
 51
354.0141110500388208
  0
LINE
  5
B328
  8
0
 10
4255.5240934223829754
 20
156.8317216994614114
 30
0.0
 11
4255.6163021470811145
 21
156.8317216994614114
 31
0.0
  0
LINE
  5
B329
  8
0
 10
4255.5107862303320871
 20
156.8907768175614024
 30
0.0
 11
4255.51623649627345
 21
156.8387978596140044
 31
0.0
  0
LINE
  5
B32A
  8
0
 10
4255.6296093391310933
 20
156.8907768175614024
 30
0.0
 11
4255.6241590731915494
 21
156.8387978596140044
 31
0.0
  0
ARC
  5
B32B
  8
0
 10
4255.5240934223829754
 20
156.8396216994613894
 30
0.0
 40
0.0079
 50
185.985888949972491
 51
270.0
  0
ARC
  5
B32C
  8
0
 10
4255.6163021470811145
 20
156.8396216994613894
 30
0.0
 40
0.0079
 50
270.0
 51
354.0141110500388208
  0
LINE
  5
B32D
  8
0
 10
4256.3639884354843161
 20
156.8317216994614114
 30
0.0
 11
4256.4561971601797268
 21
156.8317216994614114
 31
0.0
  0
LINE
  5
B32E
  8
0
 10
4256.3506812434316089
 20
156.8907768175614024
 30
0.0
 11
4256.3561315093738813
 21
156.8387978596140044
 31
0.0
  0
LINE
  5
B32F
  8
0
 10
4256.469504352232434
 20
156.8907768175614024
 30
0.0
 11
4256.4640540862910711
 21
156.8387978596140044
 31
0.0
  0
ARC
  5
B330
  8
0
 10
4256.3639884354843161
 20
156.8396216994613894
 30
0.0
 40
0.0079
 50
185.985888949972491
 51
270.0
  0
ARC
  5
B331
  8
0
 10
4256.4561971601797268
 20
156.8396216994613894
 30
0.0
 40
0.0079
 50
270.0
 51
354.0141110500388208
  0
LINE
  5
B332
  8
0
 10
4257.2038834485838379
 20
156.8317216994614114
 30
0.0
 11
4257.2960921732810675
 21
156.8317216994614114
 31
0.0
  0
LINE
  5
B333
  8
0
 10
4257.1905762565320401
 20
156.8907768175614024
 30
0.0
 11
4257.196026522473403
 21
156.8387978596140044
 31
0.0
  0
LINE
  5
B334
  8
0
 10
4257.3093993653328653
 20
156.8907768175614024
 30
0.0
 11
4257.3039490993905929
 21
156.8387978596140044
 31
0.0
  0
ARC
  5
B335
  8
0
 10
4257.2038834485838379
 20
156.8396216994613894
 30
0.0
 40
0.0079
 50
185.985888949972491
 51
270.0
  0
ARC
  5
B336
  8
0
 10
4257.2960921732810675
 20
156.8396216994613894
 30
0.0
 40
0.0079
 50
270.0
 51
354.0141110500388208
  0
ENDSEC
  0
EOF
