  0
SECTION
  2
HEADER
  9
$ACADVER
  1
AC1009
  9
$INSBASE
 10
4499.4132975660741067
 20
261.5641706171587089
 30
0.0
  9
$EXTMIN
 10
4489.737258443956307
 20
231.3960444610235925
 30
-0.0000000000000153
  9
$EXTMAX
 10
4508.8925898101679195
 20
261.5679058504142063
 30
0.0
  9
$LIMMIN
 10
0.0
 20
0.0
  9
$LIMMAX
 10
11.6929133858000007
 20
8.2677165353999982
  9
$ORTHOMODE
 70
     0
  9
$REGENMODE
 70
     1
  9
$FILLMODE
 70
     1
  9
$QTEXTMODE
 70
     0
  9
$MIRRTEXT
 70
     0
  9
$DRAGMODE
 70
     2
  9
$LTSCALE
 40
0.6431102362
  9
$OSMODE
 70
  4095
  9
$ATTMODE
 70
     1
  9
$TEXTSIZE
 40
0.2
  9
$TRACEWID
 40
0.05
  9
$TEXTSTYLE
  7
STANDARD
  9
$CLAYER
  8
0
  9
$CELTYPE
  6
BYLAYER
  9
$CECOLOR
 62
   256
  9
$DIMSCALE
 40
1.0
  9
$DIMASZ
 40
0.1875
  9
$DIMEXO
 40
0.0625
  9
$DIMDLI
 40
0.4443307087
  9
$DIMRND
 40
0.0
  9
$DIMDLE
 40
0.0
  9
$DIMEXE
 40
0.125
  9
$DIMTP
 40
0.01
  9
$DIMTM
 40
0.01
  9
$DIMTXT
 40
2.0
  9
$DIMCEN
 40
0.1052362205
  9
$DIMTSZ
 40
0.0
  9
$DIMTOL
 70
     1
  9
$DIMLIM
 70
     0
  9
$DIMTIH
 70
     1
  9
$DIMTOH
 70
     1
  9
$DIMSE1
 70
     0
  9
$DIMSE2
 70
     0
  9
$DIMTAD
 70
     0
  9
$DIMZIN
 70
     0
  9
$DIMBLK
  1

  9
$DIMASO
 70
     1
  9
$DIMSHO
 70
     1
  9
$DIMPOST
  1
\X
  9
$DIMAPOST
  1

  9
$DIMALT
 70
     1
  9
$DIMALTD
 70
     2
  9
$DIMALTF
 40
25.3999999999999986
  9
$DIMLFAC
 40
1.0
  9
$DIMTOFL
 70
     0
  9
$DIMTVP
 40
0.0
  9
$DIMTIX
 70
     0
  9
$DIMSOXD
 70
     0
  9
$DIMSAH
 70
     0
  9
$DIMBLK1
  1

  9
$DIMBLK2
  1

  9
$DIMSTYLE
  2
STANDARD
  9
$DIMCLRD
 70
     0
  9
$DIMCLRE
 70
     0
  9
$DIMCLRT
 70
     0
  9
$DIMTFAC
 40
1.0
  9
$DIMGAP
 40
0.09
  9
$LUNITS
 70
     2
  9
$LUPREC
 70
     4
  9
$SKETCHINC
 40
0.1
  9
$FILLETRAD
 40
0.0
  9
$AUNITS
 70
     0
  9
$AUPREC
 70
     0
  9
$MENU
  1
.
  9
$ELEVATION
 40
0.0
  9
$PELEVATION
 40
0.0
  9
$THICKNESS
 40
0.0
  9
$LIMCHECK
 70
     0
  9
$BLIPMODE
 70
     0
  9
$CHAMFERA
 40
0.0
  9
$CHAMFERB
 40
0.0
  9
$SKPOLY
 70
     0
  9
$TDCREATE
 40
2458060.468368056230247
  9
$TDUPDATE
 40
2459060.4012037040665746
  9
$TDINDWG
 40
0.3157362269
  9
$TDUSRTIMER
 40
0.3157362269
  9
$USRTIMER
 70
     1
  9
$ANGBASE
 50
0.0
  9
$ANGDIR
 70
     0
  9
$PDMODE
 70
     0
  9
$PDSIZE
 40
0.3125
  9
$PLINEWID
 40
0.0
  9
$COORDS
 70
     1
  9
$SPLFRAME
 70
     0
  9
$SPLINETYPE
 70
     6
  9
$SPLINESEGS
 70
     8
  9
$ATTDIA
 70
     1
  9
$ATTREQ
 70
     1
  9
$HANDLING
 70
     1
  9
$HANDSEED
  5
7BDD
  9
$SURFTAB1
 70
     6
  9
$SURFTAB2
 70
     6
  9
$SURFTYPE
 70
     6
  9
$SURFU
 70
     6
  9
$SURFV
 70
     6
  9
$UCSNAME
  2

  9
$UCSORG
 10
0.0
 20
0.0
 30
0.0
  9
$UCSXDIR
 10
1.0
 20
0.0
 30
0.0
  9
$UCSYDIR
 10
0.0
 20
1.0
 30
0.0
  9
$PUCSNAME
  2

  9
$PUCSORG
 10
0.0
 20
0.0
 30
0.0
  9
$PUCSXDIR
 10
1.0
 20
0.0
 30
0.0
  9
$PUCSYDIR
 10
0.0
 20
1.0
 30
0.0
  9
$USERI1
 70
     0
  9
$USERI2
 70
     0
  9
$USERI3
 70
     0
  9
$USERI4
 70
     0
  9
$USERI5
 70
     0
  9
$USERR1
 40
0.0
  9
$USERR2
 40
0.0
  9
$USERR3
 40
0.0
  9
$USERR4
 40
0.0
  9
$USERR5
 40
0.0
  9
$WORLDVIEW
 70
     1
  9
$SHADEDGE
 70
     3
  9
$SHADEDIF
 70
    70
  9
$TILEMODE
 70
     1
  9
$MAXACTVP
 70
    64
  9
$PLIMCHECK
 70
     0
  9
$PEXTMIN
 10
1.0000000000000000E+20
 20
1.0000000000000000E+20
 30
1.0000000000000000E+20
  9
$PEXTMAX
 10
-1.0000000000000000E+20
 20
-1.0000000000000000E+20
 30
-1.0000000000000000E+20
  9
$PLIMMIN
 10
0.0
 20
0.0
  9
$PLIMMAX
 10
12.0
 20
9.0
  9
$UNITMODE
 70
     0
  9
$VISRETAIN
 70
     1
  9
$PLINEGEN
 70
     0
  9
$PSLTSCALE
 70
     1
  0
ENDSEC
  0
SECTION
  2
TABLES
  0
TABLE
  2
VPORT
 70
     1
  0
VPORT
  2
*ACTIVE
 70
     0
 10
0.0
 20
0.0
 11
1.0
 21
1.0
 12
72.4997385801871133
 22
3.4961078346997851
 13
0.0
 23
0.0
 14
1.0
 24
1.0
 15
0.0
 25
0.0
 16
0.0
 26
0.0
 36
23.8070816795251083
 17
4426.815185546875
 27
242.9858673210191
 37
0.0
 40
30.3608292060255494
 41
2.005224660397074
 42
50.0
 43
0.0
 44
0.0
 50
0.0
 51
0.0
 71
     0
 72
   100
 73
     1
 74
     1
 75
     0
 76
     0
 77
     0
 78
     0
  0
ENDTAB
  0
TABLE
  2
LTYPE
 70
     2
  0
LTYPE
  2
CONTINUOUS
 70
     0
  3
Solid line
 72
    65
 73
     0
 40
0.0
  0
LTYPE
  2
PHANTOM2
 70
     0
  3
___ _ _ ___ _ _ ___ _ _ ___ _ _
 72
    65
 73
     6
 40
1.25
 49
0.625
 49
-0.125
 49
0.125
 49
-0.125
 49
0.125
 49
-0.125
  0
ENDTAB
  0
TABLE
  2
LAYER
 70
     2
  0
LAYER
  2
0
 70
     0
 62
   255
  6
CONTINUOUS
  0
LAYER
  2
DEFPOINTS
 70
     0
 62
     7
  6
CONTINUOUS
  0
ENDTAB
  0
TABLE
  2
STYLE
 70
     1
  0
STYLE
  2
STANDARD
 70
     0
 40
0.0
 41
0.8
 50
0.0
 71
     0
 42
0.2
  3
txt
  4

  0
ENDTAB
  0
TABLE
  2
VIEW
 70
     0
  0
ENDTAB
  0
TABLE
  2
UCS
 70
     0
  0
ENDTAB
  0
TABLE
  2
APPID
 70
     9
  0
APPID
  2
ACAD
 70
     0
  0
APPID
  2
ACAD_MLEADERVER
 70
     0
  0
APPID
  2
ACAD_EXEMPT_FROM_CAD_STANDARDS
 70
     0
  0
APPID
  2
ACAD_NAV_VCDISPLAY
 70
     0
  0
APPID
  2
ACAECLAYERSTANDARD
 70
     0
  0
APPID
  2
ACCMTRANSPARENCY
 70
     0
  0
APPID
  2
ACAD_DSTYLE_DIMJAG
 70
     0
  0
APPID
  2
ACAD_DSTYLE_DIMTALN
 70
     0
  0
APPID
  2
ACDBATTR
 70
     0
  0
ENDTAB
  0
TABLE
  2
DIMSTYLE
 70
     1
  0
DIMSTYLE
  2
STANDARD
 70
     0
  3

  4

  5

  6

  7

 40
1.0
 41
0.1875
 42
0.0625
 43
0.38
 44
0.125
 45
0.0
 46
0.0
 47
0.01
 48
0.01
140
0.15625
141
0.09
142
0.0
143
25.3999999999999986
144
1.0
145
0.0
146
1.0
147
0.09
 71
     1
 72
     0
 73
     1
 74
     1
 75
     0
 76
     0
 77
     0
 78
     4
170
     0
171
     2
172
     0
173
     0
174
     0
175
     0
176
     0
177
     0
178
     0
  0
ENDTAB
  0
ENDSEC
  0
SECTION
  2
BLOCKS
  0
BLOCK
  8
0
  2
$MODEL_SPACE
 70
     0
 10
0.0
 20
0.0
 30
0.0
  3
$MODEL_SPACE
  1

  0
ENDBLK
  5
21
  8
0
  0
BLOCK
 67
     1
  8
0
  2
$PAPER_SPACE
 70
     0
 10
0.0
 20
0.0
 30
0.0
  3
$PAPER_SPACE
  1

  0
ENDBLK
  5
1D
 67
     1
  8
0
  0
ENDSEC
  0
SECTION
  2
ENTITIES
  0
ATTDEF
  5
3930
  8
DEFPOINTS
 10
4499.4087689310117639
 20
261.5613635228580165
 30
0.0
 40
0.001
  1
K-3499T-W
  3

  2
MODELNUMBER
 70
     0
1001
ACDBATTR
1070
     0
1070
     1
  0
ATTDEF
  5
3931
  8
DEFPOINTS
 10
4499.4087689310117639
 20
261.5596968561912945
 30
0.0
 40
0.001
  1
CIMARRON
  3

  2
TRADENAME
 70
     0
1001
ACDBATTR
1070
     0
1070
     1
  0
ATTDEF
  5
3932
  8
DEFPOINTS
 10
4499.4087689310117639
 20
261.5580301895245725
 30
0.0
 40
0.001
  1
TOILET
  3

  2
PRODUCT
 70
     0
1001
ACDBATTR
1070
     0
1070
     1
  0
LINE
  5
7A0C
  8
0
 10
4490.0129547164870019
 20
260.2647731880479114
 30
0.0
 11
4490.0963002315511403
 21
255.6918469719996097
 31
0.0
  0
ARC
  5
7A0D
  8
0
 10
4490.4123869237046165
 20
255.6974961828460948
 30
0.0
 40
0.3161371704501508
 50
181.0239010589961879
 51
221.198718076527399
  0
ARC
  5
7A0E
  8
0
 10
4494.1855856092852264
 20
259.0897189709256736
 30
0.0
 40
5.3899857715107382
 50
221.9120794208917005
 51
241.0135946364293886
  0
ARC
  5
7A0F
  8
0
 10
4496.8124464773591171
 20
263.8313543517580797
 30
0.0
 40
10.8106410921320197
 50
241.0135946364293886
 51
256.8451196298028094
  0
ARC
  5
7A10
  8
0
 10
4499.1277041272787756
 20
273.7375887815136934
 30
0.0
 40
20.9838361931211885
 50
256.8451196298028094
 51
266.3401763544644041
  0
ARC
  5
7A11
  8
0
 10
4499.3997412123699178
 20
277.990627756758272
 30
0.0
 40
25.2455664404049891
 50
266.3401763544644041
 51
270.0307673826504242
  0
ARC
  5
7A12
  8
0
 10
4475.4288123594124045
 20
254.9283433113905915
 30
0.0
 40
19.1321984694413594
 50
339.5513526806165032
 51
355.035992003996796
  0
ARC
  5
7A13
  8
0
 10
4497.7142155402161734
 20
246.4809083011120947
 30
0.0
 40
4.7019455253826248
 50
157.9752565609381065
 51
167.8652128104712915
  0
ARC
  5
7A14
  8
0
 10
4489.8030263576938523
 20
248.1819450027304015
 30
0.0
 40
3.3900530004397842
 50
328.010223705553301
 51
347.8652128104712915
  0
ARC
  5
7A15
  8
0
 10
4499.1025405869550013
 20
243.0108881062226089
 30
0.0
 40
7.2568998177954436
 50
152.2839175508619007
 51
172.7555850132845876
  0
ARC
  5
7A16
  8
0
 10
4503.6017663528282355
 20
242.3083390479368973
 30
0.0
 40
11.8095133154427803
 50
172.1269026536130866
 51
194.1665937712363075
  0
ARC
  5
7A17
  8
0
 10
4506.7189692139136241
 20
242.8318362726382134
 30
0.0
 40
14.9622171064996294
 50
193.1887791474505889
 51
212.8555097354260965
  0
ARC
  5
7A18
  8
0
 10
4500.9106099350037766
 20
238.8462741418547068
 30
0.0
 40
7.9231448078666
 50
211.4316900539515984
 51
238.7492058642613983
  0
ARC
  5
7A19
  8
0
 10
4499.3766366743420804
 20
236.7295893665354924
 30
0.0
 40
5.3220545494731288
 50
241.0461113756385032
 51
262.4637719061535108
  0
ARC
  5
7A1A
  8
0
 10
4499.6412704313261202
 20
240.4775633920280882
 30
0.0
 40
9.0752565963058682
 50
263.9110238803439188
 51
268.5605633285309182
  0
LINE
  5
7A1B
  8
0
 10
4497.442035963123999
 20
249.9585974433587126
 30
0.0
 11
4499.4132978681327586
 21
249.9585974433587126
 31
0.0
  0
LINE
  5
7A1C
  8
0
 10
4494.9435746404578822
 20
249.8919782597241976
 30
0.0
 11
4495.2751904930091769
 21
249.8919828096439062
 31
0.0
  0
LINE
  5
7A1D
  8
0
 10
4495.4161104295244513
 20
249.8919847431293135
 30
0.0
 11
4495.8138061496756563
 21
249.8919901996947885
 31
0.0
  0
ARC
  5
7A1E
  8
0
 10
4494.9505951422479484
 20
249.7660580490598932
 30
0.0
 40
0.1261157678440359
 50
93.1911407031278429
 51
155.601442093005204
  0
ARC
  5
7A1F
  8
0
 10
4503.6327227699939613
 20
243.3404883443677136
 30
0.0
 40
10.9246061818936901
 50
143.6338875881365027
 51
148.4190589336091932
  0
ARC
  5
7A20
  8
0
 10
4494.7433592839061021
 20
248.8263770381252016
 30
0.0
 40
0.4791131713676954
 50
150.5784402675814988
 51
177.7245173593423999
  0
ARC
  5
7A21
  8
0
 10
4511.5745206946548933
 20
246.5835190948803017
 30
0.0
 40
17.4570510527061806
 50
172.5553521542279043
 51
173.81234541363159
  0
ARC
  5
7A22
  8
0
 10
4493.6120658561412711
 20
248.5416680726175116
 30
0.0
 40
0.6119104720298687
 50
343.2490942026199718
 51
352.8145836674111138
  0
ARC
  5
7A23
  8
0
 10
4492.3427274437926826
 20
248.9434810902799882
 30
0.0
 40
1.9432860486231309
 50
333.0087521680561053
 51
342.6911013807674067
  0
ARC
  5
7A24
  8
0
 10
4486.494090967646116
 20
251.8707350423254923
 30
0.0
 40
8.4835367408956923
 50
332.6504962734583728
 51
333.3195887654268859
  0
ARC
  5
7A25
  8
0
 10
4505.6871878406109317
 20
241.9237175429846047
 30
0.0
 40
13.1340098985058606
 50
152.5741183957958071
 51
170.1481961736982953
  0
ARC
  5
7A26
  8
0
 10
4509.255422048676337
 20
241.8800025203424013
 30
0.0
 40
16.6667680861589709
 50
172.0993309306383026
 51
179.0369123855736007
  0
ARC
  5
7A27
  8
0
 10
4504.5300913788842081
 20
242.2695419301313962
 30
0.0
 40
11.9395841390254702
 50
180.5249973304416073
 51
190.021687924806713
  0
ARC
  5
7A28
  8
0
 10
4506.2730664513619558
 20
242.4690709401332924
 30
0.0
 40
13.6911038340997209
 50
189.5746132468202916
 51
208.5720446266979877
  0
ARC
  5
7A29
  8
0
 10
4502.098015450931598
 20
239.8900530893538132
 30
0.0
 40
8.7951445844310392
 50
206.8248403959460973
 51
233.5059884668904999
  0
ARC
  5
7A2A
  8
0
 10
4499.2842392573365942
 20
236.5378091195431978
 30
0.0
 40
4.4348756596514631
 50
236.9748740162436036
 51
248.1563023158803105
  0
ARC
  5
7A2B
  8
0
 10
4497.8183559051149132
 20
232.9761274678901088
 30
0.0
 40
0.5845687656175474
 50
251.6301356454949882
 51
267.5189982931308919
  0
ARC
  5
7A2C
  8
0
 10
4497.6532194275559959
 20
231.5064958390244954
 30
0.0
 40
0.8965820656624515
 50
73.0628714921243869
 51
81.0274801547952563
  0
ARC
  5
7A2D
  8
0
 10
4499.398302858759962
 20
236.8324754218596979
 30
0.0
 40
4.7082389224845462
 50
251.6290059379192883
 51
265.7257474193777966
  0
ARC
  5
7A2E
  8
0
 10
4499.4130072444886537
 20
236.9686457160046871
 30
0.0
 40
4.8451285199442227
 50
265.672359873865787
 51
270.0034356889581204
  0
ARC
  5
7A2F
  8
0
 10
4499.4137365951655738
 20
236.8160105430748104
 30
0.0
 40
4.6712093073480334
 50
261.6600688217383208
 51
269.9946175910210968
  0
ARC
  5
7A30
  8
0
 10
4499.4050169167785498
 20
236.7565295550886049
 30
0.0
 40
4.6110925815308512
 50
248.5617137839541897
 51
261.6600688217383208
  0
ARC
  5
7A31
  8
0
 10
4499.3951400458327043
 20
236.7313762397284904
 30
0.0
 40
4.5840695940330658
 50
230.2725878785861084
 51
248.5617137839541897
  0
ARC
  5
7A32
  8
0
 10
4502.8939155252874116
 20
240.408149986747901
 30
0.0
 40
9.6540682943931753
 50
210.9074258209984976
 51
228.2487938960715042
  0
ARC
  5
7A33
  8
0
 10
4505.9984478448832306
 20
242.3675150929234974
 30
0.0
 40
13.3244652286837102
 50
192.3826169048915062
 51
211.2793020202971945
  0
ARC
  5
7A34
  8
0
 10
4504.8557028794630241
 20
242.2580484511483121
 30
0.0
 40
12.1856124841824904
 50
173.9248992054133964
 51
193.0321020403052046
  0
ARC
  5
7A35
  8
0
 10
4505.6741478267358616
 20
241.9498587037828941
 30
0.0
 40
13.0339315376177094
 50
150.471117181083514
 51
172.9584541863472964
  0
ARC
  5
7A36
  8
0
 10
4508.0190982376443571
 20
240.9089060906239865
 30
0.0
 40
15.5893410325254909
 50
145.7713961820772113
 51
151.3899749322233959
  0
ARC
  5
7A37
  8
0
 10
4495.3192182793927714
 20
249.5201809556328101
 30
0.0
 40
0.2464277936725626
 50
86.9133762667041765
 51
140.2213046477141916
  0
LINE
  5
7A38
  8
0
 10
4496.2658615239188293
 20
249.3421706171587005
 30
0.0
 11
4502.5607322257119449
 21
249.3421706171587005
 31
0.0
  0
LINE
  5
7A39
  8
0
 10
4495.323701366854948
 20
249.8840925557475998
 30
0.0
 11
4495.3324873547780953
 21
249.7662512487030995
 31
0.0
  0
ARC
  5
7A3A
  8
0
 10
4495.2583824094299416
 20
249.6355708687092942
 30
0.0
 40
0.2569622445561761
 50
75.2740082698740736
 51
86.2495645610744219
  0
ARC
  5
7A3B
  8
0
 10
4495.3585566497722539
 20
249.8137531469947987
 30
0.0
 40
0.0541852238406221
 50
241.2417851767293087
 51
266.0905445822097022
  0
ARC
  5
7A3C
  8
0
 10
4495.3342395758600105
 20
249.5756848953668907
 30
0.0
 40
0.185161149265623
 50
48.1174193771302967
 51
83.6052892749689249
  0
ARC
  5
7A3D
  8
0
 10
4496.3507185817516074
 20
250.5187614184148117
 30
0.0
 40
1.202326091063362
 50
222.0454273777999106
 51
246.0970284576700919
  0
ARC
  5
7A3E
  8
0
 10
4496.2498083207856325
 20
250.3431874378829889
 30
0.0
 40
1.0011455342275091
 50
247.3055249365067141
 51
270.9187677269555934
  0
ARC
  5
7A3F
  8
0
 10
4499.1147149126099976
 20
221.810619972975303
 30
0.0
 40
27.3436819432613412
 50
89.3743387234372193
 51
93.7132410201220409
  0
ARC
  5
7A40
  8
0
 10
4497.6196470155109637
 20
244.8474004516120033
 30
0.0
 40
4.2584381100714941
 50
93.7132410201220409
 51
107.0637637366457966
  0
ARC
  5
7A41
  8
0
 10
4497.2367258945077992
 20
246.0949117994877042
 30
0.0
 40
2.9534809659519889
 50
107.0637637366457966
 51
138.4635848996431946
  0
ARC
  5
7A42
  8
0
 10
4500.9488376233712188
 20
243.6919895168082917
 30
0.0
 40
7.3554173096484119
 50
143.6336722319998103
 51
167.2474287750457052
  0
ARC
  5
7A43
  8
0
 10
4504.768355890564635
 20
242.8275405864455934
 30
0.0
 40
11.27153678517932
 50
167.2474287750457052
 51
192.7525712249542948
  0
ARC
  5
7A44
  8
0
 10
4505.6977801676330273
 20
243.0378916741900071
 30
0.0
 40
12.2244675627896804
 50
192.7525712249542948
 51
214.0186705442172013
  0
ARC
  5
7A45
  8
0
 10
4501.4785998670313347
 20
240.1900178005919884
 30
0.0
 40
7.13409743784739
 50
214.0186705442172013
 51
239.6661056634754914
  0
ARC
  5
7A46
  8
0
 10
4499.505855713238816
 20
237.0816990100530006
 30
0.0
 40
3.4575588431607018
 50
241.8681174603939894
 51
259.2968036994556087
  0
ARC
  5
7A47
  8
0
 10
4499.4214183931635489
 20
236.5461394313036863
 30
0.0
 40
2.9156815439638128
 50
258.9726293524479956
 51
269.8404225129995098
  0
ARC
  5
7A48
  8
0
 10
4494.254676266664319
 20
220.176566302171409
 30
0.0
 40
28.6688352789248313
 50
89.9801192593028674
 51
90.034127571385099
  0
ARC
  5
7A49
  8
0
 10
4494.2376535621197036
 20
248.7554827297157942
 30
0.0
 40
0.0899137816913543
 50
90.034127571385099
 51
120.2394311055605982
  0
ARC
  5
7A4A
  8
0
 10
4506.3215114421500402
 20
241.8348634533012103
 30
0.0
 40
14.0032928788758397
 50
150.015817017435694
 51
157.792255339142514
  0
ARC
  5
7A4B
  8
0
 10
4506.2190798822903162
 20
241.7814030687652007
 30
0.0
 40
13.9289452624352794
 50
157.4294057495924051
 51
171.4738166778957122
  0
ARC
  5
7A4C
  8
0
 10
4507.1764854570428724
 20
241.9429780268349077
 30
0.0
 40
14.8548792465621702
 50
172.6377009858020983
 51
179.1623617839510132
  0
ARC
  5
7A4D
  8
0
 10
4504.9502548224927523
 20
242.2883106269790972
 30
0.0
 40
12.6277116260062705
 50
180.5815507601942045
 51
200.1956851278297052
  0
ARC
  5
7A4E
  8
0
 10
4506.3548802466766574
 20
242.6597374409907957
 30
0.0
 40
14.0748662764438794
 50
199.6407296082622054
 51
218.3510140159239938
  0
ARC
  5
7A4F
  8
0
 10
4499.8179545251132367
 20
237.4215309786200976
 30
0.0
 40
5.6984978299148752
 50
217.8290457425700026
 51
243.7784945720349867
  0
ARC
  5
7A50
  8
0
 10
4499.3781351692750832
 20
236.7273185706002039
 30
0.0
 40
4.8821841141353381
 50
244.8092493579052018
 51
263.5401163243947167
  0
ARC
  5
7A51
  8
0
 10
4499.419834901894319
 20
237.0005381311632107
 30
0.0
 40
5.1583715912646957
 50
263.4213152653281895
 51
269.9273899182805962
  0
ARC
  5
7A52
  8
0
 10
4477.9951753825343985
 20
254.459846907546904
 30
0.0
 40
16.6735786544742304
 50
342.834230591893288
 51
355.8137686793619991
  0
ARC
  5
7A53
  8
0
 10
4451.1417543574680167
 20
262.7547920285226724
 30
0.0
 40
44.7789577714577121
 50
341.0919716399386061
 51
342.834230591893288
  0
ARC
  5
7A54
  8
0
 10
4509.2988313937030398
 20
241.5905056685311934
 30
0.0
 40
17.1386737307280406
 50
157.1558856746958099
 51
172.3692429946592029
  0
ARC
  5
7A55
  8
0
 10
4504.4610369909596557
 20
242.2739988152266903
 30
0.0
 40
12.2530109834498298
 50
172.5330787223701918
 51
201.0010034902703069
  0
ARC
  5
7A56
  8
0
 10
4506.0615090028568375
 20
242.6028178860638889
 30
0.0
 40
13.8675768989279007
 50
199.8994123140194006
 51
218.8548840781780029
  0
ARC
  5
7A57
  8
0
 10
4500.0283391039856724
 20
237.7650419452828032
 30
0.0
 40
6.134368082532232
 50
219.018827162308412
 51
242.5273165196801983
  0
ARC
  5
7A58
  8
0
 10
4499.3245573605181562
 20
236.6000201560408129
 30
0.0
 40
4.7768438378231206
 50
243.5704437852512001
 51
260.3469371730699891
  0
ARC
  5
7A59
  8
0
 10
4499.4020196211458824
 20
237.0800545650571109
 30
0.0
 40
5.2630721513099239
 50
260.3918713591622804
 51
270.1227783286868771
  0
LINE
  5
7A5A
  8
0
 10
4495.8641553613579163
 20
249.4193020685927138
 30
0.0
 11
4495.8617358825904375
 21
249.8009568884411067
 31
0.0
  0
LINE
  5
7A5B
  8
0
 10
4495.8554638540490487
 20
249.8862450842900103
 30
0.0
 11
4495.8617358825904375
 21
249.8009568884411067
 31
0.0
  0
ARC
  5
7A5C
  8
0
 10
4495.8146904714531047
 20
249.7445002943597103
 30
0.0
 40
0.1474925564252369
 50
73.9519344479711407
 51
90.3435306183178568
  0
LINE
  5
7A5D
  8
0
 10
4495.3548623046926878
 20
249.7596940099587073
 30
0.0
 11
4495.3549595972917814
 21
249.8320013840566958
 31
0.0
  0
ARC
  5
7A5E
  8
0
 10
4495.4146889195935728
 20
249.8322717266484858
 30
0.0
 40
0.0597299341022053
 50
88.6362916484556536
 51
180.259326293404996
  0
LINE
  5
7A5F
  8
0
 10
4495.8873134805562586
 20
249.6117252254325081
 30
0.0
 11
4495.8873134805562586
 21
249.4099726332904936
 31
0.0
  0
LINE
  5
7A60
  8
0
 10
4495.8873134805562586
 20
249.6117252254325081
 30
0.0
 11
4495.8896266971623845
 21
249.799220137832009
 31
0.0
  0
LINE
  5
7A61
  8
0
 10
4495.8631165261231217
 20
249.5831706171586859
 30
0.0
 11
4495.8873134805562586
 21
249.5831706171587996
 31
0.0
  0
ARC
  5
7A62
  8
0
 10
4487.9899570382949605
 20
250.4474045981289123
 30
0.0
 40
7.9262174972560251
 50
355.3092691693119036
 51
356.0652258622862973
  0
LINE
  5
7A63
  8
0
 10
4495.8840764858323382
 20
249.9035013201587105
 30
0.0
 11
4497.4425167933559351
 21
249.9034926482862886
 31
0.0
  0
LINE
  5
7A64
  8
0
 10
4495.8840764858323382
 20
249.9035013201587105
 30
0.0
 11
4495.8935101827937615
 21
250.984495923663701
 31
0.0
  0
ARC
  5
7A65
  8
0
 10
4496.3932014225720195
 20
250.9802170466383018
 30
0.0
 40
0.4997095595440457
 50
127.954193374471501
 51
179.5093858424328062
  0
ARC
  5
7A66
  8
0
 10
4496.4411893918859278
 20
250.8662690987430892
 30
0.0
 40
0.6199110068992562
 50
109.7640300668207942
 51
124.9727709937581039
  0
ARC
  5
7A67
  8
0
 10
4496.3860199464488687
 20
251.0467729188700048
 30
0.0
 40
0.4314810250962288
 50
101.5062767317902939
 51
110.9747893553154938
  0
ARC
  5
7A68
  8
0
 10
4496.3938406057022803
 20
250.9313200595983915
 30
0.0
 40
0.5463897643807867
 50
92.3051597840746325
 51
99.8946945394705921
  0
LINE
  5
7A69
  8
0
 10
4496.3718638395175731
 20
251.4772676728067893
 30
0.0
 11
4496.916887191796377
 21
251.4774790980434034
 31
0.0
  0
LINE
  5
7A6A
  8
0
 10
4497.4425167933559351
 20
249.9034926482862886
 30
0.0
 11
4497.4330842450863202
 21
250.9844950572338007
 31
0.0
  0
ARC
  5
7A6B
  8
0
 10
4496.9333930004931972
 20
250.9802167426333881
 30
0.0
 40
0.4997095595440457
 50
0.4905496685946286
 51
52.0457421365501673
  0
ARC
  5
7A6C
  8
0
 10
4496.8854049029250746
 20
250.8662688487509058
 30
0.0
 40
0.6199110068992562
 50
55.0271645172780524
 51
70.2359054442276545
  0
ARC
  5
7A6D
  8
0
 10
4496.9405745515277886
 20
251.0467726067819001
 30
0.0
 40
0.4314810250962288
 50
69.0251461557100328
 51
78.4936587792043952
  0
ARC
  5
7A6E
  8
0
 10
4496.932753762325774
 20
250.9313197563128881
 30
0.0
 40
0.5463897643807867
 50
80.105240971573906
 51
91.6640416798357336
  0
ARC
  5
7A6F
  8
0
 10
4496.0296917932100769
 20
249.8780018200862969
 30
0.0
 40
0.1541788431408926
 50
126.7277948033076029
 51
160.5609618081685994
  0
ARC
  5
7A70
  8
0
 10
4496.0175227627196364
 20
249.894311308994105
 30
0.0
 40
0.1338297711353618
 50
117.7406070496207064
 51
126.7277948033076029
  0
ARC
  5
7A71
  8
0
 10
4486.8781415624762303
 20
250.8830875252928934
 30
0.0
 40
9.1187164362443571
 50
354.5231150314909883
 51
0.8070655483465401
  0
ARC
  5
7A72
  8
0
 10
4496.4070916440532528
 20
251.0020776138306928
 30
0.0
 40
0.4112468940928512
 50
130.2514819723888877
 51
178.6830871452619931
  0
ARC
  5
7A73
  8
0
 10
4496.4143373832803263
 20
251.0862215716402943
 30
0.0
 40
0.3567729109992888
 50
116.6871991744831973
 51
139.9167330909313023
  0
ARC
  5
7A74
  8
0
 10
4496.3826763911802118
 20
251.158157960474
 30
0.0
 40
0.2783092462768707
 50
105.9119970887706046
 51
117.5147930607900975
  0
ARC
  5
7A75
  8
0
 10
4496.3835023263218318
 20
251.1193630112462074
 30
0.0
 40
0.3159974623823075
 50
92.9626307846135376
 51
104.1272283917599992
  0
LINE
  5
7A76
  8
0
 10
4496.3671701165621926
 20
251.4349381293341139
 30
0.0
 11
4496.965517101019941
 21
251.4345634616140899
 31
0.0
  0
LINE
  5
7A77
  8
0
 10
4495.9552272368209742
 20
250.0127582384394032
 30
0.0
 11
4497.371364581981652
 21
250.0127582384394032
 31
0.0
  0
ARC
  5
7A78
  8
0
 10
4497.2969013892607109
 20
249.8780011069356988
 30
0.0
 40
0.1541788431408926
 50
19.4389737028511504
 51
53.2721407077160976
  0
ARC
  5
7A79
  8
0
 10
4506.4484527512604473
 20
250.8830765116609882
 30
0.0
 40
9.1187164362443571
 50
179.1928699626805042
 51
185.4768204795373947
  0
ARC
  5
7A7A
  8
0
 10
4496.9195028036174335
 20
251.0020773254597941
 30
0.0
 40
0.4112468940928512
 50
1.316848365764701
 51
49.7484535386382021
  0
ARC
  5
7A7B
  8
0
 10
4496.9122571590978623
 20
251.0862212914248062
 30
0.0
 40
0.3567729109992888
 50
40.0832024200954535
 51
63.3127363365160818
  0
ARC
  5
7A7C
  8
0
 10
4496.9439182321648332
 20
251.1581576446226052
 30
0.0
 40
0.2783092462768707
 50
62.4851424502420798
 51
74.0879384222803026
  0
ARC
  5
7A7D
  8
0
 10
4496.9430922533583725
 20
251.1193626963242878
 30
0.0
 40
0.3159974623823075
 50
75.8727071192801361
 51
85.9305685535207431
  0
ARC
  5
7A7E
  8
0
 10
4497.3090704381093019
 20
249.8943105821466872
 30
0.0
 40
0.1338297711353618
 50
53.2721407077160976
 51
62.2593284614218234
  0
ARC
  5
7A7F
  8
0
 10
4495.9600174960423828
 20
249.9362895980393091
 30
0.0
 40
0.0327912369191917
 50
270.7123311756633939
 51
353.2087095661044032
  0
ARC
  5
7A80
  8
0
 10
4496.0113818143217941
 20
249.9133483891340859
 30
0.0
 40
0.0267764384375669
 50
88.1747027722842063
 51
134.6060204299290888
  0
LINE
  5
7A81
  8
0
 10
4496.012234699009241
 20
249.9401112410587018
 30
0.0
 11
4497.3143818678408934
 21
249.9401112410587018
 31
0.0
  0
ARC
  5
7A82
  8
0
 10
4497.3665843184098776
 20
249.9362933175875128
 30
0.0
 40
0.0328002768204809
 50
186.7972812169329018
 51
270.0772287251717785
  0
ARC
  5
7A83
  8
0
 10
4497.3152114079348394
 20
249.9133476553747926
 30
0.0
 40
0.0267764384375669
 50
45.3939150810922101
 51
91.7753202137693052
  0
LINE
  5
7A84
  8
0
 10
4496.1632975720931427
 20
249.9349807375587034
 30
0.0
 11
4497.1632975720922332
 21
249.9349807375587034
 31
0.0
  0
LINE
  5
7A85
  8
0
 10
4496.1632975720931427
 20
249.9401112410587018
 30
0.0
 11
4496.1632975720931427
 21
249.9349807375587034
 31
0.0
  0
ARC
  5
7A86
  8
0
 10
4496.3782975720932882
 20
250.0261706171586127
 30
0.0
 40
0.1249999999997982
 50
226.8460883555135013
 51
258.9246222494828089
  0
LINE
  5
7A87
  8
0
 10
4497.1632975720922332
 20
249.9349807375587034
 30
0.0
 11
4497.1632975720922332
 21
249.9401112410587018
 31
0.0
  0
ARC
  5
7A88
  8
0
 10
4496.9482975720920876
 20
250.0261706171588116
 30
0.0
 40
0.1250000000000765
 50
281.0671693206468831
 51
313.1539116444195088
  0
LINE
  5
7A89
  8
0
 10
4495.4231228039052439
 20
249.8156724641586948
 30
0.0
 11
4495.8606537104333256
 21
249.8156724641586948
 31
0.0
  0
LINE
  5
7A8A
  8
0
 10
4495.9131697480142975
 20
249.8156724641586948
 30
0.0
 11
4499.4132978674124388
 21
249.8156724641586948
 31
0.0
  0
ARC
  5
7A8B
  8
0
 10
4495.4206484493206517
 20
249.755658217616201
 30
0.0
 40
0.0600652330262439
 50
87.6390634801275752
 51
176.858933697661513
  0
ARC
  5
7A8C
  8
0
 10
4495.9105944421417007
 20
249.7942866383220064
 30
0.0
 40
0.0215403283859779
 50
83.1334398539917032
 51
166.7597067563607993
  0
LINE
  5
7A8D
  8
0
 10
4490.116678826370844
 20
260.4423939151279228
 30
0.0
 11
4508.7099223667928527
 21
260.4423939151279228
 31
0.0
  0
LINE
  5
7A8E
  8
0
 10
4508.8136404156612116
 20
260.2647731880479114
 30
0.0
 11
4508.7302955625700633
 21
255.6918468779790885
 31
0.0
  0
ARC
  5
7A8F
  8
0
 10
4508.4142088704729758
 20
255.6974960920153137
 30
0.0
 40
0.3161371704501508
 50
318.8012813452605769
 51
358.9760983628157192
  0
ARC
  5
7A90
  8
0
 10
4504.6410102191257465
 20
259.0897189181712861
 30
0.0
 40
5.3899857715107382
 50
298.9864047854100022
 51
318.0879200009085253
  0
ARC
  5
7A91
  8
0
 10
4502.014149398900372
 20
263.8313543255122227
 30
0.0
 40
10.8106410921320197
 50
283.1548797920253833
 51
298.9864047854100022
  0
ARC
  5
7A92
  8
0
 10
4499.6988918489469143
 20
273.7375887786316753
 30
0.0
 40
20.9838361931211885
 50
273.6598230673401986
 51
283.1548797920253833
  0
ARC
  5
7A93
  8
0
 10
4499.4268548067757365
 20
277.990627756621393
 30
0.0
 40
25.2455664404049891
 50
269.9692320391868066
 51
273.6598230673401986
  0
ARC
  5
7A94
  8
0
 10
4523.3977834270035601
 20
254.9283430693562877
 30
0.0
 40
19.1321984694413594
 50
184.9640074178151963
 51
200.4486467411846036
  0
ARC
  5
7A95
  8
0
 10
4501.1123801609546717
 20
246.4809082839661869
 30
0.0
 40
4.7019455253826248
 50
12.1347866113452394
 51
22.0247428608915392
  0
ARC
  5
7A96
  8
0
 10
4509.0235693606427958
 20
248.1819449057504983
 30
0.0
 40
3.3900530004397842
 50
192.1347866113451914
 51
211.9897757162592029
  0
ARC
  5
7A97
  8
0
 10
4499.7240550791993883
 20
243.0108881030866996
 30
0.0
 40
7.2568998177954436
 50
7.2444144085287956
 51
27.716081870935021
  0
ARC
  5
7A98
  8
0
 10
4495.2248293062375524
 20
242.3083390902039866
 30
0.0
 40
11.8095133154427803
 50
345.8334056505834155
 51
7.8730967681990229
  0
ARC
  5
7A99
  8
0
 10
4492.10762645043269
 20
242.831836346361797
 30
0.0
 40
14.9622171064996294
 50
327.1444896864018119
 51
346.8112202743669741
  0
ARC
  5
7A9A
  8
0
 10
4497.9159856891237723
 20
238.8462741569645971
 30
0.0
 40
7.9231448078666
 50
301.2507935575316083
 51
328.5683093678636055
  0
ARC
  5
7A9B
  8
0
 10
4499.449958928425076
 20
236.7295893661656123
 30
0.0
 40
5.3220545494731288
 50
277.536227515691678
 51
298.9538880461573171
  0
ARC
  5
7A9C
  8
0
 10
4499.1394675754836499
 20
241.1745700422025038
 30
0.0
 40
9.7732363109561842
 50
271.6055435219560081
 51
275.9228638530348121
  0
LINE
  5
7A9D
  8
0
 10
4501.3845597731424277
 20
249.9585974234661876
 30
0.0
 11
4499.4132978681327586
 21
249.9585974433587126
 31
0.0
  0
LINE
  5
7A9E
  8
0
 10
4503.8830210951336994
 20
249.8919782146188879
 30
0.0
 11
4503.5514052425851332
 21
249.8919827678851107
 31
0.0
  0
LINE
  5
7A9F
  8
0
 10
4503.4104853060680398
 20
249.8919847027925982
 30
0.0
 11
4503.0127895859177443
 21
249.8919901633713039
 31
0.0
  0
ARC
  5
7AA0
  8
0
 10
4503.8760005920748881
 20
249.7660580040254956
 30
0.0
 40
0.1261157678440359
 50
24.3985573288139683
 51
86.8088587186987866
  0
ARC
  5
7AA1
  8
0
 10
4495.19387289948736
 20
243.3404883869471007
 30
0.0
 40
10.9246061818936901
 50
31.5809404882230815
 51
36.3661118336744735
  0
ARC
  5
7AA2
  8
0
 10
4504.0832364409343427
 20
248.8263769909995062
 30
0.0
 40
0.4791131713676954
 50
2.2754820624694552
 51
29.4215591542415886
  0
ARC
  5
7AA3
  8
0
 10
4487.2520750075509568
 20
246.5835192176025998
 30
0.0
 40
17.4570510527061806
 50
6.1876540081800409
 51
7.4446472675807973
  0
ARC
  5
7AA4
  8
0
 10
4505.2145298658260799
 20
248.5416680140756966
 30
0.0
 40
0.6119104720298687
 50
187.1854157544063924
 51
196.7509052191886951
  0
ARC
  5
7AA5
  8
0
 10
4506.4838682822282863
 20
248.9434810189289067
 30
0.0
 40
1.9432860486231309
 50
197.3088980410466036
 51
206.9912472537486963
  0
ARC
  5
7AA6
  8
0
 10
4512.3325047879161502
 20
251.8707349119540879
 30
0.0
 40
8.4835367408956923
 50
206.6804106563855044
 51
207.3495031483415119
  0
ARC
  5
7AA7
  8
0
 10
4493.1394078145731328
 20
241.9237176062962078
 30
0.0
 40
13.1340098985058606
 50
9.8518032481187543
 51
27.4258810260301793
  0
ARC
  5
7AA8
  8
0
 10
4494.2965921284258002
 20
242.2695317367563916
 30
0.0
 40
11.9394958479422009
 50
349.9782865487180743
 51
359.4750477056314253
  0
ARC
  5
7AA9
  8
0
 10
4491.8551503758044419
 20
242.0570258845596072
 30
0.0
 40
14.3808061696774097
 50
0.4108365665791303
 51
8.4528993430754777
  0
ARC
  5
7AAA
  8
0
 10
4492.5535292093227326
 20
242.4690710093572079
 30
0.0
 40
13.6911038340997209
 50
331.4279547951024938
 51
350.4253861749970724
  0
ARC
  5
7AAB
  8
0
 10
4496.7285801837288091
 20
239.8900531164460972
 30
0.0
 40
8.7951445844310392
 50
306.4940109549162912
 51
333.1751590258659803
  0
ARC
  5
7AAC
  8
0
 10
4499.5423563434951575
 20
236.5378091182408014
 30
0.0
 40
4.4348756596514631
 50
291.8436971059243774
 51
303.0251254055596064
  0
ARC
  5
7AAD
  8
0
 10
4501.0082396597772458
 20
232.9761274517950937
 30
0.0
 40
0.5845687656175474
 50
272.4810011286854206
 51
288.369863776271302
  0
ARC
  5
7AAE
  8
0
 10
4501.173376122505033
 20
231.506495821263087
 30
0.0
 40
0.8965820656624515
 50
98.9725192670535563
 51
106.9371279296982067
  0
ARC
  5
7AAF
  8
0
 10
4499.4282927450449279
 20
236.8324754217084092
 30
0.0
 40
4.7082389224845462
 50
274.2742520024145279
 51
288.370993483892903
  0
ARC
  5
7AB0
  8
0
 10
4499.4135883606923016
 20
236.9686457160017881
 30
0.0
 40
4.8451285199442227
 50
269.9965637338170836
 51
274.3276395479902021
  0
ARC
  5
7AB1
  8
0
 10
4499.412859008473788
 20
236.816010543079301
 30
0.0
 40
4.6712093073480334
 50
270.0053818300867192
 51
278.3399306000811748
  0
ARC
  5
7AB2
  8
0
 10
4499.421578686259636
 20
236.7565295550051019
 30
0.0
 40
4.6110925815308512
 50
278.3399306000811748
 51
291.4382856378970814
  0
ARC
  5
7AB3
  8
0
 10
4499.4314555569535514
 20
236.7313762395453125
 30
0.0
 40
4.5840695940330658
 50
291.4382856378970814
 51
309.7274115432052781
  0
ARC
  5
7AB4
  8
0
 10
4495.932680114600771
 20
240.4081500218717906
 30
0.0
 40
9.6540682943931753
 50
311.7512055257287784
 51
329.0925736008194917
  0
ARC
  5
7AB5
  8
0
 10
4492.8281478147773669
 20
242.3675151593760972
 30
0.0
 40
13.3244652286837102
 50
328.7206974015118135
 51
347.6173825169238967
  0
ARC
  5
7AB6
  8
0
 10
4493.9708927790952657
 20
242.2580485060692013
 30
0.0
 40
12.1856124841824904
 50
346.9678973815061909
 51
6.0751002164008323
  0
ARC
  5
7AB7
  8
0
 10
4493.1524478287119564
 20
241.9498587669629899
 30
0.0
 40
13.0339315376177094
 50
7.0415452354650352
 51
29.5288822407430906
  0
ARC
  5
7AB8
  8
0
 10
4490.8074974072978875
 20
240.9089061774675997
 30
0.0
 40
15.5893410325254909
 50
28.610024489589069
 51
34.2286032397395275
  0
ARC
  5
7AB9
  8
0
 10
4503.5073774524544206
 20
249.5201809143239871
 30
0.0
 40
0.246427793665028
 50
39.778694773856337
 51
93.0866231564326654
  0
LINE
  5
7ABA
  8
0
 10
4503.5028943686593266
 20
249.8840925144783114
 30
0.0
 11
4503.4941083795465602
 21
249.7662512075224015
 31
0.0
  0
ARC
  5
7ABB
  8
0
 10
4503.5682133235759466
 20
249.6355708267809064
 30
0.0
 40
0.2569622445561761
 50
93.7504348607752149
 51
104.7259911519391977
  0
ARC
  5
7ABC
  8
0
 10
4503.4680390850307958
 20
249.8137531060772858
 30
0.0
 40
0.0541852238406221
 50
273.9094548396369078
 51
298.7582142450804099
  0
ARC
  5
7ABD
  8
0
 10
4503.4923561565419732
 20
249.5756848542040132
 30
0.0
 40
0.185161149265623
 50
96.39471014686643
 51
131.8825800446722099
  0
ARC
  5
7ABE
  8
0
 10
4502.4758771601646004
 20
250.5187613875094996
 30
0.0
 40
1.202326091063362
 50
293.9029709641354771
 51
317.9545720440074774
  0
ARC
  5
7ABF
  8
0
 10
4502.576787419361608
 20
250.3431874059592985
 30
0.0
 40
1.0011455342275091
 50
269.0811183407382146
 51
292.6944744852776807
  0
ARC
  5
7AC0
  8
0
 10
4499.7118805396066819
 20
221.8106199699622891
 30
0.0
 40
27.3436819432613412
 50
86.2867584016999558
 51
90.6256606983655359
  0
ARC
  5
7AC1
  8
0
 10
4501.2069486691761995
 20
244.8474004335118082
 30
0.0
 40
4.2584381100714941
 50
72.9362356851685831
 51
86.2867584016999558
  0
ARC
  5
7AC2
  8
0
 10
4501.5898698027667706
 20
246.0949117775232935
 30
0.0
 40
2.9534809659519889
 50
41.5364145221472967
 51
72.9362356851685831
  0
ARC
  5
7AC3
  8
0
 10
4497.8777580496553128
 20
243.6919895323038929
 30
0.0
 40
7.3554173096484119
 50
12.7525706467577091
 51
36.3663271898124592
  0
ARC
  5
7AC4
  8
0
 10
4494.0582397737380234
 20
242.8275406404850116
 30
0.0
 40
11.27153678517932
 50
347.2474281968588912
 51
12.7525706467577091
  0
ARC
  5
7AC5
  8
0
 10
4493.1288154987951202
 20
243.0378917376085042
 30
0.0
 40
12.2244675627896804
 50
325.9813288776093145
 51
347.2474281968588912
  0
ARC
  5
7AC6
  8
0
 10
4497.3479957706558707
 20
240.1900178214335142
 30
0.0
 40
7.13409743784739
 50
300.3338937583126835
 51
325.9813288776093145
  0
ARC
  5
7AC7
  8
0
 10
4499.3207398930808267
 20
237.0816990109869948
 30
0.0
 40
3.4575588431607018
 50
280.7031957223795189
 51
298.1318819614045879
  0
ARC
  5
7AC8
  8
0
 10
4499.4051772077518763
 20
236.5461394313855976
 30
0.0
 40
2.9156815439638128
 50
270.1595769087833787
 51
281.0273700693441015
  0
ARC
  5
7AC9
  8
0
 10
4504.571919169062312
 20
220.1765662501142913
 30
0.0
 40
28.6688352789248313
 50
89.9658718503999211
 51
90.019880162534335
  0
ARC
  5
7ACA
  8
0
 10
4504.5889421620049688
 20
248.7554826774868957
 30
0.0
 40
0.0899137816913543
 50
59.7605683162381567
 51
89.9658718503999211
  0
ARC
  5
7ACB
  8
0
 10
4492.5050842121372625
 20
241.8348635230140076
 30
0.0
 40
14.0032928788758397
 50
22.2077440826643091
 51
29.9841824043787284
  0
ARC
  5
7ACC
  8
0
 10
4492.6075157714576562
 20
241.7814031374443005
 30
0.0
 40
13.9289452624352794
 50
8.5261827439157454
 51
22.5705936722131106
  0
ARC
  5
7ACD
  8
0
 10
4493.8661137166809567
 20
242.2901845280316024
 30
0.0
 40
12.6379569995363799
 50
339.8123480797460729
 51
359.4104246979130153
  0
ARC
  5
7ACE
  8
0
 10
4491.8972038169158623
 20
241.9606929821748906
 30
0.0
 40
14.6075595042279094
 50
0.7823301511781878
 51
7.4175818138233991
  0
ARC
  5
7ACF
  8
0
 10
4492.4717154159343409
 20
242.659737511040305
 30
0.0
 40
14.0748662764438794
 50
321.6489854059029767
 51
340.3592698135570913
  0
ARC
  5
7AD0
  8
0
 10
4499.0086410846379295
 20
237.4215309827035867
 30
0.0
 40
5.6984978299148752
 50
296.2215048497624252
 51
322.1709536792408812
  0
ARC
  5
7AD1
  8
0
 10
4499.4484604334693358
 20
236.7273185702453873
 30
0.0
 40
4.8821841141353381
 50
276.459883097419322
 51
295.1907500639192108
  0
ARC
  5
7AD2
  8
0
 10
4499.4067607036085974
 20
237.0005381312292059
 30
0.0
 40
5.1583715912646957
 50
270.0726095034518721
 51
276.5786841565059149
  0
ARC
  5
7AD3
  8
0
 10
4520.8314203991549221
 20
254.4598466914104904
 30
0.0
 40
16.6735786544742304
 50
184.1862307424484868
 51
197.1657688299131053
  0
ARC
  5
7AD4
  8
0
 10
4547.6848415079266488
 20
262.7547915414007775
 30
0.0
 40
44.7789577714577121
 50
197.1657688299131053
 51
198.9080277818642912
  0
ARC
  5
7AD5
  8
0
 10
4489.5277642581177133
 20
241.5905057682888923
 30
0.0
 40
17.1386737307280406
 50
7.6307564271540258
 51
22.8441137471280591
  0
ARC
  5
7AD6
  8
0
 10
4494.3655586677577958
 20
242.2739988661649022
 30
0.0
 40
12.2530109834498298
 50
338.9989959315510077
 51
7.46692069944051
  0
ARC
  5
7AD7
  8
0
 10
4492.7650866591802696
 20
242.602817953152794
 30
0.0
 40
13.8675768989279007
 50
321.1451153436258892
 51
340.1005871078021983
  0
ARC
  5
7AD8
  8
0
 10
4498.7982565092306686
 20
237.765041951489394
 30
0.0
 40
6.134368082532232
 50
297.4726829021431058
 51
320.9811722594848789
  0
ARC
  5
7AD9
  8
0
 10
4499.5020382409429658
 20
236.6000201551453017
 30
0.0
 40
4.7768438378231206
 50
279.6530622487618984
 51
296.4295556365519815
  0
ARC
  5
7ADA
  8
0
 10
4499.4245759851592084
 20
237.0800545649433104
 30
0.0
 40
5.2630721513099239
 50
269.8772210930969209
 51
279.6081280626418106
  0
LINE
  5
7ADB
  8
0
 10
4502.9624403694651846
 20
249.4193020327774093
 30
0.0
 11
4502.9648598520843734
 21
249.8009568526013027
 31
0.0
  0
LINE
  5
7ADC
  8
0
 10
4502.9711318814861443
 20
249.8862450483869111
 30
0.0
 11
4502.9648598520843734
 21
249.8009568526013027
 31
0.0
  0
ARC
  5
7ADD
  8
0
 10
4503.0119052626523626
 20
249.7445002580452069
 30
0.0
 40
0.1474925564252369
 50
89.6564688034569173
 51
106.0480649738454986
  0
LINE
  5
7ADE
  8
0
 10
4503.4717334295655746
 20
249.7596939690039051
 30
0.0
 11
4503.4716361376968052
 21
249.832001343102803
 31
0.0
  0
ARC
  5
7ADF
  8
0
 10
4503.4119068153968328
 20
249.8322716862973891
 30
0.0
 40
0.0597299341022053
 50
359.7406731284066268
 51
91.363707773322048
  0
LINE
  5
7AE0
  8
0
 10
4502.9392822522086135
 20
249.6117251898508016
 30
0.0
 11
4502.9392822501731644
 21
249.4099725977087871
 31
0.0
  0
LINE
  5
7AE1
  8
0
 10
4502.9392822522086135
 20
249.6117251898508016
 30
0.0
 11
4502.9369690374942365
 21
249.7992201022736083
 31
0.0
  0
LINE
  5
7AE2
  8
0
 10
4502.9634792063534405
 20
249.5831705813328938
 30
0.0
 11
4502.9392822519212132
 21
249.5831705815770931
 31
0.0
  0
ARC
  5
7AE3
  8
0
 10
4510.8366387029036559
 20
250.4474044828527042
 30
0.0
 40
7.9262174972560251
 50
183.9347735595262918
 51
184.6907302525004013
  0
LINE
  5
7AE4
  8
0
 10
4502.9425192498783872
 20
249.9035012845442907
 30
0.0
 11
4501.3840789423529714
 21
249.9034926283985953
 31
0.0
  0
LINE
  5
7AE5
  8
0
 10
4502.9425192498783872
 20
249.9035012845442907
 30
0.0
 11
4502.9330855638236244
 21
250.9844958881444938
 31
0.0
  0
ARC
  5
7AE6
  8
0
 10
4502.4333943240026201
 20
250.9802170161615891
 30
0.0
 40
0.4997095595440457
 50
0.490613579378286
 51
52.0458060473333006
  0
ARC
  5
7AE7
  8
0
 10
4502.3854063535382011
 20
250.8662690687507961
 30
0.0
 40
0.6199110068992562
 50
55.0272284280503072
 51
70.2359693549855137
  0
ARC
  5
7AE8
  8
0
 10
4502.4405758007978875
 20
251.046772888320902
 30
0.0
 40
0.4314810250962288
 50
69.0252100665097004
 51
78.4937226899962752
  0
ARC
  5
7AE9
  8
0
 10
4502.4327551403794132
 20
250.9313200291281873
 30
0.0
 40
0.5463897643807867
 50
80.105304882364095
 51
87.6948396377116239
  0
LINE
  5
7AEA
  8
0
 10
4502.4547319120729298
 20
251.4772676421148958
 30
0.0
 11
4501.9097085597968544
 21
251.4774790728515086
 31
0.0
  0
LINE
  5
7AEB
  8
0
 10
4501.3840789423529714
 20
249.9034926283985953
 30
0.0
 11
4501.3935115015310657
 21
250.9844950372508947
 31
0.0
  0
ARC
  5
7AEC
  8
0
 10
4501.893202746082352
 20
250.9802167176079024
 30
0.0
 40
0.4997095595440457
 50
127.954257285253604
 51
179.5094497532165008
  0
ARC
  5
7AED
  8
0
 10
4501.9411908424999638
 20
250.8662688232411995
 30
0.0
 40
0.6199110068992562
 50
109.7640939775786961
 51
124.9728349045295062
  0
ARC
  5
7AEE
  8
0
 10
4501.8860211957180582
 20
251.0467725818290035
 30
0.0
 40
0.4314810250962288
 50
101.5063406425818044
 51
110.9748532660665035
  0
ARC
  5
7AEF
  8
0
 10
4501.89384198375501
 20
250.9313197312810928
 30
0.0
 40
0.5463897643807867
 50
88.3359577420181949
 51
99.8947584502604968
  0
ARC
  5
7AF0
  8
0
 10
4502.7969039422423521
 20
249.8780017859413931
 30
0.0
 40
0.1541788431408926
 50
19.4390376136366889
 51
53.2722046184992024
  0
ARC
  5
7AF1
  8
0
 10
4502.8090729728974111
 20
249.894311274726391
 30
0.0
 40
0.1338297711353618
 50
53.2722046184992024
 51
62.2593923722014821
  0
ARC
  5
7AF2
  8
0
 10
4511.948454183117974
 20
250.8830873987969881
 30
0.0
 40
9.1187164362443571
 50
179.1929338734645114
 51
185.4768843903202935
  0
ARC
  5
7AF3
  8
0
 10
4502.4195041027433035
 20
251.0020775834942128
 30
0.0
 40
0.4112468940928512
 50
1.3169122765495069
 51
49.7485174494328604
  0
ARC
  5
7AF4
  8
0
 10
4502.4122583643647886
 20
251.0862215413770002
 30
0.0
 40
0.3567729109992888
 50
40.0832663308927906
 51
63.3128002473057805
  0
ARC
  5
7AF5
  8
0
 10
4502.4439193571906799
 20
251.158157929891189
 30
0.0
 40
0.2783092462768707
 50
62.4852063610443977
 51
74.088002333058995
  0
ARC
  5
7AF6
  8
0
 10
4502.4430934216579772
 20
251.1193629806716103
 30
0.0
 40
0.3159974623823075
 50
75.8727710300474598
 51
87.0373686371804922
  0
LINE
  5
7AF7
  8
0
 10
4502.4594256346017573
 20
251.434938098594813
 30
0.0
 11
4501.8610786501385519
 21
251.4345634369128106
 31
0.0
  0
LINE
  5
7AF8
  8
0
 10
4502.8713684999911493
 20
250.0127582035430009
 30
0.0
 11
4501.455231154831381
 21
250.0127582178336922
 31
0.0
  0
ARC
  5
7AF9
  8
0
 10
4501.5296943461908086
 20
249.8780010855786031
 30
0.0
 40
0.1541788431408926
 50
126.7278587140907007
 51
160.561025718954113
  0
ARC
  5
7AFA
  8
0
 10
4492.3781429943346666
 20
250.8830765826546951
 30
0.0
 40
9.1187164362443571
 50
354.5231789422738871
 51
0.8071294591298435
  0
ARC
  5
7AFB
  8
0
 10
4501.9070929431791228
 20
251.0020773002941894
 30
0.0
 40
0.4112468940928512
 50
130.2515458831825015
 51
178.6831510560467962
  0
ARC
  5
7AFC
  8
0
 10
4501.9143385885472526
 20
251.0862212661861008
 30
0.0
 40
0.3567729109992888
 50
116.6872630852729031
 51
139.9167970016951017
  0
ARC
  5
7AFD
  8
0
 10
4501.882677516205149
 20
251.1581576197033883
 30
0.0
 40
0.2783092462768707
 50
105.9120609995487996
 51
117.5148569715461946
  0
ARC
  5
7AFE
  8
0
 10
4501.8835034946214364
 20
251.1193626713968001
 30
0.0
 40
0.3159974623823075
 50
94.0694308682658829
 51
104.1272923025272945
  0
ARC
  5
7AFF
  8
0
 10
4501.5175252975086551
 20
249.8943105609122881
 30
0.0
 40
0.1338297711353618
 50
117.7406709603995978
 51
126.7278587141324948
  0
ARC
  5
7B00
  8
0
 10
4502.8665782399975797
 20
249.9362895631913091
 30
0.0
 40
0.0327912369191917
 50
186.7912898557084134
 51
269.2876682461812834
  0
ARC
  5
7B01
  8
0
 10
4502.8152139214880663
 20
249.9133483548044126
 30
0.0
 40
0.0267764384375669
 50
45.3939789918995729
 51
91.8252966495202259
  0
LINE
  5
7B02
  8
0
 10
4502.8143610370698298
 20
249.9401112067376118
 30
0.0
 11
4501.5122138682372679
 21
249.9401112198779913
 31
0.0
  0
ARC
  5
7B03
  8
0
 10
4501.4600114176309944
 20
249.9362932969335986
 30
0.0
 40
0.0328002768204809
 50
269.9227706966648839
 51
353.2027182048802842
  0
ARC
  5
7B04
  8
0
 10
4501.511384327875021
 20
249.9133476342024096
 30
0.0
 40
0.0267764384375669
 50
88.2246792079988751
 51
134.6060843406993968
  0
LINE
  5
7B05
  8
0
 10
4502.6632981639349964
 20
249.9349807047620118
 30
0.0
 11
4501.6632981639349964
 21
249.9349807148533102
 31
0.0
  0
LINE
  5
7B06
  8
0
 10
4502.6632981639859281
 20
249.9401112082620955
 30
0.0
 11
4502.6632981639349964
 21
249.9349807047620118
 31
0.0
  0
ARC
  5
7B07
  8
0
 10
4502.4482981648552595
 20
250.0261705865314923
 30
0.0
 40
0.1249999999997982
 50
281.0753771723204864
 51
313.1539110663134124
  0
LINE
  5
7B08
  8
0
 10
4501.6632981639349964
 20
249.9349807148533102
 30
0.0
 11
4501.6632981639859281
 21
249.9401112183533087
 31
0.0
  0
ARC
  5
7B09
  8
0
 10
4501.8782981648546411
 20
250.0261705922837905
 30
0.0
 40
0.1250000000000765
 50
226.8460877773684103
 51
258.9328301011723283
  0
LINE
  5
7B0A
  8
0
 10
4503.4034729309178147
 20
249.8156724238928064
 30
0.0
 11
4502.9659420243906425
 21
249.8156724283080052
 31
0.0
  0
LINE
  5
7B0B
  8
0
 10
4502.9134259868087611
 20
249.8156724288380133
 30
0.0
 11
4499.4132978674124388
 21
249.8156724641586948
 31
0.0
  0
ARC
  5
7B0C
  8
0
 10
4503.4059472848957739
 20
249.7556581773251878
 30
0.0
 40
0.0600652330262439
 50
3.1410657241505362
 51
92.3609359416878704
  0
ARC
  5
7B0D
  8
0
 10
4502.9160012924639886
 20
249.7942866029752054
 30
0.0
 40
0.0215403283859779
 50
13.2402926654549606
 51
96.8665595678152158
  0
ARC
  5
7B0E
  8
0
 10
4508.6422495251927103
 20
260.5783310667657133
 30
0.0
 40
0.1674059118867522
 50
359.3888157780990014
 51
82.1560025216297731
  0
ARC
  5
7B0F
  8
0
 10
4508.7117968008033131
 20
260.3353254388861728
 30
0.0
 40
0.1070848827210753
 50
18.0002781587259015
 51
91.0058309157658272
  0
LINE
  5
7B10
  8
0
 10
4490.1614986627391772
 20
260.7441706171587157
 30
0.0
 11
4508.6650964694126742
 21
260.7441706171587157
 31
0.0
  0
LINE
  5
7B12
  8
0
 10
4508.8136404156612116
 20
260.3684169819169938
 30
0.0
 11
4508.8136404156612116
 21
260.2647731880479114
 31
0.0
  0
ARC
  5
7B13
  8
0
 10
4494.2314178828273725
 20
260.1926502497944966
 30
0.0
 40
14.5832817959885794
 50
0.6905808930483496
 51
1.508447180786775
  0
ARC
  5
7B14
  8
0
 10
4490.1843456069564127
 20
260.5783310667657133
 30
0.0
 40
0.1674059118867522
 50
97.8439974783702127
 51
180.6111842219009986
  0
ARC
  5
7B15
  8
0
 10
4490.1147983313449004
 20
260.3353254388861728
 30
0.0
 40
0.1070848827210753
 50
88.9941690842342013
 51
161.9997218412740949
  0
LINE
  5
7B16
  8
0
 10
4490.0129547164870019
 20
260.3684169819169938
 30
0.0
 11
4490.0129547164870019
 21
260.2647731880479114
 31
0.0
  0
ARC
  5
7B17
  8
0
 10
4504.5951772493217504
 20
260.1926502497944966
 30
0.0
 40
14.5832817959885794
 50
178.4915528192132115
 51
179.3094191069515944
  0
ENDSEC
  0
EOF
