  0
SECTION
  2
HEADER
  9
$ACADVER
  1
AC1009
  9
$INSBASE
 10
3981.3529378740918219
 20
140.4049684636225948
 30
0.0
  9
$EXTMIN
 10
3980.5829378740932043
 20
137.6213058322225891
 30
0.0
  9
$EXTMAX
 10
3981.3529378740931861
 20
141.5269684636226089
 30
0.0
  9
$LIMMIN
 10
0.0
 20
0.0
  9
$LIMMAX
 10
11.6929133858000007
 20
8.2677165353999982
  9
$ORTHOMODE
 70
     0
  9
$REGENMODE
 70
     1
  9
$FILLMODE
 70
     1
  9
$QTEXTMODE
 70
     0
  9
$MIRRTEXT
 70
     0
  9
$DRAGMODE
 70
     2
  9
$LTSCALE
 40
0.6431102362
  9
$OSMODE
 70
  3839
  9
$ATTMODE
 70
     1
  9
$TEXTSIZE
 40
0.2
  9
$TRACEWID
 40
0.05
  9
$TEXTSTYLE
  7
STANDARD
  9
$CLAYER
  8
0
  9
$CELTYPE
  6
BYLAYER
  9
$CECOLOR
 62
   256
  9
$DIMSCALE
 40
1.0
  9
$DIMASZ
 40
0.1875
  9
$DIMEXO
 40
0.0625
  9
$DIMDLI
 40
0.4443307087
  9
$DIMRND
 40
0.0
  9
$DIMDLE
 40
0.0
  9
$DIMEXE
 40
0.125
  9
$DIMTP
 40
0.01
  9
$DIMTM
 40
0.01
  9
$DIMTXT
 40
2.0
  9
$DIMCEN
 40
0.1052362205
  9
$DIMTSZ
 40
0.0
  9
$DIMTOL
 70
     1
  9
$DIMLIM
 70
     0
  9
$DIMTIH
 70
     1
  9
$DIMTOH
 70
     1
  9
$DIMSE1
 70
     0
  9
$DIMSE2
 70
     0
  9
$DIMTAD
 70
     0
  9
$DIMZIN
 70
     0
  9
$DIMBLK
  1

  9
$DIMASO
 70
     1
  9
$DIMSHO
 70
     1
  9
$DIMPOST
  1
\X
  9
$DIMAPOST
  1

  9
$DIMALT
 70
     1
  9
$DIMALTD
 70
     2
  9
$DIMALTF
 40
25.3999999999999986
  9
$DIMLFAC
 40
1.0
  9
$DIMTOFL
 70
     0
  9
$DIMTVP
 40
0.0
  9
$DIMTIX
 70
     0
  9
$DIMSOXD
 70
     0
  9
$DIMSAH
 70
     0
  9
$DIMBLK1
  1

  9
$DIMBLK2
  1

  9
$DIMSTYLE
  2
STANDARD
  9
$DIMCLRD
 70
     0
  9
$DIMCLRE
 70
     0
  9
$DIMCLRT
 70
     0
  9
$DIMTFAC
 40
1.0
  9
$DIMGAP
 40
0.09
  9
$LUNITS
 70
     2
  9
$LUPREC
 70
     4
  9
$SKETCHINC
 40
0.1
  9
$FILLETRAD
 40
0.0
  9
$AUNITS
 70
     0
  9
$AUPREC
 70
     0
  9
$MENU
  1
.
  9
$ELEVATION
 40
0.0
  9
$PELEVATION
 40
0.0
  9
$THICKNESS
 40
0.0
  9
$LIMCHECK
 70
     0
  9
$BLIPMODE
 70
     0
  9
$CHAMFERA
 40
0.0
  9
$CHAMFERB
 40
0.0
  9
$SKPOLY
 70
     0
  9
$TDCREATE
 40
2458060.468368056230247
  9
$TDUPDATE
 40
2459095.8764583328738809
  9
$TDINDWG
 40
0.4078774306
  9
$TDUSRTIMER
 40
0.4078774306
  9
$USRTIMER
 70
     1
  9
$ANGBASE
 50
0.0
  9
$ANGDIR
 70
     0
  9
$PDMODE
 70
     0
  9
$PDSIZE
 40
0.3125
  9
$PLINEWID
 40
0.0
  9
$COORDS
 70
     1
  9
$SPLFRAME
 70
     0
  9
$SPLINETYPE
 70
     6
  9
$SPLINESEGS
 70
     8
  9
$ATTDIA
 70
     1
  9
$ATTREQ
 70
     1
  9
$HANDLING
 70
     1
  9
$HANDSEED
  5
10725
  9
$SURFTAB1
 70
     6
  9
$SURFTAB2
 70
     6
  9
$SURFTYPE
 70
     6
  9
$SURFU
 70
     6
  9
$SURFV
 70
     6
  9
$UCSNAME
  2

  9
$UCSORG
 10
0.0
 20
0.0
 30
0.0
  9
$UCSXDIR
 10
1.0
 20
0.0
 30
0.0
  9
$UCSYDIR
 10
0.0
 20
1.0
 30
0.0
  9
$PUCSNAME
  2

  9
$PUCSORG
 10
0.0
 20
0.0
 30
0.0
  9
$PUCSXDIR
 10
1.0
 20
0.0
 30
0.0
  9
$PUCSYDIR
 10
0.0
 20
1.0
 30
0.0
  9
$USERI1
 70
     0
  9
$USERI2
 70
     0
  9
$USERI3
 70
     0
  9
$USERI4
 70
     0
  9
$USERI5
 70
     0
  9
$USERR1
 40
0.0
  9
$USERR2
 40
0.0
  9
$USERR3
 40
0.0
  9
$USERR4
 40
0.0
  9
$USERR5
 40
0.0
  9
$WORLDVIEW
 70
     1
  9
$SHADEDGE
 70
     3
  9
$SHADEDIF
 70
    70
  9
$TILEMODE
 70
     1
  9
$MAXACTVP
 70
    64
  9
$PLIMCHECK
 70
     0
  9
$PEXTMIN
 10
1.0000000000000000E+20
 20
1.0000000000000000E+20
 30
1.0000000000000000E+20
  9
$PEXTMAX
 10
-1.0000000000000000E+20
 20
-1.0000000000000000E+20
 30
-1.0000000000000000E+20
  9
$PLIMMIN
 10
0.0
 20
0.0
  9
$PLIMMAX
 10
12.0
 20
9.0
  9
$UNITMODE
 70
     0
  9
$VISRETAIN
 70
     1
  9
$PLINEGEN
 70
     0
  9
$PSLTSCALE
 70
     1
  0
ENDSEC
  0
SECTION
  2
TABLES
  0
TABLE
  2
VPORT
 70
     1
  0
VPORT
  2
*ACTIVE
 70
     0
 10
0.0
 20
0.0
 11
1.0
 21
1.0
 12
0.0
 22
0.0
 13
0.0
 23
0.0
 14
1.0
 24
1.0
 15
0.0
 25
0.0
 16
0.0
 26
0.0
 36
15.2447560887509805
 17
3980.9688720703129547
 27
139.5741348266600994
 37
0.0
 40
3.9805076750060771
 41
3.0287253141831241
 42
50.0
 43
0.0
 44
0.0
 50
0.0
 51
0.0
 71
     0
 72
   100
 73
     1
 74
     1
 75
     0
 76
     0
 77
     0
 78
     0
  0
ENDTAB
  0
TABLE
  2
LTYPE
 70
     2
  0
LTYPE
  2
CONTINUOUS
 70
     0
  3
Solid line
 72
    65
 73
     0
 40
0.0
  0
LTYPE
  2
PHANTOM2
 70
     0
  3
___ _ _ ___ _ _ ___ _ _ ___ _ _
 72
    65
 73
     6
 40
1.25
 49
0.625
 49
-0.125
 49
0.125
 49
-0.125
 49
0.125
 49
-0.125
  0
ENDTAB
  0
TABLE
  2
LAYER
 70
     2
  0
LAYER
  2
0
 70
     0
 62
   255
  6
CONTINUOUS
  0
LAYER
  2
DEFPOINTS
 70
     0
 62
     7
  6
CONTINUOUS
  0
ENDTAB
  0
TABLE
  2
STYLE
 70
     1
  0
STYLE
  2
STANDARD
 70
     0
 40
0.0
 41
0.8
 50
0.0
 71
     0
 42
0.2
  3
txt
  4

  0
ENDTAB
  0
TABLE
  2
VIEW
 70
     0
  0
ENDTAB
  0
TABLE
  2
UCS
 70
     0
  0
ENDTAB
  0
TABLE
  2
APPID
 70
    10
  0
APPID
  2
ACAD
 70
     0
  0
APPID
  2
ACAD_MLEADERVER
 70
     0
  0
APPID
  2
ACAD_EXEMPT_FROM_CAD_STANDARDS
 70
     0
  0
APPID
  2
ACAD_NAV_VCDISPLAY
 70
     0
  0
APPID
  2
ACAECLAYERSTANDARD
 70
     0
  0
APPID
  2
ACCMTRANSPARENCY
 70
     0
  0
APPID
  2
ACAD_DSTYLE_DIMJAG
 70
     0
  0
APPID
  2
ACAD_DSTYLE_DIMTALN
 70
     0
  0
APPID
  2
ACDBATTR
 70
     0
  0
APPID
  2
ACADANNOTATIVE
 70
     0
  0
ENDTAB
  0
TABLE
  2
DIMSTYLE
 70
     1
  0
DIMSTYLE
  2
STANDARD
 70
     0
  3

  4

  5

  6

  7

 40
1.0
 41
0.1875
 42
0.0625
 43
0.38
 44
0.125
 45
0.0
 46
0.0
 47
0.01
 48
0.01
140
0.15625
141
0.09
142
0.0
143
25.3999999999999986
144
1.0
145
0.0
146
1.0
147
0.09
 71
     1
 72
     0
 73
     1
 74
     1
 75
     0
 76
     0
 77
     0
 78
     4
170
     0
171
     2
172
     0
173
     0
174
     0
175
     0
176
     0
177
     0
178
     0
  0
ENDTAB
  0
ENDSEC
  0
SECTION
  2
BLOCKS
  0
BLOCK
  8
0
  2
$MODEL_SPACE
 70
     0
 10
0.0
 20
0.0
 30
0.0
  3
$MODEL_SPACE
  1

  0
ENDBLK
  5
21
  8
0
  0
BLOCK
 67
     1
  8
0
  2
$PAPER_SPACE
 70
     0
 10
0.0
 20
0.0
 30
0.0
  3
$PAPER_SPACE
  1

  0
ENDBLK
  5
1D
 67
     1
  8
0
  0
BLOCK
  8
0
  2
_FILLED
 70
     0
 10
0.0
 20
0.0
 30
0.0
  3
_FILLED
  1

  0
SOLID
  5
EBF0
  8
0
  6
BYBLOCK
 62
     0
 10
0.0
 20
0.0
 30
0.0
 11
-1.0
 21
0.1666666667
 31
0.0
 12
-1.0
 22
-0.1666666667
 32
0.0
 13
-1.0
 23
-0.1666666667
 33
0.0
  0
ENDBLK
  5
EBF1
  8
0
  6
BYBLOCK
 62
     0
  0
BLOCK
  8
0
  2
_CLOSED
 70
     0
 10
0.0
 20
0.0
 30
0.0
  3
_CLOSED
  1

  0
LINE
  5
1027F
  8
0
  6
BYBLOCK
 62
     0
 10
0.0
 20
0.0
 30
0.0
 11
-1.0
 21
0.1666666667
 31
0.0
  0
LINE
  5
10280
  8
0
  6
BYBLOCK
 62
     0
 10
-1.0
 20
0.1666666667
 30
0.0
 11
-1.0
 21
-0.1666666667
 31
0.0
  0
LINE
  5
10281
  8
0
  6
BYBLOCK
 62
     0
 10
-1.0
 20
-0.1666666667
 30
0.0
 11
0.0
 21
0.0
 31
0.0
  0
LINE
  5
10282
  8
0
  6
BYBLOCK
 62
     0
 10
-1.0
 20
0.0
 30
0.0
 11
0.0
 21
0.0
 31
0.0
  0
ENDBLK
  5
10283
  8
0
  6
BYBLOCK
 62
     0
  0
ENDSEC
  0
SECTION
  2
ENTITIES
  0
ATTDEF
  5
3930
  8
DEFPOINTS
 10
3981.3419019042908076
 20
140.4037314100278024
 30
0.0
 40
0.001
  1
K-349T
  3

  2
MODELNUMBER
 70
     0
1001
ACDBATTR
1070
     0
1070
     1
  0
ATTDEF
  5
3931
  8
DEFPOINTS
 10
3981.3419019042908076
 20
140.4020647433611941
 30
0.0
 40
0.001
  1
FORTE
  3

  2
TRADENAME
 70
     0
1001
ACDBATTR
1070
     0
1070
     1
  0
ATTDEF
  5
3932
  8
DEFPOINTS
 10
3981.3419019042908076
 20
140.4003980766945006
 30
0.0
 40
0.001
  1
SLIDEBAR TRIM KIT
  3

  2
PRODUCT
 70
     0
1001
ACDBATTR
1070
     0
1070
     1
  0
LINE
  5
103C6
  8
0
 10
3981.0629378740932225
 20
139.4549684636320137
 30
0.0
 11
3981.0629378740932225
 21
141.3549684636226118
 31
0.0
  0
LINE
  5
103C7
  8
0
 10
3981.3529378740918219
 20
139.3180078336226018
 30
0.0
 11
3981.3529378740918219
 21
141.4919290936225877
 31
0.0
  0
ARC
  5
103C8
  8
0
 10
3981.0929378741270739
 20
141.3549684636132042
 30
0.0
 40
0.0300000000340472
 50
118.179176406164899
 51
179.9999999820383039
  0
ARC
  5
103C9
  8
0
 10
3981.3178985039930922
 20
141.4919290936225877
 30
0.0
 40
0.0350393701000019
 50
0.0000000000032569
 51
89.9956712756609249
  0
LINE
  5
103CA
  8
0
 10
3981.0230986023921105
 20
140.8349989375730047
 30
0.0
 11
3981.0230986023921105
 21
139.9749379896722132
 31
0.0
  0
ARC
  5
103CB
  8
0
 10
3979.8445982835628456
 20
143.6782152695818979
 30
0.0
 40
2.6073902968367588
 50
298.2510868881170722
 51
304.405683048255014
  0
LINE
  5
103CC
  8
0
 10
3981.0230986023921105
 20
140.8349989375730047
 30
0.0
 11
3981.0629378740932225
 21
141.1138210869146974
 31
0.0
  0
ARC
  5
103CD
  8
0
 10
3981.0929378741270739
 20
139.4549684636320137
 30
0.0
 40
0.0300000000340472
 50
180.0000000179616961
 51
241.8208235938350015
  0
ARC
  5
103CE
  8
0
 10
3981.3178985039930922
 20
139.3180078336226018
 30
0.0
 40
0.0350393701000019
 50
270.0043287243390751
 51
359.9999999999968168
  0
ARC
  5
103CF
  8
0
 10
3979.8445982835628456
 20
137.1317216576632916
 30
0.0
 40
2.6073902968367588
 50
55.5943169517449505
 51
61.7489131118828922
  0
LINE
  5
103D0
  8
0
 10
3981.0230986023921105
 20
139.9749379896722132
 30
0.0
 11
3981.0629378740932225
 21
139.6961158403306058
 31
0.0
  0
LINE
  5
103D1
  8
0
 10
3981.3529378740918219
 20
138.4870830417225989
 30
0.0
 11
3981.3529378740918219
 21
137.6920830417226114
 31
0.0
  0
LINE
  5
103D2
  8
0
 10
3981.322937874092986
 20
138.5170830417226
 30
0.0
 11
3981.322937874092986
 21
137.6620830417226102
 31
0.0
  0
LINE
  5
103D3
  8
0
 10
3981.2679378740917855
 20
138.5070830417226091
 30
0.0
 11
3981.2679378740917855
 21
137.6720830417224022
 31
0.0
  0
LINE
  5
103D4
  8
0
 10
3981.2479378740931679
 20
138.4940830417226039
 30
0.0
 11
3981.2479378740931679
 21
137.6850830417226064
 31
0.0
  0
LINE
  5
103D5
  8
0
 10
3981.1779378740930042
 20
138.5070830417226091
 30
0.0
 11
3981.1779378740930042
 21
137.6720420451472933
 31
0.0
  0
LINE
  5
103D6
  8
0
 10
3981.1129378740920401
 20
138.5170830417226
 30
0.0
 11
3981.1129378740920401
 21
137.6620830417226102
 31
0.0
  0
LINE
  5
103D7
  8
0
 10
3981.0229378740918946
 20
138.5378724354225994
 30
0.0
 11
3981.0229378740918946
 21
137.6412837903754962
 31
0.0
  0
LINE
  5
103D8
  8
0
 10
3980.9125194357930013
 20
138.5377138717782088
 30
0.0
 11
3980.9125194357930013
 21
137.6414522116670014
 31
0.0
  0
LINE
  5
103D9
  8
0
 10
3980.7932573518928621
 20
138.4278028073694031
 30
0.0
 11
3980.7932573518928621
 21
137.7513632760758071
 31
0.0
  0
LINE
  5
103DA
  8
0
 10
3980.7834170893929695
 20
138.4195830417226034
 30
0.0
 11
3980.7834170893929695
 21
137.7595830417226068
 31
0.0
  0
LINE
  5
103DB
  8
0
 10
3980.781354669592929
 20
138.4195830417226034
 30
0.0
 11
3980.7834170893929695
 21
138.4195830417226034
 31
0.0
  0
LINE
  5
103DC
  8
0
 10
3980.781354669592929
 20
138.4195830417226034
 30
0.0
 11
3980.781354669592929
 21
137.7595830417226068
 31
0.0
  0
LINE
  5
103DD
  8
0
 10
3980.7746025328929136
 20
138.4184087935273055
 30
0.0
 11
3980.7746025328929136
 21
137.7607572899179047
 31
0.0
  0
LINE
  5
103DE
  8
0
 10
3981.3529378740918219
 20
138.4870830417225989
 30
0.0
 11
3981.322937874092986
 21
138.5170830417226
 31
0.0
  0
LINE
  5
103DF
  8
0
 10
3981.322937874092986
 20
138.5170830417226
 30
0.0
 11
3981.2779586697351988
 21
138.5170830417226
 31
0.0
  0
ARC
  5
103E0
  8
0
 10
3981.2779701265321819
 20
138.507050743835805
 30
0.0
 40
0.0100323044285655
 50
90.0654312478981893
 51
179.8155423003813098
  0
ARC
  5
103E1
  8
0
 10
3981.2529378740919128
 20
138.4845830417226011
 30
0.0
 40
0.0150000000000031
 50
270.0000000000259774
 51
359.9960064899042891
  0
LINE
  5
103E2
  8
0
 10
3981.2529378740919128
 20
138.4695830417225864
 30
0.0
 11
3981.2479378740931679
 21
138.4695830417225864
 31
0.0
  0
ARC
  5
103E3
  8
0
 10
3981.2129367311767965
 20
138.4940835614634125
 30
0.0
 40
0.0350011429193209
 50
359.9991492005499936
 51
179.3451808374427117
  0
ARC
  5
103E4
  8
0
 10
3981.1679873608381968
 20
138.5071035400102915
 30
0.0
 40
0.0099505343686991
 50
359.8819695347540915
 51
90.2849488479076996
  0
LINE
  5
103E5
  8
0
 10
3981.1679378740927859
 20
138.5170539513225947
 30
0.0
 11
3981.1129378740920401
 21
138.5170830417226
 31
0.0
  0
ARC
  5
103E6
  8
0
 10
3981.0978460554370031
 20
138.5098320988346927
 30
0.0
 40
0.01524933354189
 50
270.3449890577512065
 51
351.7577166292172137
  0
LINE
  5
103E7
  8
0
 10
3981.097937874093077
 20
138.494583041722592
 30
0.0
 11
3981.0379378740931315
 21
138.494583041722592
 31
0.0
  0
ARC
  5
103E8
  8
0
 10
3981.0379378740931315
 20
138.5095830417226068
 30
0.0
 40
0.015
 50
180.0025879213312976
 51
270.0
  0
ARC
  5
103E9
  8
0
 10
3981.0029378723429545
 20
138.5378724313000873
 30
0.0
 40
0.0200000041804742
 50
359.9999999991857749
 51
87.9999346296159359
  0
LINE
  5
103EA
  8
0
 10
3981.00363588522805
 20
138.5578602512225928
 30
0.0
 11
3980.9446342322930832
 21
138.5558486183334139
 31
0.0
  0
ARC
  5
103EB
  8
0
 10
3980.9460302664078881
 20
138.5158729868711873
 30
0.0
 40
0.0400000002756851
 50
92.0000777371149354
 51
146.9054606317486105
  0
ARC
  5
103EC
  8
0
 10
3980.6863226730929455
 20
138.6851419035226058
 30
0.0
 40
0.270000000000004
 50
295.8874118799025723
 51
326.9049389256426252
  0
ARC
  5
103ED
  8
0
 10
3980.8129378742469271
 20
138.4242423233542922
 30
0.0
 40
0.0200000001646451
 50
115.8874122576151962
 51
169.7453038960522065
  0
ARC
  5
103EE
  8
0
 10
3980.7834170893761438
 20
138.4295830417678985
 30
0.0
 40
0.010000000045292
 50
270.0000000941370786
 51
349.7453481619594982
  0
LINE
  5
103EF
  8
0
 10
3980.781354669592929
 20
138.4195830417226034
 30
0.0
 11
3980.7746025328929136
 21
138.4184087935273055
 31
0.0
  0
LINE
  5
103F0
  8
0
 10
3980.781354669592929
 20
137.7595830417226068
 30
0.0
 11
3980.7834170893929695
 21
137.7595830417226068
 31
0.0
  0
LINE
  5
103F1
  8
0
 10
3981.3529378740918219
 20
137.6920830417226114
 30
0.0
 11
3981.322937874092986
 21
137.6620830417226102
 31
0.0
  0
LINE
  5
103F2
  8
0
 10
3981.322937874092986
 20
137.6620830417226102
 30
0.0
 11
3981.2779586697351988
 21
137.6620830417226102
 31
0.0
  0
ARC
  5
103F3
  8
0
 10
3981.2779701265321819
 20
137.6721153396094053
 30
0.0
 40
0.0100323044285655
 50
180.1844576996186902
 51
269.9345687521018249
  0
ARC
  5
103F4
  8
0
 10
3981.2529378740919128
 20
137.6945830417226091
 30
0.0
 40
0.0150000000000031
 50
0.0039935100956962
 51
89.9999999999739515
  0
LINE
  5
103F5
  8
0
 10
3981.2529378740919128
 20
137.7095830417225955
 30
0.0
 11
3981.2479378740931679
 21
137.7095830417225955
 31
0.0
  0
ARC
  5
103F6
  8
0
 10
3981.2129373444317935
 20
137.6850469604212037
 30
0.0
 40
0.0350005482571956
 50
180.4496701735357078
 51
0.0590649791854248
  0
ARC
  5
103F7
  8
0
 10
3981.1679873608381968
 20
137.6720625434348904
 30
0.0
 40
0.0099505343686991
 50
269.7150511520923146
 51
0.1180304652459349
  0
LINE
  5
103F8
  8
0
 10
3981.1679378740927859
 20
137.6621121321225871
 30
0.0
 11
3981.1129378740920401
 21
137.6620830417226102
 31
0.0
  0
ARC
  5
103F9
  8
0
 10
3981.0978402632149482
 20
137.6693236856181954
 30
0.0
 40
0.0152596682992742
 50
8.3576589969021242
 51
89.6334960028918033
  0
LINE
  5
103FA
  8
0
 10
3981.097937874093077
 20
137.6845830417225898
 30
0.0
 11
3981.0379378740931315
 21
137.6845830417225898
 31
0.0
  0
ARC
  5
103FB
  8
0
 10
3981.0379577827079629
 20
137.6695349765383014
 30
0.0
 40
0.0150480783538198
 50
90.0758023674375465
 51
176.4936417187992959
  0
ARC
  5
103FC
  8
0
 10
3981.002937872342045
 20
137.6412936521448955
 30
0.0
 40
0.0200000041808323
 50
272.0000653743211956
 51
359.9717481166694029
  0
LINE
  5
103FD
  8
0
 10
3981.00363588522805
 20
137.6213058322225891
 30
0.0
 11
3980.9446342322930832
 21
137.6233174651117963
 31
0.0
  0
ARC
  5
103FE
  8
0
 10
3980.9460302664078881
 20
137.6632930965739945
 30
0.0
 40
0.0400000002756851
 50
213.0945393682513895
 51
267.999922262885093
  0
ARC
  5
103FF
  8
0
 10
3980.6863226730929455
 20
137.4940241799226044
 30
0.0
 40
0.270000000000004
 50
33.0950610743574174
 51
64.1125881200974561
  0
ARC
  5
10400
  8
0
 10
3980.8129378742469271
 20
137.7549237600908896
 30
0.0
 40
0.0200000001646451
 50
190.2546961039477935
 51
244.1125877423847044
  0
ARC
  5
10401
  8
0
 10
3980.7834170893761438
 20
137.7495830416773117
 30
0.0
 40
0.010000000045292
 50
10.2546518380405196
 51
89.9999999058629072
  0
LINE
  5
10402
  8
0
 10
3980.781354669592929
 20
137.7595830417226068
 30
0.0
 11
3980.7746025328929136
 21
137.7607572899179047
 31
0.0
  0
ARC
  5
10403
  8
0
 10
3980.9608419629048512
 20
138.0895830417225909
 30
0.0
 40
0.3779040888127596
 50
119.5262295343780039
 51
240.4737704656220103
  0
ENDSEC
  0
EOF
