  0
SECTION
  2
HEADER
  9
$ACADVER
  1
AC1009
  9
$INSBASE
 10
6496.6756579094062545
 20
221.2489538566042029
 30
0.0
  9
$EXTMIN
 10
6487.892209594254382
 20
216.8552081817614976
 30
-0.0000000349181948
  9
$EXTMAX
 10
6551.8783176396536874
 20
221.2613243532154002
 30
0.0000000814935746
  9
$LIMMIN
 10
0.0
 20
0.0
  9
$LIMMAX
 10
11.6929133858000007
 20
8.2677165353999982
  9
$ORTHOMODE
 70
     0
  9
$REGENMODE
 70
     1
  9
$FILLMODE
 70
     1
  9
$QTEXTMODE
 70
     0
  9
$MIRRTEXT
 70
     0
  9
$DRAGMODE
 70
     2
  9
$LTSCALE
 40
0.6431102362
  9
$OSMODE
 70
  4095
  9
$ATTMODE
 70
     1
  9
$TEXTSIZE
 40
0.2
  9
$TRACEWID
 40
0.05
  9
$TEXTSTYLE
  7
STANDARD
  9
$CLAYER
  8
0
  9
$CELTYPE
  6
BYLAYER
  9
$CECOLOR
 62
   256
  9
$DIMSCALE
 40
1.0
  9
$DIMASZ
 40
0.1875
  9
$DIMEXO
 40
0.0625
  9
$DIMDLI
 40
0.4443307087
  9
$DIMRND
 40
0.0
  9
$DIMDLE
 40
0.0
  9
$DIMEXE
 40
0.125
  9
$DIMTP
 40
0.01
  9
$DIMTM
 40
0.01
  9
$DIMTXT
 40
2.0
  9
$DIMCEN
 40
0.1052362205
  9
$DIMTSZ
 40
0.0
  9
$DIMTOL
 70
     1
  9
$DIMLIM
 70
     0
  9
$DIMTIH
 70
     1
  9
$DIMTOH
 70
     1
  9
$DIMSE1
 70
     0
  9
$DIMSE2
 70
     0
  9
$DIMTAD
 70
     0
  9
$DIMZIN
 70
     0
  9
$DIMBLK
  1

  9
$DIMASO
 70
     1
  9
$DIMSHO
 70
     1
  9
$DIMPOST
  1
\X
  9
$DIMAPOST
  1

  9
$DIMALT
 70
     1
  9
$DIMALTD
 70
     2
  9
$DIMALTF
 40
25.3999999999999986
  9
$DIMLFAC
 40
1.0
  9
$DIMTOFL
 70
     0
  9
$DIMTVP
 40
0.0
  9
$DIMTIX
 70
     0
  9
$DIMSOXD
 70
     0
  9
$DIMSAH
 70
     0
  9
$DIMBLK1
  1

  9
$DIMBLK2
  1

  9
$DIMSTYLE
  2
STANDARD
  9
$DIMCLRD
 70
     0
  9
$DIMCLRE
 70
     0
  9
$DIMCLRT
 70
     0
  9
$DIMTFAC
 40
1.0
  9
$DIMGAP
 40
0.09
  9
$LUNITS
 70
     2
  9
$LUPREC
 70
     4
  9
$SKETCHINC
 40
0.1
  9
$FILLETRAD
 40
0.04
  9
$AUNITS
 70
     0
  9
$AUPREC
 70
     0
  9
$MENU
  1
.
  9
$ELEVATION
 40
0.0
  9
$PELEVATION
 40
0.0
  9
$THICKNESS
 40
0.0
  9
$LIMCHECK
 70
     0
  9
$BLIPMODE
 70
     0
  9
$CHAMFERA
 40
0.0
  9
$CHAMFERB
 40
0.0
  9
$SKPOLY
 70
     0
  9
$TDCREATE
 40
2458060.468368056230247
  9
$TDUPDATE
 40
2460479.4274305561557412
  9
$TDINDWG
 40
0.8053311343
  9
$TDUSRTIMER
 40
0.8053311343
  9
$USRTIMER
 70
     1
  9
$ANGBASE
 50
0.0
  9
$ANGDIR
 70
     0
  9
$PDMODE
 70
     0
  9
$PDSIZE
 40
0.3125
  9
$PLINEWID
 40
0.0
  9
$COORDS
 70
     1
  9
$SPLFRAME
 70
     0
  9
$SPLINETYPE
 70
     6
  9
$SPLINESEGS
 70
     8
  9
$ATTDIA
 70
     1
  9
$ATTREQ
 70
     1
  9
$HANDLING
 70
     1
  9
$HANDSEED
  5
2EFB8
  9
$SURFTAB1
 70
     6
  9
$SURFTAB2
 70
     6
  9
$SURFTYPE
 70
     6
  9
$SURFU
 70
     6
  9
$SURFV
 70
     6
  9
$UCSNAME
  2

  9
$UCSORG
 10
0.0
 20
0.0
 30
0.0
  9
$UCSXDIR
 10
1.0
 20
0.0
 30
0.0
  9
$UCSYDIR
 10
0.0
 20
1.0
 30
0.0
  9
$PUCSNAME
  2

  9
$PUCSORG
 10
0.0
 20
0.0
 30
0.0
  9
$PUCSXDIR
 10
1.0
 20
0.0
 30
0.0
  9
$PUCSYDIR
 10
0.0
 20
1.0
 30
0.0
  9
$USERI1
 70
     0
  9
$USERI2
 70
     0
  9
$USERI3
 70
     0
  9
$USERI4
 70
     0
  9
$USERI5
 70
     0
  9
$USERR1
 40
0.0
  9
$USERR2
 40
0.0
  9
$USERR3
 40
0.0
  9
$USERR4
 40
0.0
  9
$USERR5
 40
0.0
  9
$WORLDVIEW
 70
     1
  9
$SHADEDGE
 70
     3
  9
$SHADEDIF
 70
    70
  9
$TILEMODE
 70
     1
  9
$MAXACTVP
 70
    64
  9
$PLIMCHECK
 70
     0
  9
$PEXTMIN
 10
1.0000000000000000E+20
 20
1.0000000000000000E+20
 30
1.0000000000000000E+20
  9
$PEXTMAX
 10
-1.0000000000000000E+20
 20
-1.0000000000000000E+20
 30
-1.0000000000000000E+20
  9
$PLIMMIN
 10
0.0
 20
0.0
  9
$PLIMMAX
 10
12.0
 20
9.0
  9
$UNITMODE
 70
     0
  9
$VISRETAIN
 70
     1
  9
$PLINEGEN
 70
     0
  9
$PSLTSCALE
 70
     1
  0
ENDSEC
  0
SECTION
  2
TABLES
  0
TABLE
  2
VPORT
 70
     1
  0
VPORT
  2
*ACTIVE
 70
     0
 10
0.0
 20
0.0
 11
1.0
 21
1.0
 12
2608.5199071716419894
 22
86.4786611649494148
 13
0.0
 23
0.0
 14
1.0
 24
1.0
 15
0.0
 25
0.0
 16
0.0
 26
0.0
 36
60.4960186965801583
 17
3911.3653564453120453
 27
132.5796051025390057
 37
0.0
 40
29.7110545172333183
 41
2.1604095563139931
 42
50.0
 43
0.0
 44
0.0
 50
0.0
 51
0.0
 71
     0
 72
   100
 73
     1
 74
     1
 75
     0
 76
     0
 77
     0
 78
     0
  0
ENDTAB
  0
TABLE
  2
LTYPE
 70
     2
  0
LTYPE
  2
CONTINUOUS
 70
     0
  3
Solid line
 72
    65
 73
     0
 40
0.0
  0
LTYPE
  2
PHANTOM2
 70
     0
  3
___ _ _ ___ _ _ ___ _ _ ___ _ _
 72
    65
 73
     6
 40
1.25
 49
0.625
 49
-0.125
 49
0.125
 49
-0.125
 49
0.125
 49
-0.125
  0
ENDTAB
  0
TABLE
  2
LAYER
 70
     2
  0
LAYER
  2
0
 70
     0
 62
   255
  6
CONTINUOUS
  0
LAYER
  2
DEFPOINTS
 70
     0
 62
     7
  6
CONTINUOUS
  0
ENDTAB
  0
TABLE
  2
STYLE
 70
     1
  0
STYLE
  2
STANDARD
 70
     0
 40
0.0
 41
0.8
 50
0.0
 71
     0
 42
0.2
  3
txt
  4

  0
ENDTAB
  0
TABLE
  2
VIEW
 70
     0
  0
ENDTAB
  0
TABLE
  2
UCS
 70
     0
  0
ENDTAB
  0
TABLE
  2
APPID
 70
    11
  0
APPID
  2
ACAD
 70
     0
  0
APPID
  2
ACAD_MLEADERVER
 70
     0
  0
APPID
  2
ACAD_EXEMPT_FROM_CAD_STANDARDS
 70
     0
  0
APPID
  2
ACAD_NAV_VCDISPLAY
 70
     0
  0
APPID
  2
ACAECLAYERSTANDARD
 70
     0
  0
APPID
  2
ACCMTRANSPARENCY
 70
     0
  0
APPID
  2
ACAD_DSTYLE_DIMJAG
 70
     0
  0
APPID
  2
ACAD_DSTYLE_DIMTALN
 70
     0
  0
APPID
  2
ACDBATTR
 70
     0
  0
APPID
  2
ACADANNOTATIVE
 70
     0
  0
APPID
  2
DCO15
 70
     0
  0
ENDTAB
  0
TABLE
  2
DIMSTYLE
 70
     1
  0
DIMSTYLE
  2
STANDARD
 70
     0
  3

  4

  5

  6

  7

 40
1.0
 41
0.1875
 42
0.0625
 43
0.38
 44
0.125
 45
0.0
 46
0.0
 47
0.01
 48
0.01
140
0.15625
141
0.09
142
0.0
143
25.3999999999999986
144
1.0
145
0.0
146
1.0
147
0.09
 71
     1
 72
     0
 73
     1
 74
     1
 75
     0
 76
     0
 77
     0
 78
     4
170
     0
171
     2
172
     0
173
     0
174
     0
175
     0
176
     0
177
     0
178
     0
  0
ENDTAB
  0
ENDSEC
  0
SECTION
  2
BLOCKS
  0
BLOCK
  8
0
  2
$MODEL_SPACE
 70
     0
 10
0.0
 20
0.0
 30
0.0
  3
$MODEL_SPACE
  1

  0
ENDBLK
  5
21
  8
0
  0
BLOCK
 67
     1
  8
0
  2
$PAPER_SPACE
 70
     0
 10
0.0
 20
0.0
 30
0.0
  3
$PAPER_SPACE
  1

  0
ENDBLK
  5
1D
 67
     1
  8
0
  0
ENDSEC
  0
SECTION
  2
ENTITIES
  0
ATTDEF
  5
26A5B
  8
DEFPOINTS
 10
6496.6721663743301178
 20
221.2527320702494933
 30
0.0
 40
0.001
  1
K-35000
  3

  2
MODELNUMBER
 70
     0
1001
ACDBATTR
1070
     0
1070
     1
  0
ATTDEF
  5
26A5C
  8
DEFPOINTS
 10
6496.6720405646719882
 20
221.2510652298703917
 30
0.0
 40
0.001
  1
BEVEL
  3

  2
TRADENAME
 70
     0
1001
ACDBATTR
1070
     0
1070
     1
  0
ATTDEF
  5
26A5D
  8
DEFPOINTS
 10
6496.6721663743301178
 20
221.2493987369161914
 30
0.0
 40
0.001
  1
ACCESSORIES BUNDLE
  3

  2
PRODUCT
 70
     0
1001
ACDBATTR
1070
     0
1070
     1
  0
LINE
  5
2ED55
  8
0
 10
6489.7575305222062525
 20
221.2489538566042029
 30
0.0
 11
6495.1287753554815936
 21
221.2489538566042029
 31
0.0
  0
LINE
  5
2ED56
  8
0
 10
6489.9456186937713937
 20
216.8554296043041916
 30
0.0
 11
6490.1114303569438562
 21
216.8554296043041916
 31
0.0
  0
LINE
  5
2ED57
  8
0
 10
6489.8415861392113584
 20
217.0785838196040913
 30
0.0
 11
6503.509729679603879
 21
217.0785838196040913
 31
0.0
  0
LINE
  5
2ED58
  8
0
 10
6495.4006578996650205
 20
216.9904296043042109
 30
0.0
 11
6497.9506579191383935
 21
216.9904296043040972
 31
0.0
  0
ARC
  5
2ED59
  8
0
 10
6488.2406138085652856
 20
221.1736336295986973
 30
0.0
 40
0.0670000808533265
 50
90.6244414059352437
 51
134.8051780979697014
  0
ARC
  5
2ED5A
  8
0
 10
6488.2399849126240952
 20
221.1729305323958101
 30
0.0
 40
0.0670623631143099
 50
134.0006147189575074
 51
202.0453359984612121
  0
ARC
  5
2ED5B
  8
0
 10
6488.2394779363712587
 20
221.1725813064448971
 30
0.0
 40
0.0664615087145584
 50
201.930329265515212
 51
225.0380744080582076
  0
ARC
  5
2ED5C
  8
0
 10
6520.4721064997511348
 20
253.3679256280921948
 30
0.0
 40
45.6239256108935578
 50
224.9669469015749996
 51
225.0194272759835883
  0
ARC
  5
2ED5D
  8
0
 10
5739.0901341598782892
 20
-527.620348805326671
 30
0.0
 40
1059.13871399419304
 50
44.9563163848017027
 51
44.9841033872416176
  0
ARC
  5
2ED5E
  8
0
 10
6479.4940028843666369
 20
211.5383359860634016
 30
0.0
 40
12.9298972658593296
 50
44.5621169878593832
 51
45.3233353016972629
  0
ARC
  5
2ED5F
  8
0
 10
6488.320894759894145
 20
220.2313295251275918
 30
0.0
 40
0.5411056842530521
 50
5.3372367312586091
 51
44.5621169878593832
  0
ARC
  5
2ED60
  8
0
 10
6277.9160908552239562
 20
200.5747380675315128
 30
0.0
 40
211.8621010772652937
 50
4.6946083644054584
 51
5.3372367312586091
  0
ARC
  5
2ED61
  8
0
 10
6489.0280804781768893
 20
217.9113029229272911
 30
0.0
 40
0.0394662066107823
 50
316.6828689361719853
 51
4.6946083644054584
  0
ARC
  5
2ED62
  8
0
 10
6489.0714150222547687
 20
217.8704420448096073
 30
0.0
 40
0.0200946368275176
 50
136.6828689361767033
 51
233.3171317151395101
  0
ARC
  5
2ED63
  8
0
 10
6489.0358342457611798
 20
217.822676971468411
 30
0.0
 40
0.0394662050673212
 50
5.3053901908439416
 51
53.3171317151395172
  0
LINE
  5
2ED64
  8
0
 10
6489.0674142793322972
 20
217.914533023671396
 30
0.0
 11
6489.1005817501081765
 21
217.5354270976307873
 31
0.0
  0
LINE
  5
2ED65
  8
0
 10
6489.7858834786493389
 20
217.0735127878236028
 30
0.0
 11
6489.5845493595616063
 21
217.0792046583842989
 31
0.0
  0
ARC
  5
2ED66
  8
0
 10
6489.5986790991573798
 20
217.5790049689674959
 30
0.0
 40
0.5
 50
184.9999999957211116
 51
268.3806355255895255
  0
ARC
  5
2ED67
  8
0
 10
6489.6658214787958059
 20
206.8041645679585088
 30
0.0
 40
10.2759225461482995
 50
89.0199357481318145
 51
90.3574054575082783
  0
ARC
  5
2ED68
  8
0
 10
6489.5986027659482716
 20
217.5798774615552986
 30
0.0
 40
0.5
 50
184.9999999957211116
 51
270.357405457508321
  0
ARC
  5
2ED69
  8
0
 10
6489.7727699746274084
 20
217.0367506620013955
 30
0.0
 40
0.039030986186255
 50
30.8821840826726088
 51
88.7758753873986848
  0
ARC
  5
2ED6A
  8
0
 10
4240.0735311117960009
 20
-1082.0122837510618865
 30
0.0
 40
2597.8602402506789986
 50
29.9989200531922506
 51
30.0035386363266703
  0
ARC
  5
2ED6B
  8
0
 10
6489.9456186937713937
 20
216.895429604304411
 30
0.0
 40
0.04
 50
209.998920053032208
 51
270.0
  0
ARC
  5
2ED6C
  8
0
 10
8739.98351793891743
 20
-1082.0122837510618865
 30
0.0
 40
2597.8602402506789986
 50
149.9966633590890126
 51
150.0010799468062999
  0
ARC
  5
2ED6D
  8
0
 10
6490.1114303569438562
 20
216.895429604304411
 30
0.0
 40
0.04
 50
270.0
 51
330.0010799472574945
  0
ARC
  5
2ED6E
  8
0
 10
6489.7870669244575765
 20
215.7812507331483971
 30
0.0
 40
1.29459201396501
 50
88.7871085666796773
 51
90.5958584827548066
  0
ARC
  5
2ED6F
  8
0
 10
6487.7005456342112666
 20
93.7303674465486978
 30
0.0
 40
123.3632984270394957
 50
88.9043135790116139
 51
89.0181449761702765
  0
ARC
  5
2ED70
  8
0
 10
6493.4204528173459039
 20
395.3314085150640267
 30
0.0
 40
178.2919798841373051
 50
268.9198689982659971
 51
268.9714786262488815
  0
ARC
  5
2ED71
  8
0
 10
6490.1273855270692366
 20
213.0255224231154898
 30
0.0
 40
4.043694771725673
 50
88.0178549137468167
 51
88.6863352792496613
  0
ARC
  5
2ED72
  8
0
 10
6490.2589281596538058
 20
216.8345392487150889
 30
0.0
 40
0.2324074232511404
 50
84.9641412737825732
 51
87.9481925569578777
  0
ARC
  5
2ED73
  8
0
 10
6490.2747688693398231
 20
217.1087021816830998
 30
0.0
 40
0.0428956568862868
 50
269.9119887660212953
 51
276.1020957521330956
  0
ARC
  5
2ED74
  8
0
 10
6490.2786464325627094
 20
217.0267435752552956
 30
0.0
 40
0.0392615437145916
 50
95.764545084655424
 51
145.7275814478375935
  0
ARC
  5
2ED75
  8
0
 10
6485.5596598416896086
 20
-10.7970385393800203
 30
0.0
 40
227.9075881721971086
 50
88.6545421362468886
 51
88.8178869313546642
  0
ARC
  5
2ED76
  8
0
 10
6496.6757126706761483
 20
492.8833144657950243
 30
0.0
 40
275.8958312150925281
 50
268.8027543855242243
 51
269.0753817413727234
  0
ARC
  5
2ED77
  8
0
 10
6496.6757126698894353
 20
492.8833144184936259
 30
0.0
 40
275.895831167784479
 50
269.0753817414249056
 51
269.735206158333483
  0
ARC
  5
2ED78
  8
0
 10
6491.410464237056658
 20
-93.3796508333180668
 30
0.0
 40
314.6329465885496006
 50
90.301006497742847
 51
90.4054732593982635
  0
ARC
  5
2ED79
  8
0
 10
6490.3644564651867768
 20
76.375576827553914
 30
0.0
 40
144.8746506350005916
 50
90.4669077662431818
 51
90.6395613954967843
  0
ARC
  5
2ED7A
  8
0
 10
6488.4433940829603671
 20
248.4688205486006041
 30
0.0
 40
27.2293150808073392
 50
270.2439682219841757
 51
270.6395613954967985
  0
ARC
  5
2ED7B
  8
0
 10
6488.4204582902666516
 20
253.8552441091565015
 30
0.0
 40
32.615787472298571
 50
269.8424721652972949
 51
270.2439682219841757
  0
ARC
  5
2ED7C
  8
0
 10
6488.3424265160520008
 20
226.0955257452820035
 30
0.0
 40
4.8559597896752251
 50
268.8402119739785121
 51
269.8626435878871916
  0
ARC
  5
2ED7D
  8
0
 10
6488.2395284373387767
 20
221.0874306821856123
 30
0.0
 40
0.1531994609497449
 50
88.2756722417028641
 51
89.8671639435856662
  0
ARC
  5
2ED7E
  8
0
 10
6495.1011868236209921
 20
220.8320862330546106
 30
0.0
 40
0.4177795383382728
 50
68.4567646671029593
 51
86.2136548049828946
  0
ARC
  5
2ED7F
  8
0
 10
6495.1581368589750127
 20
220.9795310234343901
 30
0.0
 40
0.2597255338522075
 50
39.2671327917978772
 51
68.1985163011613338
  0
ARC
  5
2ED80
  8
0
 10
6494.3369074453294161
 20
220.3540486024793097
 30
0.0
 40
1.291903855889613
 50
34.1163157961146624
 51
37.6909281652466177
  0
LINE
  5
2ED81
  8
0
 10
6495.6625161177544214
 20
220.9274928879042079
 30
0.0
 11
6497.688799701060816
 21
220.9274928879042079
 31
0.0
  0
ARC
  5
2ED82
  8
0
 10
6495.7223785848864281
 20
221.300345671004294
 30
0.0
 40
0.3859352334855792
 50
215.0611771551477887
 51
235.3209189787961861
  0
ARC
  5
2ED83
  8
0
 10
6495.6991895898672738
 20
221.2668303708728956
 30
0.0
 40
0.3451798064481947
 50
235.3209189787961861
 51
247.7354037013348034
  0
ARC
  5
2ED84
  8
0
 10
6495.6700353045898737
 20
221.1956195755398937
 30
0.0
 40
0.2682320987375176
 50
247.7354037013348034
 51
268.3936519273137833
  0
LINE
  5
2ED85
  8
0
 10
6503.5937852966080754
 20
221.2489538566042029
 30
0.0
 11
6498.2225404633318249
 21
221.2489538566042029
 31
0.0
  0
LINE
  5
2ED86
  8
0
 10
6503.4056971250447532
 20
216.8554296043041916
 30
0.0
 11
6503.2398854618695623
 21
216.8554296043041916
 31
0.0
  0
ARC
  5
2ED87
  8
0
 10
6505.1107020102490424
 20
221.1736336295986973
 30
0.0
 40
0.0670000808533265
 50
45.1948219020302773
 51
89.3755585940647563
  0
ARC
  5
2ED88
  8
0
 10
6505.1113309061884138
 20
221.1729305323958101
 30
0.0
 40
0.0670623631143099
 50
337.95466400153731
 51
45.9993852810424571
  0
ARC
  5
2ED89
  8
0
 10
6505.1118378824439787
 20
221.1725813064448971
 30
0.0
 40
0.0664615087145584
 50
314.9619255919417924
 51
338.0696707344847027
  0
ARC
  5
2ED8A
  8
0
 10
6472.8792093190641026
 20
253.3679256280921948
 30
0.0
 40
45.6239256108935578
 50
314.9805727240163264
 51
315.0330530984248867
  0
ARC
  5
2ED8B
  8
0
 10
7254.2611816589369482
 20
-527.620348805326671
 30
0.0
 40
1059.13871399419304
 50
135.0158966127584108
 51
135.0436836151982902
  0
ARC
  5
2ED8C
  8
0
 10
6513.8573129344467816
 20
211.5383359860634016
 30
0.0
 40
12.9298972658593296
 50
134.6766646983026874
 51
135.4378830121405883
  0
ARC
  5
2ED8D
  8
0
 10
6505.030421058920183
 20
220.2313295251275918
 30
0.0
 40
0.5411056842530521
 50
135.4378830121405883
 51
174.6627632687429923
  0
ARC
  5
2ED8E
  8
0
 10
6715.4352249635912813
 20
200.5747380675315128
 30
0.0
 40
211.8621010772652937
 50
174.6627632687429923
 51
175.3053916355929118
  0
ARC
  5
2ED8F
  8
0
 10
6504.3232353406383481
 20
217.9113029229272911
 30
0.0
 40
0.0394662066107823
 50
175.3053916355929118
 51
223.3171310638279863
  0
ARC
  5
2ED90
  8
0
 10
6504.2799007965595592
 20
217.8704420448096073
 30
0.0
 40
0.0200946368275176
 50
306.6828682848603762
 51
43.3171310638232328
  0
ARC
  5
2ED91
  8
0
 10
6504.3154815730531482
 20
217.822676971468411
 30
0.0
 40
0.0394662050673212
 50
126.6828682848605041
 51
174.6946098091559918
  0
LINE
  5
2ED92
  8
0
 10
6504.2839015394820308
 20
217.914533023671396
 30
0.0
 11
6504.2507340687070609
 21
217.5354270976307873
 31
0.0
  0
LINE
  5
2ED93
  8
0
 10
6503.5654323401658985
 20
217.0735127878236028
 30
0.0
 11
6503.7667664592499932
 21
217.0792046583842989
 31
0.0
  0
ARC
  5
2ED94
  8
0
 10
6503.7526367196569481
 20
217.5790049689674959
 30
0.0
 40
0.5
 50
271.6193644743582922
 51
355.0000000042771831
  0
ARC
  5
2ED95
  8
0
 10
6503.6854943400176126
 20
206.8041645679585088
 30
0.0
 40
10.2759225461482995
 50
89.6425945424917074
 51
90.9800642518682139
  0
ARC
  5
2ED96
  8
0
 10
6503.7527130528669659
 20
217.5798774615552986
 30
0.0
 40
0.5
 50
269.642594542491679
 51
355.0000000042771831
  0
ARC
  5
2ED97
  8
0
 10
6503.5785458441860101
 20
217.0367506620013955
 30
0.0
 40
0.039030986186255
 50
91.2241246126013152
 51
149.1178159173273912
  0
ARC
  5
2ED98
  8
0
 10
8753.2777847070174175
 20
-1082.0122837510618865
 30
0.0
 40
2597.8602402506789986
 50
149.9964613636732906
 51
150.0010799468062999
  0
ARC
  5
2ED99
  8
0
 10
6503.4056971250447532
 20
216.895429604304411
 30
0.0
 40
0.04
 50
270.0
 51
330.0010799472574945
  0
ARC
  5
2ED9A
  8
0
 10
4253.3677978798968979
 20
-1082.0122837510618865
 30
0.0
 40
2597.8602402506789986
 50
29.9989200531922506
 51
30.003336640910959
  0
ARC
  5
2ED9B
  8
0
 10
6503.2398854618695623
 20
216.8954296043040983
 30
0.0
 40
0.04
 50
209.9989200532972973
 51
270.0
  0
ARC
  5
2ED9C
  8
0
 10
6503.5642488943558419
 20
215.7812507331483971
 30
0.0
 40
1.29459201396501
 50
89.4041415171930964
 51
91.2128914333203369
  0
ARC
  5
2ED9D
  8
0
 10
6505.6507701846012424
 20
93.7303674465486978
 30
0.0
 40
123.3632984270394957
 50
90.9818550238297235
 51
91.0956864209883861
  0
ARC
  5
2ED9E
  8
0
 10
6499.930863001468424
 20
395.3314085150640267
 30
0.0
 40
178.2919798841373051
 50
271.0285213737510048
 51
271.0801310017340029
  0
ARC
  5
2ED9F
  8
0
 10
6503.2239302917450914
 20
213.0255224231154898
 30
0.0
 40
4.043694771725673
 50
91.3136647207503387
 51
91.9821450862531691
  0
ARC
  5
2EDA0
  8
0
 10
6503.0923876591596127
 20
216.8345392487150889
 30
0.0
 40
0.2324074232511404
 50
92.0518074430421365
 51
95.0358587262174126
  0
ARC
  5
2EDA1
  8
0
 10
6503.0765469494717763
 20
217.1087021816830998
 30
0.0
 40
0.0428956568862868
 50
263.8979042478667907
 51
270.088011233978591
  0
ARC
  5
2EDA2
  8
0
 10
6503.0726693862516186
 20
217.0267435752552956
 30
0.0
 40
0.0392615437145916
 50
34.2724185521623568
 51
84.235454915344576
  0
ARC
  5
2EDA3
  8
0
 10
6507.7916559771219909
 20
-10.7970385393800203
 30
0.0
 40
227.9075881721971086
 50
91.1821130686453358
 51
91.3454578637531256
  0
ARC
  5
2EDA4
  8
0
 10
6496.6756031481381797
 20
492.8833144657950243
 30
0.0
 40
275.8958312150925281
 50
270.9246182586272198
 51
271.1972456144757189
  0
ARC
  5
2EDA5
  8
0
 10
6496.6756031489258021
 20
492.8833144184936259
 30
0.0
 40
275.895831167784479
 50
270.2647938417185856
 51
270.9246182585752081
  0
ARC
  5
2EDA6
  8
0
 10
6501.9408515817567604
 20
-93.3796508333180668
 30
0.0
 40
314.6329465885496006
 50
89.5945267406017365
 51
89.6989935022571387
  0
ARC
  5
2EDA7
  8
0
 10
6502.9868593536275512
 20
76.375576827553914
 30
0.0
 40
144.8746506350005916
 50
89.3604386045032015
 51
89.5330922338089294
  0
ARC
  5
2EDA8
  8
0
 10
6504.9079217358548703
 20
248.4688205486006041
 30
0.0
 40
27.2293150808073392
 50
269.3604386045032015
 51
269.7560317780158243
  0
ARC
  5
2EDA9
  8
0
 10
6504.9308575285476763
 20
253.8552441091565015
 30
0.0
 40
32.615787472298571
 50
269.7560317780158243
 51
270.1575278347025915
  0
ARC
  5
2EDAA
  8
0
 10
6505.0088893027623271
 20
226.0955257452820035
 30
0.0
 40
4.8559597896752251
 50
270.1373564121128084
 51
271.1597880260214879
  0
ARC
  5
2EDAB
  8
0
 10
6505.1117873814755512
 20
221.0874306821856123
 30
0.0
 40
0.1531994609497449
 50
90.132836056414348
 51
91.7243277582970933
  0
ARC
  5
2EDAC
  8
0
 10
6498.2501289951942454
 20
220.8320862330546106
 30
0.0
 40
0.4177795383382728
 50
93.7863451950171338
 51
111.5432353328969981
  0
ARC
  5
2EDAD
  8
0
 10
6498.1931789598393152
 20
220.9795310234343901
 30
0.0
 40
0.2597255338522075
 50
111.8014836988386946
 51
140.7328672082020944
  0
ARC
  5
2EDAE
  8
0
 10
6499.0144083734858214
 20
220.3540486024793097
 30
0.0
 40
1.291903855889613
 50
142.3090718347546897
 51
145.8836842038840018
  0
ARC
  5
2EDAF
  8
0
 10
6497.6289372339260808
 20
221.300345671004294
 30
0.0
 40
0.3859352334855792
 50
304.6790810212037854
 51
324.9388228448522113
  0
ARC
  5
2EDB0
  8
0
 10
6497.6521262289479637
 20
221.2668303708728956
 30
0.0
 40
0.3451798064481947
 50
292.2645962986651966
 51
304.6790810212037854
  0
ARC
  5
2EDB1
  8
0
 10
6497.6812805142253637
 20
221.1956195755398937
 30
0.0
 40
0.2682320987375176
 50
271.606348072686103
 51
292.2645962986651966
  0
LINE
  5
2EDB2
  8
0
 10
6536.0155480023740893
 20
219.6215704530862922
 30
0.0
 11
6541.3395412171312273
 21
219.6215704530862922
 31
0.0
  0
LINE
  5
2EDB3
  8
0
 10
6536.6846592635201887
 20
219.4816550915878963
 30
0.0
 11
6536.8511640622873529
 21
219.4816550915878963
 31
0.0
  0
LINE
  5
2EDB4
  8
0
 10
6535.1781603899689799
 20
221.2489538566042029
 30
0.0
 11
6551.1997838328343278
 21
221.2489538566042029
 31
0.0
  0
ARC
  5
2EDB5
  8
0
 10
6535.3994626136536681
 20
188.7573006658462873
 30
0.0
 40
32.4924068320999027
 50
90.3902382951341536
 51
91.1340180685035932
  0
LINE
  5
2EDB6
  8
0
 10
6534.7078203828632468
 20
221.1247983201249951
 30
0.0
 11
6535.5334388395003771
 21
220.2991798634866996
 31
0.0
  0
ARC
  5
2EDB7
  8
0
 10
6534.7564112117552213
 20
221.1741123719386053
 30
0.0
 40
0.0692310938720326
 50
90.0063472118700787
 51
225.4232359719549095
  0
LINE
  5
2EDB8
  8
0
 10
6535.3634456747367949
 20
220.0358173085091948
 30
0.0
 11
6535.3282160304434001
 21
220.4624881254266029
 31
0.0
  0
LINE
  5
2EDB9
  8
0
 10
6535.3920353492640061
 20
220.0083145212763043
 30
0.0
 11
6535.6778056562488928
 21
219.9958375202245122
 31
0.0
  0
ARC
  5
2EDBA
  8
0
 10
6535.3933439308839297
 20
220.0382859679237981
 30
0.0
 40
0.03
 50
184.7201294372262907
 51
267.5000000012859118
  0
ARC
  5
2EDBB
  8
0
 10
6535.203639963158821
 20
220.4522020445324983
 30
0.0
 40
0.125
 50
4.7201294372458351
 51
44.9999999999896403
  0
LINE
  5
2EDBC
  8
0
 10
6535.7118332862110037
 20
219.9334484765130924
 30
0.0
 11
6535.7177866335969156
 21
219.8849894844776998
 31
0.0
  0
ARC
  5
2EDBD
  8
0
 10
6535.0914971012598471
 20
219.8572381252452033
 30
0.0
 40
0.625
 50
7.0038802824809379
 51
44.9999999999953886
  0
ARC
  5
2EDBE
  8
0
 10
6536.0155480023740893
 20
219.9215704530863036
 30
0.0
 40
0.3
 50
187.0038802824809068
 51
270.0
  0
ARC
  5
2EDBF
  8
0
 10
6535.6764970746289691
 20
219.9658660735771889
 30
0.0
 40
0.03
 50
10.5193732665700797
 51
87.5000000013902337
  0
LINE
  5
2EDC0
  8
0
 10
6536.6505378626052334
 20
219.5013550915948031
 30
0.0
 11
6536.5925052916218192
 21
219.6018704530794139
 31
0.0
  0
LINE
  5
2EDC1
  8
0
 10
6536.8852854631959417
 20
219.5013550915903977
 30
0.0
 11
6536.9433180342030028
 21
219.6018704530837056
 31
0.0
  0
ARC
  5
2EDC2
  8
0
 10
6536.6846592635201887
 20
219.5210550915878969
 30
0.0
 40
0.0394
 50
209.9999999882998907
 51
269.9999999999478746
  0
ARC
  5
2EDC3
  8
0
 10
6536.8511640622873529
 20
219.5210550915878116
 30
0.0
 40
0.0394
 50
270.0
 51
330.0000000043290243
  0
ARC
  5
2EDC4
  8
0
 10
6536.5583838907095924
 20
219.5821704530862917
 30
0.0
 40
0.0394
 50
29.999999988292771
 51
90.0
  0
ARC
  5
2EDC5
  8
0
 10
6536.9774394351143201
 20
219.5821704530862917
 30
0.0
 40
0.0394
 50
90.0
 51
150.0000000043289958
  0
LINE
  5
2EDC6
  8
0
 10
6541.5751195911070681
 20
219.5185399549667125
 30
0.0
 11
6544.802824631691692
 21
219.5185399549667125
 31
0.0
  0
LINE
  5
2EDC7
  8
0
 10
6541.2185800839060903
 20
219.884944998098689
 30
0.0
 11
6535.7177921022675946
 21
219.884944998098689
 31
0.0
  0
ARC
  5
2EDC8
  8
0
 10
6541.5266267272609184
 20
219.8726953510328883
 30
0.0
 40
0.3082901041799385
 50
177.7228010872935045
 51
219.4352105934208907
  0
ARC
  5
2EDC9
  8
0
 10
6541.6117500532282065
 20
219.9239104353698053
 30
0.0
 40
0.4068256571751933
 50
217.3905173665048096
 51
239.7246841506641886
  0
ARC
  5
2EDCA
  8
0
 10
6541.6200361465216702
 20
219.9482675835145926
 30
0.0
 40
0.4320686654776914
 50
240.4041593315218961
 51
264.0329227079362795
  0
ARC
  5
2EDCB
  8
0
 10
6540.8665617001115606
 20
219.6909273686559061
 30
0.0
 40
0.0736098536503898
 50
250.42833823535031
 51
270.2164337384222108
  0
ARC
  5
2EDCC
  8
0
 10
6541.0267779076211809
 20
177.277628483659214
 30
0.0
 40
42.3399916385739274
 50
89.7244922638575133
 51
90.216433738422154
  0
ARC
  5
2EDCD
  8
0
 10
6541.2307166563041392
 20
219.6892851716773976
 30
0.0
 40
0.072155371870358
 50
269.7244922638574849
 51
290.2059654899151724
  0
ARC
  5
2EDCE
  8
0
 10
6540.2549072703959609
 20
219.6898145393896868
 30
0.0
 40
0.0721959028423772
 50
250.9550016327272886
 51
270.3177965031310919
  0
ARC
  5
2EDCF
  8
0
 10
6540.41909976135139
 20
190.0877258019245062
 30
0.0
 40
29.5303481904420302
 50
89.6124337358799181
 51
90.3177965031311487
  0
ARC
  5
2EDD0
  8
0
 10
6540.6193341120979312
 20
219.688878672544206
 30
0.0
 40
0.0714819061078842
 50
269.6124337358799039
 51
289.6759455327430146
  0
ARC
  5
2EDD1
  8
0
 10
6539.6438719512361786
 20
219.6933854309648098
 30
0.0
 40
0.0754369112547159
 50
252.1733782331587861
 51
269.9267921791629874
  0
ARC
  5
2EDD2
  8
0
 10
6539.9931199252096121
 20
493.0306299379834059
 30
0.0
 40
273.4129045384297001
 50
269.9267921791629874
 51
270.0029711710603237
  0
ARC
  5
2EDD3
  8
0
 10
6540.0072943160366776
 20
219.6930268434221887
 30
0.0
 40
0.0753010763498236
 50
270.0029711710603237
 51
288.3879305447447905
  0
ARC
  5
2EDD4
  8
0
 10
6539.0323456943870042
 20
219.6938190664079968
 30
0.0
 40
0.0754482162131566
 50
253.2541170688309933
 51
269.9148067662516723
  0
ARC
  5
2EDD5
  8
0
 10
6539.3801533745772758
 20
453.6079058910984827
 30
0.0
 40
233.9897936189935876
 50
269.9148067662516723
 51
270.0038303756861069
  0
ARC
  5
2EDD6
  8
0
 10
6539.3957912558253156
 20
219.6923159066836035
 30
0.0
 40
0.0742031118615479
 50
270.0038303757381186
 51
287.5597613280858127
  0
ARC
  5
2EDD7
  8
0
 10
6538.4208200124157884
 20
219.6943171947291944
 30
0.0
 40
0.0754645126046176
 50
254.576435643736886
 51
269.9181176771868991
  0
ARC
  5
2EDD8
  8
0
 10
6538.8387300578478971
 20
512.1196503298206153
 30
0.0
 40
292.5010962687408096
 50
269.9181176771868991
 51
269.9893245714819727
  0
ARC
  5
2EDD9
  8
0
 10
6538.7842447477478345
 20
219.6931428636883084
 30
0.0
 40
0.0745837267193563
 50
269.9893245714819727
 51
286.3367597259183981
  0
ARC
  5
2EDDA
  8
0
 10
6537.8056544150558693
 20
219.6645355987052142
 30
0.0
 40
0.0449934695305131
 50
252.7306213552892871
 51
271.8672778422957776
  0
ARC
  5
2EDDB
  8
0
 10
6538.2592272025267448
 20
416.1952716292083778
 30
0.0
 40
196.5762255099591016
 50
269.8682250167606753
 51
269.9747792005596807
  0
ARC
  5
2EDDC
  8
0
 10
6538.1727781535873874
 20
219.6927921588919901
 30
0.0
 40
0.0737270395227731
 50
269.937014259795717
 51
284.9794055580032932
  0
ARC
  5
2EDDD
  8
0
 10
6537.5613534967778833
 20
219.6916687769871999
 30
0.0
 40
0.0720381925680301
 50
269.8897074991198224
 51
283.3266750035837163
  0
ARC
  5
2EDDE
  8
0
 10
6537.181897784758803
 20
22.5687113658725593
 30
0.0
 40
197.0512844385744131
 50
89.8897074991197655
 51
90.0627715699870066
  0
LINE
  5
2EDDF
  8
0
 10
6541.4866180342905864
 20
220.2560284428878106
 30
0.0
 11
6544.8913261885090833
 21
220.2560284428878106
 31
0.0
  0
LINE
  5
2EDE0
  8
0
 10
6541.558776538678103
 20
219.7559676432950937
 30
0.0
 11
6544.8191676841215667
 21
219.7559676432950937
 31
0.0
  0
ARC
  5
2EDE1
  8
0
 10
6541.5206200257598539
 20
220.1343415448592964
 30
0.0
 40
0.126348077055628
 50
105.6115303402546033
 51
184.061496211085398
  0
ARC
  5
2EDE2
  8
0
 10
6510.8811691341870755
 20
217.4027117603359045
 30
0.0
 40
30.634650300631499
 50
4.6681264443052184
 51
5.098939488049206
  0
ARC
  5
2EDE3
  8
0
 10
6541.5720578090340496
 20
219.9143469361511904
 30
0.0
 40
0.1589351834800674
 50
186.6708263877887077
 51
265.206541802709296
  0
ARC
  5
2EDE4
  8
0
 10
6541.3681941136328533
 20
219.9266550913625053
 30
0.0
 40
0.0750000003438863
 50
8.0000001584951583
 51
59.5002093370885774
  0
ARC
  5
2EDE5
  8
0
 10
6872.6303753498068545
 20
266.4825194820696197
 30
0.0
 40
334.4426844746537881
 50
188.0000001584951121
 51
188.0168365469095022
  0
ARC
  5
2EDE6
  8
0
 10
6541.5509876376236207
 20
219.8531315292875945
 30
0.0
 40
0.0957676521332247
 50
188.0168365469062906
 51
234.6421840765009108
  0
LINE
  5
2EDE7
  8
0
 10
6542.5912484420077817
 20
220.0016550915877929
 30
0.0
 11
6542.5636414526516091
 21
220.0016550915877929
 31
0.0
  0
LINE
  5
2EDE8
  8
0
 10
6541.9797212779458278
 20
220.0016550915877929
 30
0.0
 11
6541.9521158506067877
 21
220.0016550915877929
 31
0.0
  0
LINE
  5
2EDE9
  8
0
 10
6543.1751686167617663
 20
220.0016550915877929
 30
0.0
 11
6543.2027756060388128
 21
220.0016550915877929
 31
0.0
  0
LINE
  5
2EDEA
  8
0
 10
6541.8778461893007261
 20
219.9370962318238014
 30
0.0
 11
6541.8644836466637571
 21
219.8420461229804914
 31
0.0
  0
LINE
  5
2EDEB
  8
0
 10
6542.0539912886442835
 20
219.937093746233387
 30
0.0
 11
6542.0673497722327738
 21
219.8420494371011102
 31
0.0
  0
LINE
  5
2EDEC
  8
0
 10
6542.4893713474957622
 20
219.9370930741567065
 30
0.0
 11
6542.4760139613536012
 21
219.8420503332033888
 31
0.0
  0
LINE
  5
2EDED
  8
0
 10
6542.6655182050071744
 20
219.9370955084442869
 30
0.0
 11
6542.6788795662951088
 21
219.8420470874864918
 31
0.0
  0
LINE
  5
2EDEE
  8
0
 10
6543.1008986789893243
 20
219.9370942650874952
 30
0.0
 11
6543.0875393481319406
 21
219.8420487452956138
 31
0.0
  0
ARC
  5
2EDEF
  8
0
 10
6541.9521158506067877
 20
219.9266550915878895
 30
0.0
 40
0.075
 50
90.0
 51
171.9975640082938071
  0
ARC
  5
2EDF0
  8
0
 10
6541.9797212779458278
 20
219.9266550915878895
 30
0.0
 40
0.075
 50
8.0005184724098761
 51
90.0
  0
ARC
  5
2EDF1
  8
0
 10
6542.5636414526516091
 20
219.9266550915878895
 30
0.0
 40
0.075
 50
90.0
 51
172.0000000024867859
  0
ARC
  5
2EDF2
  8
0
 10
6542.5912484420077817
 20
219.9266550915878895
 30
0.0
 40
0.075
 50
8.0018779365961432
 51
90.0
  0
ARC
  5
2EDF3
  8
0
 10
6543.1751686167617663
 20
219.9266550915878895
 30
0.0
 40
0.075
 50
90.0
 51
171.9990812561165967
  0
ARC
  5
2EDF4
  8
0
 10
6542.9885127644347449
 20
219.8559676432952017
 30
0.0
 40
0.1
 50
270.0
 51
351.9990812561263169
  0
ARC
  5
2EDF5
  8
0
 10
6542.7779059169606626
 20
219.8559676432952017
 30
0.0
 40
0.1
 50
188.0018779365929049
 51
270.0
  0
ARC
  5
2EDF6
  8
0
 10
6542.1663764531640481
 20
219.8559676432952017
 30
0.0
 40
0.1
 50
188.000518472411386
 51
270.0
  0
ARC
  5
2EDF7
  8
0
 10
6542.3769871544791386
 20
219.8559676432952017
 30
0.0
 40
0.1
 50
270.0
 51
352.0000000024546125
  0
ARC
  5
2EDF8
  8
0
 10
6541.7654574315893115
 20
219.8559676432952017
 30
0.0
 40
0.1
 50
270.0
 51
351.9975640082840869
  0
LINE
  5
2EDF9
  8
0
 10
6550.3623962204273994
 20
219.6215704530862922
 30
0.0
 11
6545.0384030056684423
 21
219.6215704530862922
 31
0.0
  0
LINE
  5
2EDFA
  8
0
 10
6549.6932849592813
 20
219.4816550915878963
 30
0.0
 11
6549.5267801605141358
 21
219.4816550915878963
 31
0.0
  0
ARC
  5
2EDFB
  8
0
 10
6550.9784816091460016
 20
188.7573006658462873
 30
0.0
 40
32.4924068320999027
 50
88.8659819314963926
 51
89.6097617048658464
  0
LINE
  5
2EDFC
  8
0
 10
6551.6701238399373324
 20
221.1247983201249951
 30
0.0
 11
6550.8445053833002021
 21
220.2991798634866996
 31
0.0
  0
ARC
  5
2EDFD
  8
0
 10
6551.6215330110444484
 20
221.1741123719386053
 30
0.0
 40
0.0692310938720326
 50
314.5767640280438968
 51
89.9936527881299355
  0
LINE
  5
2EDFE
  8
0
 10
6551.0144985480628748
 20
220.0358173085091948
 30
0.0
 11
6551.0497281923571791
 21
220.4624881254266029
 31
0.0
  0
LINE
  5
2EDFF
  8
0
 10
6550.9859088735347541
 20
220.0083145212763043
 30
0.0
 11
6550.7001385665507769
 21
219.9958375202245122
 31
0.0
  0
ARC
  5
2EE00
  8
0
 10
6550.9846002919157399
 20
220.0382859679237981
 30
0.0
 40
0.03
 50
272.4999999987140882
 51
355.279870562773624
  0
ARC
  5
2EE01
  8
0
 10
6551.1743042596417581
 20
220.4522020445324983
 30
0.0
 40
0.125
 50
135.0000000000104023
 51
175.279870562754212
  0
LINE
  5
2EE02
  8
0
 10
6550.6661109365886659
 20
219.9334484765130924
 30
0.0
 11
6550.660157589202754
 21
219.8849894844776998
 31
0.0
  0
ARC
  5
2EE03
  8
0
 10
6551.2864471215398225
 20
219.8572381252452033
 30
0.0
 40
0.625
 50
135.0000000000046043
 51
172.996119717519008
  0
ARC
  5
2EE04
  8
0
 10
6550.3623962204273994
 20
219.9215704530863036
 30
0.0
 40
0.3
 50
270.0
 51
352.9961197175189795
  0
ARC
  5
2EE05
  8
0
 10
6550.7014471481707005
 20
219.9658660735771889
 30
0.0
 40
0.03
 50
92.4999999986097663
 51
169.4806267334315066
  0
LINE
  5
2EE06
  8
0
 10
6549.7274063601953458
 20
219.5013550915948031
 30
0.0
 11
6549.7854389311778505
 21
219.6018704530794139
 31
0.0
  0
LINE
  5
2EE07
  8
0
 10
6549.492658759603728
 20
219.5013550915903977
 30
0.0
 11
6549.4346261885975764
 21
219.6018704530837056
 31
0.0
  0
ARC
  5
2EE08
  8
0
 10
6549.6932849592813
 20
219.5210550915878969
 30
0.0
 40
0.0394
 50
270.0000000000521254
 51
330.0000000117001946
  0
ARC
  5
2EE09
  8
0
 10
6549.5267801605141358
 20
219.5210550915878116
 30
0.0
 40
0.0394
 50
209.9999999956696115
 51
270.0
  0
ARC
  5
2EE0A
  8
0
 10
6549.8195603320909868
 20
219.5821704530862917
 30
0.0
 40
0.0394
 50
90.0
 51
150.0000000117071863
  0
ARC
  5
2EE0B
  8
0
 10
6549.4005047876871686
 20
219.5821704530862917
 30
0.0
 40
0.0394
 50
29.9999999956709615
 51
90.0
  0
LINE
  5
2EE0C
  8
0
 10
6545.1593641388935794
 20
219.884944998098689
 30
0.0
 11
6550.6601521205311656
 21
219.884944998098689
 31
0.0
  0
ARC
  5
2EE0D
  8
0
 10
6544.8513174955387512
 20
219.8726953510328883
 30
0.0
 40
0.3082901041799385
 50
320.5647894065791093
 51
2.2771989127064711
  0
ARC
  5
2EE0E
  8
0
 10
6544.7661941695723726
 20
219.9239104353698053
 30
0.0
 40
0.4068256571751933
 50
300.2753158493358114
 51
322.6094826334950767
  0
ARC
  5
2EE0F
  8
0
 10
6544.757908076278909
 20
219.9482675835145926
 30
0.0
 40
0.4320686654776914
 50
275.9670772920637205
 51
299.5958406684781039
  0
ARC
  5
2EE10
  8
0
 10
6545.5113825226890185
 20
219.6909273686559061
 30
0.0
 40
0.0736098536503898
 50
269.7835662615779029
 51
289.5716617646497184
  0
ARC
  5
2EE11
  8
0
 10
6545.3511663151803077
 20
177.277628483659214
 30
0.0
 40
42.3399916385739274
 50
89.7835662615778318
 51
90.2755077361424867
  0
ARC
  5
2EE12
  8
0
 10
6545.1472275664973495
 20
219.6892851716773976
 30
0.0
 40
0.072155371870358
 50
249.7940345100849129
 51
270.2755077361425151
  0
ARC
  5
2EE13
  8
0
 10
6546.1230369524046182
 20
219.6898145393896868
 30
0.0
 40
0.0721959028423772
 50
269.6822034968687944
 51
289.044998367272683
  0
ARC
  5
2EE14
  8
0
 10
6545.9588444614491891
 20
190.0877258019245062
 30
0.0
 40
29.5303481904420302
 50
89.6822034968688655
 51
90.3875662641200677
  0
ARC
  5
2EE15
  8
0
 10
6545.7586101107017384
 20
219.688878672544206
 30
0.0
 40
0.0714819061078842
 50
250.3240544672570138
 51
270.3875662641200961
  0
ARC
  5
2EE16
  8
0
 10
6546.7340722715625816
 20
219.6933854309648098
 30
0.0
 40
0.0754369112547159
 50
270.0732078208370126
 51
287.8266217668411855
  0
ARC
  5
2EE17
  8
0
 10
6546.384824297590967
 20
493.0306299379834059
 30
0.0
 40
273.4129045384297001
 50
269.9970288289396763
 51
270.0732078208370126
  0
ARC
  5
2EE18
  8
0
 10
6546.3706499067639015
 20
219.6930268434221887
 30
0.0
 40
0.0753010763498236
 50
251.6120694552552095
 51
269.9970288289396763
  0
ARC
  5
2EE19
  8
0
 10
6547.3455985284126655
 20
219.6938190664079968
 30
0.0
 40
0.0754482162131566
 50
270.0851932337483277
 51
286.7458829311689783
  0
ARC
  5
2EE1A
  8
0
 10
6546.9977908482223938
 20
453.6079058910984827
 30
0.0
 40
233.9897936189935876
 50
269.9961696242618814
 51
270.0851932337483277
  0
ARC
  5
2EE1B
  8
0
 10
6546.9821529669752636
 20
219.6923159066836035
 30
0.0
 40
0.0742031118615479
 50
252.4402386719141873
 51
269.9961696242618814
  0
ARC
  5
2EE1C
  8
0
 10
6547.9571242103838813
 20
219.6943171947291944
 30
0.0
 40
0.0754645126046176
 50
270.0818823227609755
 51
285.4235643562632276
  0
ARC
  5
2EE1D
  8
0
 10
6547.5392141649517725
 20
512.1196503298206153
 30
0.0
 40
292.5010962687408096
 50
270.0106754285180273
 51
270.0818823227609755
  0
ARC
  5
2EE1E
  8
0
 10
6547.5936994750509257
 20
219.6931428636883084
 30
0.0
 40
0.0745837267193563
 50
253.6632402740816019
 51
270.0106754285180273
  0
ARC
  5
2EE1F
  8
0
 10
6548.5722898077447098
 20
219.6645355987052142
 30
0.0
 40
0.0449934695305131
 50
268.1327221577042224
 51
287.2693786447106845
  0
ARC
  5
2EE20
  8
0
 10
6548.1187170202738344
 20
416.1952716292083778
 30
0.0
 40
196.5762255099591016
 50
270.0252207994403193
 51
270.1317749832393247
  0
ARC
  5
2EE21
  8
0
 10
6548.2051660692131918
 20
219.6927921588919901
 30
0.0
 40
0.0737270395227731
 50
255.0205944419967068
 51
270.0629857401522145
  0
ARC
  5
2EE22
  8
0
 10
6548.8165907260226959
 20
219.6916687769871999
 30
0.0
 40
0.0720381925680301
 50
256.6733249964162837
 51
270.1102925008802913
  0
ARC
  5
2EE23
  8
0
 10
6549.1960464380408666
 20
22.5687113658725593
 30
0.0
 40
197.0512844385744131
 50
89.9372284300129934
 51
90.1102925008802487
  0
ARC
  5
2EE24
  8
0
 10
6544.8573241970407253
 20
220.1343415448592964
 30
0.0
 40
0.126348077055628
 50
355.9385037889130103
 51
74.3884696597454109
  0
ARC
  5
2EE25
  8
0
 10
6575.4967750886125941
 20
217.4027117603359045
 30
0.0
 40
30.634650300631499
 50
174.9010605119507886
 51
175.3318735556948127
  0
ARC
  5
2EE26
  8
0
 10
6544.8058864137647106
 20
219.9143469361511904
 30
0.0
 40
0.1589351834800674
 50
274.793458197290704
 51
353.3291736122096722
  0
ARC
  5
2EE27
  8
0
 10
6545.0097501091668164
 20
219.9266550913625053
 30
0.0
 40
0.0750000003438863
 50
120.4997906629113942
 51
171.9999998415048026
  0
ARC
  5
2EE28
  8
0
 10
6213.7475688729919057
 20
266.4825194820696197
 30
0.0
 40
334.4426844746537881
 50
351.9831634530904125
 51
351.9999998415049163
  0
ARC
  5
2EE29
  8
0
 10
6544.8269565851751395
 20
219.8531315292875945
 30
0.0
 40
0.0957676521332247
 50
305.3578159234991176
 51
351.9831634530937094
  0
LINE
  5
2EE2A
  8
0
 10
6543.786695780791888
 20
220.0016550915877929
 30
0.0
 11
6543.8143027701480605
 21
220.0016550915877929
 31
0.0
  0
LINE
  5
2EE2B
  8
0
 10
6544.3982229448547514
 20
220.0016550915877929
 30
0.0
 11
6544.4258283721937914
 21
220.0016550915877929
 31
0.0
  0
LINE
  5
2EE2C
  8
0
 10
6544.5000980334989436
 20
219.9370962318238014
 30
0.0
 11
6544.5134605761368221
 21
219.8420461229804914
 31
0.0
  0
LINE
  5
2EE2D
  8
0
 10
6544.3239529341562957
 20
219.937093746233387
 30
0.0
 11
6544.3105944505678053
 21
219.8420494371011102
 31
0.0
  0
LINE
  5
2EE2E
  8
0
 10
6543.888572875304817
 20
219.9370930741567065
 30
0.0
 11
6543.901930261446978
 21
219.8420503332033888
 31
0.0
  0
LINE
  5
2EE2F
  8
0
 10
6543.7124260177943142
 20
219.9370955084442869
 30
0.0
 11
6543.6990646565036513
 21
219.8420470874864918
 31
0.0
  0
LINE
  5
2EE30
  8
0
 10
6543.2770455438103454
 20
219.9370942650874952
 30
0.0
 11
6543.2904048746686385
 21
219.8420487452956138
 31
0.0
  0
ARC
  5
2EE31
  8
0
 10
6544.4258283721937914
 20
219.9266550915878895
 30
0.0
 40
0.075
 50
8.0024359917061751
 51
90.0
  0
ARC
  5
2EE32
  8
0
 10
6544.3982229448547514
 20
219.9266550915878895
 30
0.0
 40
0.075
 50
90.0
 51
171.9994815275900919
  0
ARC
  5
2EE33
  8
0
 10
6543.8143027701480605
 20
219.9266550915878895
 30
0.0
 40
0.075
 50
7.9999999975131697
 51
90.0
  0
ARC
  5
2EE34
  8
0
 10
6543.786695780791888
 20
219.9266550915878895
 30
0.0
 40
0.075
 50
90.0
 51
171.9981220634022065
  0
ARC
  5
2EE35
  8
0
 10
6543.2027756060388128
 20
219.9266550915878895
 30
0.0
 40
0.075
 50
8.0009187438834424
 51
90.0
  0
ARC
  5
2EE36
  8
0
 10
6543.3894314583640153
 20
219.8559676432952017
 30
0.0
 40
0.1
 50
188.0009187438737115
 51
270.0
  0
ARC
  5
2EE37
  8
0
 10
6543.6000383058390071
 20
219.8559676432952017
 30
0.0
 40
0.1
 50
270.0
 51
351.9981220634070951
  0
ARC
  5
2EE38
  8
0
 10
6544.2115677696356215
 20
219.8559676432952017
 30
0.0
 40
0.1
 50
270.0
 51
351.9994815275869087
  0
ARC
  5
2EE39
  8
0
 10
6544.0009570683214406
 20
219.8559676432952017
 30
0.0
 40
0.1
 50
187.9999999975437959
 51
270.0
  0
ARC
  5
2EE3A
  8
0
 10
6544.6124867912121772
 20
219.8559676432952017
 30
0.0
 40
0.1
 50
188.0024359917157994
 51
270.0
  0
LINE
  5
2EE3B
  8
0
 10
6512.6544626544018683
 20
221.2489538566042029
 30
0.0
 11
6527.2113445065097039
 21
221.2489538566042029
 31
0.0
  0
LINE
  5
2EE3C
  8
0
 10
6511.496480782382605
 20
221.2437909428250862
 30
0.0
 11
6511.6063937595090465
 21
221.2437909428250862
 31
0.0
  0
LINE
  5
2EE3D
  8
0
 10
6513.7827230464672539
 20
217.4835537287042087
 30
0.0
 11
6513.937316235444996
 21
217.4835537287042087
 31
0.0
  0
LINE
  5
2EE3E
  8
0
 10
6512.9328470997470504
 20
217.6278209134075041
 30
0.0
 11
6526.9329600611636124
 21
217.6278209134075041
 31
0.0
  0
ARC
  5
2EE3F
  8
0
 10
6511.2071619588023168
 20
408.6689554242810232
 30
0.0
 40
187.4255896800954986
 50
270.1220447782341125
 51
270.442442495845512
  0
LINE
  5
2EE40
  8
0
 10
6511.4490732088215736
 20
221.1294462285565032
 30
0.0
 11
6512.1440643926998746
 21
220.433532309085507
 31
0.0
  0
ARC
  5
2EE41
  8
0
 10
6511.496480782382605
 20
221.1767909428251073
 30
0.0
 40
0.067
 50
90.0
 51
224.961989608572992
  0
LINE
  5
2EE42
  8
0
 10
6512.2889113339606411
 20
220.1332371271606121
 30
0.0
 11
6512.5354489130668298
 21
217.9822722446758974
 31
0.0
  0
ARC
  5
2EE43
  8
0
 10
6511.7856065305322772
 20
220.075549738212203
 30
0.0
 40
0.5066000000000001
 50
6.5385490957412591
 51
44.961989608575287
  0
ARC
  5
2EE44
  8
0
 10
6512.4429055705059
 20
218.4481261045042118
 30
0.0
 40
0.0389999999999897
 50
317.8774773783184173
 51
2.309938173776207
  0
ARC
  5
2EE45
  8
0
 10
6512.4866670598376004
 20
218.4085533064435936
 30
0.0
 40
0.0200006296144222
 50
137.8774773783111982
 51
235.5141320888768064
  0
ARC
  5
2EE46
  8
0
 10
6512.4536153738226858
 20
218.3605499968404047
 30
0.0
 40
0.0382808752162982
 50
9.6031274727211695
 51
55.4186992181877827
  0
ARC
  5
2EE47
  8
0
 10
6512.9328470997470504
 20
218.0278209134075098
 30
0.0
 40
0.4
 50
186.5385490957395973
 51
270.0
  0
LINE
  5
2EE48
  8
0
 10
6512.1225635073196827
 20
220.0367112317680096
 30
0.0
 11
6512.086409464348435
 21
220.4499538339530034
 31
0.0
  0
LINE
  5
2EE49
  8
0
 10
6512.2782941435825705
 20
220.0038028210202867
 30
0.0
 11
6512.1511407666303057
 21
220.0093544574031057
 31
0.0
  0
ARC
  5
2EE4A
  8
0
 10
6512.276985561949914
 20
219.9738313743733045
 30
0.0
 40
0.03
 50
6.5385490957283174
 51
87.4999999769794243
  0
ARC
  5
2EE4B
  8
0
 10
6512.1524493482620528
 20
220.0393259040500027
 30
0.0
 40
0.03
 50
184.9999999992847961
 51
267.4999999770315071
  0
ARC
  5
2EE4C
  8
0
 10
6511.9618851270852247
 20
220.4390593661109961
 30
0.0
 40
0.125
 50
4.999999999312438
 51
44.9619896085672224
  0
LINE
  5
2EE4D
  8
0
 10
6513.7377847174029739
 20
217.5261986106503116
 30
0.0
 11
6513.7334522175078746
 21
217.6088676325425126
 31
0.0
  0
LINE
  5
2EE4E
  8
0
 10
6513.9822545645120044
 20
217.5261986106970937
 30
0.0
 11
6513.9865870643161543
 21
217.6088676325217079
 31
0.0
  0
ARC
  5
2EE4F
  8
0
 10
6513.937316235444996
 20
217.5285537287041961
 30
0.0
 40
0.045
 50
270.0
 51
357.0000000305129788
  0
ARC
  5
2EE50
  8
0
 10
6513.7827230464672539
 20
217.5285537287041961
 30
0.0
 40
0.045
 50
183.0000000291960021
 51
270.0
  0
ARC
  5
2EE51
  8
0
 10
6513.7134796268137507
 20
217.6078209134074939
 30
0.0
 40
0.02
 50
3.000000029217162
 51
90.0
  0
ARC
  5
2EE52
  8
0
 10
6514.0065596550120972
 20
217.6078209134074939
 30
0.0
 40
0.02
 50
90.0
 51
177.000000030504907
  0
ARC
  5
2EE53
  8
0
 10
6515.181246258104693
 20
903.0629871936364452
 30
0.0
 40
685.4388539267235956
 50
269.8120561553661787
 51
269.8780610416317245
  0
ARC
  5
2EE54
  8
0
 10
6519.9137223992893269
 20
2912.959897668738904
 30
0.0
 40
2695.3413217608540435
 50
269.8742142116025775
 51
270.000407740855394
  0
LINE
  5
2EE55
  8
0
 10
6528.3693263785280578
 20
221.2437909428250862
 30
0.0
 11
6528.2594134014043448
 21
221.2437909428250862
 31
0.0
  0
LINE
  5
2EE56
  8
0
 10
6526.0830841144452279
 20
217.4835537287042087
 30
0.0
 11
6525.9284909254656668
 21
217.4835537287042087
 31
0.0
  0
ARC
  5
2EE57
  8
0
 10
6528.658645202110165
 20
408.6689554242810232
 30
0.0
 40
187.4255896800954986
 50
269.557557504154488
 51
269.8779552217658875
  0
LINE
  5
2EE58
  8
0
 10
6528.4167339520881796
 20
221.1294462285565032
 30
0.0
 11
6527.7217427682107882
 21
220.433532309085507
 31
0.0
  0
ARC
  5
2EE59
  8
0
 10
6528.3693263785280578
 20
221.1767909428251073
 30
0.0
 40
0.067
 50
315.0380103914258143
 51
90.0
  0
LINE
  5
2EE5A
  8
0
 10
6527.5768958269500217
 20
220.1332371271606121
 30
0.0
 11
6527.3303582478429234
 21
217.9822722446758974
 31
0.0
  0
ARC
  5
2EE5B
  8
0
 10
6528.0802006303802045
 20
220.075549738212203
 30
0.0
 40
0.5066000000000001
 50
135.0380103914247059
 51
173.4614509042571058
  0
ARC
  5
2EE5C
  8
0
 10
6527.4229015904047628
 20
218.4481261045042118
 30
0.0
 40
0.0389999999999897
 50
177.690061826223797
 51
222.1225226216816111
  0
ARC
  5
2EE5D
  8
0
 10
6527.3791401010739719
 20
218.4085533064435936
 30
0.0
 40
0.0200006296144222
 50
304.4858679111230799
 51
42.1225226216888089
  0
ARC
  5
2EE5E
  8
0
 10
6527.4121917870888865
 20
218.3605499968404047
 30
0.0
 40
0.0382808752162982
 50
124.5813007818122031
 51
170.3968725272787879
  0
ARC
  5
2EE5F
  8
0
 10
6526.9329600611636124
 20
218.0278209134075098
 30
0.0
 40
0.4
 50
270.0
 51
353.4614509042588111
  0
LINE
  5
2EE60
  8
0
 10
6527.7432436535918896
 20
220.0367112317680096
 30
0.0
 11
6527.7793976965622278
 21
220.4499538339530034
 31
0.0
  0
LINE
  5
2EE61
  8
0
 10
6527.5875130173290017
 20
220.0038028210202867
 30
0.0
 11
6527.7146663942812665
 21
220.0093544574031057
 31
0.0
  0
ARC
  5
2EE62
  8
0
 10
6527.5888215989616583
 20
219.9738313743733045
 30
0.0
 40
0.03
 50
92.5000000230205757
 51
173.4614509042716861
  0
ARC
  5
2EE63
  8
0
 10
6527.7133578126477005
 20
220.0393259040500027
 30
0.0
 40
0.03
 50
272.5000000229686066
 51
355.0000000007134986
  0
ARC
  5
2EE64
  8
0
 10
6527.9039220338254381
 20
220.4390593661109961
 30
0.0
 40
0.125
 50
135.0380103914338861
 51
175.0000000006876064
  0
LINE
  5
2EE65
  8
0
 10
6526.1280224435076889
 20
217.5261986106503116
 30
0.0
 11
6526.1323549434036977
 21
217.6088676325425126
 31
0.0
  0
LINE
  5
2EE66
  8
0
 10
6525.8835525963995678
 20
217.5261986106970937
 30
0.0
 11
6525.879220096595418
 21
217.6088676325217079
 31
0.0
  0
ARC
  5
2EE67
  8
0
 10
6525.9284909254656668
 20
217.5285537287041961
 30
0.0
 40
0.045
 50
182.9999999694852875
 51
270.0
  0
ARC
  5
2EE68
  8
0
 10
6526.0830841144452279
 20
217.5285537287041961
 30
0.0
 40
0.045
 50
270.0
 51
356.9999999708040264
  0
ARC
  5
2EE69
  8
0
 10
6526.1523275340978216
 20
217.6078209134074939
 30
0.0
 40
0.02
 50
90.0
 51
176.9999999707812037
  0
ARC
  5
2EE6A
  8
0
 10
6525.8592475059003846
 20
217.6078209134074939
 30
0.0
 40
0.02
 50
2.9999999694951289
 51
90.0
  0
ARC
  5
2EE6B
  8
0
 10
6524.6845609028068793
 20
903.0629871936364452
 30
0.0
 40
685.4388539267235956
 50
270.1219389583682755
 51
270.1879438446338213
  0
ARC
  5
2EE6C
  8
0
 10
6519.9520847616231549
 20
2912.959897668738904
 30
0.0
 40
2695.3413217608540435
 50
269.9995922591447197
 51
270.1257857883451834
  0
ENDSEC
  0
EOF
