  0
SECTION
  2
HEADER
  9
$ACADVER
  1
AC1009
  9
$INSBASE
 10
236.0737937456198949
 20
20.5252489196898686
 30
0.0
  9
$EXTMIN
 10
227.3565711368360098
 20
9.5866879169755634
 30
-0.0000000000112498
  9
$EXTMAX
 10
244.7945257147692928
 20
31.4628526045075887
 30
0.0000000000002956
  9
$LIMMIN
 10
0.0
 20
0.0
  9
$LIMMAX
 10
11.6929133858000007
 20
8.2677165353999982
  9
$ORTHOMODE
 70
     0
  9
$REGENMODE
 70
     1
  9
$FILLMODE
 70
     1
  9
$QTEXTMODE
 70
     0
  9
$MIRRTEXT
 70
     0
  9
$DRAGMODE
 70
     2
  9
$LTSCALE
 40
0.6431102362
  9
$OSMODE
 70
  4095
  9
$ATTMODE
 70
     1
  9
$TEXTSIZE
 40
0.2
  9
$TRACEWID
 40
0.05
  9
$TEXTSTYLE
  7
STANDARD
  9
$CLAYER
  8
0
  9
$CELTYPE
  6
BYLAYER
  9
$CECOLOR
 62
   256
  9
$DIMSCALE
 40
1.0
  9
$DIMASZ
 40
0.1875
  9
$DIMEXO
 40
0.0625
  9
$DIMDLI
 40
0.4443307087
  9
$DIMRND
 40
0.0
  9
$DIMDLE
 40
0.0
  9
$DIMEXE
 40
0.125
  9
$DIMTP
 40
0.01
  9
$DIMTM
 40
0.01
  9
$DIMTXT
 40
1.0
  9
$DIMCEN
 40
0.1052362205
  9
$DIMTSZ
 40
0.0
  9
$DIMTOL
 70
     1
  9
$DIMLIM
 70
     0
  9
$DIMTIH
 70
     1
  9
$DIMTOH
 70
     1
  9
$DIMSE1
 70
     0
  9
$DIMSE2
 70
     0
  9
$DIMTAD
 70
     0
  9
$DIMZIN
 70
     0
  9
$DIMBLK
  1

  9
$DIMASO
 70
     1
  9
$DIMSHO
 70
     1
  9
$DIMPOST
  1
\X
  9
$DIMAPOST
  1

  9
$DIMALT
 70
     1
  9
$DIMALTD
 70
     2
  9
$DIMALTF
 40
25.3999999999999986
  9
$DIMLFAC
 40
1.0
  9
$DIMTOFL
 70
     0
  9
$DIMTVP
 40
0.0
  9
$DIMTIX
 70
     0
  9
$DIMSOXD
 70
     0
  9
$DIMSAH
 70
     0
  9
$DIMBLK1
  1

  9
$DIMBLK2
  1

  9
$DIMSTYLE
  2
STANDARD
  9
$DIMCLRD
 70
     0
  9
$DIMCLRE
 70
     0
  9
$DIMCLRT
 70
     0
  9
$DIMTFAC
 40
1.0
  9
$DIMGAP
 40
0.09
  9
$LUNITS
 70
     2
  9
$LUPREC
 70
     4
  9
$SKETCHINC
 40
0.1
  9
$FILLETRAD
 40
0.0
  9
$AUNITS
 70
     0
  9
$AUPREC
 70
     0
  9
$MENU
  1
.
  9
$ELEVATION
 40
0.0
  9
$PELEVATION
 40
0.0
  9
$THICKNESS
 40
0.0
  9
$LIMCHECK
 70
     0
  9
$BLIPMODE
 70
     0
  9
$CHAMFERA
 40
0.0
  9
$CHAMFERB
 40
0.0
  9
$SKPOLY
 70
     0
  9
$TDCREATE
 40
2458172.4620254631154239
  9
$TDUPDATE
 40
2460493.4792361110448837
  9
$TDINDWG
 40
0.0882458565
  9
$TDUSRTIMER
 40
0.0882458565
  9
$USRTIMER
 70
     1
  9
$ANGBASE
 50
0.0
  9
$ANGDIR
 70
     0
  9
$PDMODE
 70
     0
  9
$PDSIZE
 40
0.3125
  9
$PLINEWID
 40
0.0
  9
$COORDS
 70
     1
  9
$SPLFRAME
 70
     0
  9
$SPLINETYPE
 70
     6
  9
$SPLINESEGS
 70
     8
  9
$ATTDIA
 70
     1
  9
$ATTREQ
 70
     1
  9
$HANDLING
 70
     1
  9
$HANDSEED
  5
3DB7
  9
$SURFTAB1
 70
     6
  9
$SURFTAB2
 70
     6
  9
$SURFTYPE
 70
     6
  9
$SURFU
 70
     6
  9
$SURFV
 70
     6
  9
$UCSNAME
  2

  9
$UCSORG
 10
0.0
 20
0.0
 30
0.0
  9
$UCSXDIR
 10
1.0
 20
0.0
 30
0.0
  9
$UCSYDIR
 10
0.0
 20
1.0
 30
0.0
  9
$PUCSNAME
  2

  9
$PUCSORG
 10
0.0
 20
0.0
 30
0.0
  9
$PUCSXDIR
 10
1.0
 20
0.0
 30
0.0
  9
$PUCSYDIR
 10
0.0
 20
1.0
 30
0.0
  9
$USERI1
 70
     0
  9
$USERI2
 70
     0
  9
$USERI3
 70
     0
  9
$USERI4
 70
     0
  9
$USERI5
 70
     0
  9
$USERR1
 40
0.0
  9
$USERR2
 40
0.0
  9
$USERR3
 40
0.0
  9
$USERR4
 40
0.0
  9
$USERR5
 40
0.0
  9
$WORLDVIEW
 70
     1
  9
$SHADEDGE
 70
     3
  9
$SHADEDIF
 70
    70
  9
$TILEMODE
 70
     1
  9
$MAXACTVP
 70
    64
  9
$PLIMCHECK
 70
     0
  9
$PEXTMIN
 10
1.0000000000000000E+20
 20
1.0000000000000000E+20
 30
1.0000000000000000E+20
  9
$PEXTMAX
 10
-1.0000000000000000E+20
 20
-1.0000000000000000E+20
 30
-1.0000000000000000E+20
  9
$PLIMMIN
 10
0.0
 20
0.0
  9
$PLIMMAX
 10
12.0
 20
9.0
  9
$UNITMODE
 70
     0
  9
$VISRETAIN
 70
     1
  9
$PLINEGEN
 70
     0
  9
$PSLTSCALE
 70
     1
  0
ENDSEC
  0
SECTION
  2
TABLES
  0
TABLE
  2
VPORT
 70
     1
  0
VPORT
  2
*ACTIVE
 70
     0
 10
0.0
 20
0.0
 11
1.0
 21
1.0
 12
69.3756134783667733
 22
7.3564795049693581
 13
0.0
 23
0.0
 14
1.0
 24
1.0
 15
0.0
 25
0.0
 16
0.0
 26
0.0
 36
16.5150948445327401
 17
166.6999349474359065
 27
13.1682907557722206
 37
0.0
 40
22.0495556890184083
 41
2.5251322751322749
 42
50.0
 43
0.0
 44
0.0
 50
0.0
 51
0.0
 71
     0
 72
   100
 73
     1
 74
     1
 75
     0
 76
     0
 77
     0
 78
     0
  0
ENDTAB
  0
TABLE
  2
LTYPE
 70
     2
  0
LTYPE
  2
CONTINUOUS
 70
     0
  3
Solid line
 72
    65
 73
     0
 40
0.0
  0
LTYPE
  2
PHANTOM2
 70
     0
  3
___ _ _ ___ _ _ ___ _ _ ___ _ _
 72
    65
 73
     6
 40
1.25
 49
0.625
 49
-0.125
 49
0.125
 49
-0.125
 49
0.125
 49
-0.125
  0
ENDTAB
  0
TABLE
  2
LAYER
 70
     2
  0
LAYER
  2
0
 70
     0
 62
   255
  6
CONTINUOUS
  0
LAYER
  2
DEFPOINTS
 70
     0
 62
     7
  6
CONTINUOUS
  0
ENDTAB
  0
TABLE
  2
STYLE
 70
     1
  0
STYLE
  2
STANDARD
 70
     0
 40
0.0
 41
0.8
 50
0.0
 71
     0
 42
0.2
  3
txt
  4

  0
ENDTAB
  0
TABLE
  2
VIEW
 70
     0
  0
ENDTAB
  0
TABLE
  2
UCS
 70
     0
  0
ENDTAB
  0
TABLE
  2
APPID
 70
     9
  0
APPID
  2
ACAD
 70
     0
  0
APPID
  2
ACAD_MLEADERVER
 70
     0
  0
APPID
  2
ACAD_EXEMPT_FROM_CAD_STANDARDS
 70
     0
  0
APPID
  2
ACAD_DSTYLE_DIMJAG
 70
     0
  0
APPID
  2
ACAD_DSTYLE_DIMTALN
 70
     0
  0
APPID
  2
ACAD_NAV_VCDISPLAY
 70
     0
  0
APPID
  2
ACAECLAYERSTANDARD
 70
     0
  0
APPID
  2
ACCMTRANSPARENCY
 70
     0
  0
APPID
  2
ACDBATTR
 70
     0
  0
ENDTAB
  0
TABLE
  2
DIMSTYLE
 70
     1
  0
DIMSTYLE
  2
STANDARD
 70
     0
  3

  4

  5

  6

  7

 40
1.0
 41
0.1875
 42
0.0625
 43
0.38
 44
0.125
 45
0.0
 46
0.0
 47
0.01
 48
0.01
140
0.15625
141
0.09
142
0.0
143
25.3999999999999986
144
1.0
145
0.0
146
1.0
147
0.09
 71
     1
 72
     0
 73
     1
 74
     1
 75
     0
 76
     0
 77
     0
 78
     4
170
     0
171
     2
172
     0
173
     0
174
     0
175
     0
176
     0
177
     0
178
     0
  0
ENDTAB
  0
ENDSEC
  0
SECTION
  2
BLOCKS
  0
BLOCK
  8
0
  2
$MODEL_SPACE
 70
     0
 10
0.0
 20
0.0
 30
0.0
  3
$MODEL_SPACE
  1

  0
ENDBLK
  5
21
  8
0
  0
BLOCK
 67
     1
  8
0
  2
$PAPER_SPACE
 70
     0
 10
0.0
 20
0.0
 30
0.0
  3
$PAPER_SPACE
  1

  0
ENDBLK
  5
1D
 67
     1
  8
0
  0
BLOCK
  8
0
  2
_FILLED
 70
     0
 10
0.0
 20
0.0
 30
0.0
  3
_FILLED
  1

  0
SOLID
  5
252B
  8
0
  6
BYBLOCK
 62
     0
 10
0.0
 20
0.0
 30
0.0
 11
-1.0
 21
0.1666666667
 31
0.0
 12
-1.0
 22
-0.1666666667
 32
0.0
 13
-1.0
 23
-0.1666666667
 33
0.0
  0
ENDBLK
  5
252C
  8
0
  6
BYBLOCK
 62
     0
  0
ENDSEC
  0
SECTION
  2
ENTITIES
  0
ATTDEF
  5
157D
  8
DEFPOINTS
 10
236.0701839780236924
 20
20.529231122836169
 30
0.0
 40
0.001
  1
K-35003
  3

  2
MODELNUMBER
 70
     0
1001
ACDBATTR
1070
     0
1070
     1
  0
ATTDEF
  5
157E
  8
DEFPOINTS
 10
236.0701839780236924
 20
20.527564456169511
 30
0.0
 40
0.001
  1
BEVEL
  3

  2
TRADENAME
 70
     0
1001
ACDBATTR
1070
     0
1070
     1
  0
ATTDEF
  5
157F
  8
DEFPOINTS
 10
236.0701839780236924
 20
20.5258977895028387
 30
0.0
 40
0.001
  1
SINK COVER
  3

  2
PRODUCT
 70
     0
1001
ACDBATTR
1070
     0
1070
     1
  0
LINE
  5
3BEA
  8
0
 10
227.3637937456699092
 20
11.2477489196898706
 30
0.0
 11
227.3637937456699092
 21
29.8027489196898685
 31
0.0
  0
LINE
  5
3BEB
  8
0
 10
229.0237937456699058
 20
9.5877489196898757
 30
0.0
 11
233.4059738193616056
 21
9.5877489196898757
 31
0.0
  0
LINE
  5
3BEC
  8
0
 10
229.0237937456699058
 20
31.4627489196898793
 30
0.0
 11
233.4059738193791986
 21
31.4627489196898793
 31
0.0
  0
LINE
  5
3BED
  8
0
 10
233.9630277505214906
 20
30.5877489196898793
 30
0.0
 11
238.1845597407182993
 21
30.5877489196898793
 31
0.0
  0
LINE
  5
3BEE
  8
0
 10
233.6029353699775868
 20
31.2974785552461583
 30
0.0
 11
233.6872815796837983
 21
30.8191274299110702
 31
0.0
  0
LINE
  5
3BEF
  8
0
 10
233.9630277505214906
 20
10.4627489196898704
 30
0.0
 11
238.1845597407182993
 21
10.4627489196898704
 31
0.0
  0
LINE
  5
3BF0
  8
0
 10
233.6872815796855036
 20
10.23137040947854
 30
0.0
 11
233.6029353699586864
 21
9.7530192841265446
 31
0.0
  0
ARC
  5
3BF1
  8
0
 10
229.0237937456699058
 20
11.2477489196898706
 30
0.0
 40
1.659999999999999
 50
180.0
 51
270.0
  0
ARC
  5
3BF2
  8
0
 10
229.0237937456699058
 20
29.8027489196898685
 30
0.0
 40
1.659999999999999
 50
90.0
 51
179.9999999999998863
  0
ARC
  5
3BF3
  8
0
 10
233.4059738193791986
 20
31.26274891968988
 30
0.0
 40
0.2
 50
10.0000000066588992
 51
90.0000000000032543
  0
ARC
  5
3BF4
  8
0
 10
233.9630277505216043
 20
30.8677489196898804
 30
0.0
 40
0.28
 50
190.000000006663214
 51
269.9999999999984084
  0
ARC
  5
3BF5
  8
0
 10
233.9630277505214906
 20
10.1827489196898693
 30
0.0
 40
0.28
 50
90.0
 51
169.9999999912890019
  0
ARC
  5
3BF6
  8
0
 10
233.4059738193616056
 20
9.787748919689875
 30
0.0
 40
0.2
 50
270.0
 51
349.9999999912890871
  0
LINE
  5
3BF7
  8
0
 10
228.1157937456698903
 20
28.0827489196898803
 30
0.0
 11
228.3357937456698892
 21
28.0827489196898803
 31
0.0
  0
LINE
  5
3BF8
  8
0
 10
228.1157937456698903
 20
28.1927489196898691
 30
0.0
 11
228.3357937456698892
 21
28.1927489196898691
 31
0.0
  0
LINE
  5
3BF9
  8
0
 10
228.0077937456698862
 20
27.9747489196898691
 30
0.0
 11
228.0077937456698862
 21
22.1907488941898805
 31
0.0
  0
LINE
  5
3BFA
  8
0
 10
227.897793745669901
 20
27.9747489196898691
 30
0.0
 11
227.897793745669901
 21
22.1907488941898912
 31
0.0
  0
LINE
  5
3BFB
  8
0
 10
228.4437937456698933
 20
27.9747489196898691
 30
0.0
 11
228.4437937456698933
 21
22.1907488941898805
 31
0.0
  0
LINE
  5
3BFC
  8
0
 10
228.5537937456699069
 20
27.9747489196898691
 30
0.0
 11
228.5537937456699069
 21
22.1907488941898912
 31
0.0
  0
ARC
  5
3BFD
  8
0
 10
228.1157937456698903
 20
27.9747489196898798
 30
0.0
 40
0.108
 50
89.9999999999983658
 51
180.0000000000017906
  0
ARC
  5
3BFE
  8
0
 10
228.3357937456698892
 20
27.9747489196898798
 30
0.0
 40
0.108
 50
359.9999999999980105
 51
90.0000000000032543
  0
ARC
  5
3BFF
  8
0
 10
228.1157937456698903
 20
27.9747489196898691
 30
0.0
 40
0.218
 50
90.0
 51
179.9999999999990905
  0
ARC
  5
3C00
  8
0
 10
228.3357937456698892
 20
27.9747489196898691
 30
0.0
 40
0.218
 50
0.000000000000916
 51
90.0000000000016058
  0
LINE
  5
3C01
  8
0
 10
228.1157937456698903
 20
22.08274889418988
 30
0.0
 11
228.3357937456698892
 21
22.08274889418988
 31
0.0
  0
LINE
  5
3C02
  8
0
 10
228.1157937456698903
 20
21.9727488941898805
 30
0.0
 11
228.3357937456698892
 21
21.9727488941898805
 31
0.0
  0
ARC
  5
3C03
  8
0
 10
228.1157937456698903
 20
22.1907488941898805
 30
0.0
 40
0.108
 50
179.9999999999978968
 51
270.0000000000017053
  0
ARC
  5
3C04
  8
0
 10
228.3357937456698892
 20
22.1907488941898805
 30
0.0
 40
0.108
 50
269.9999999999968168
 51
0.0000000000020356
  0
ARC
  5
3C05
  8
0
 10
228.1157937456698903
 20
22.1907488941898912
 30
0.0
 40
0.218
 50
180.0000000000007958
 51
270.0
  0
ARC
  5
3C06
  8
0
 10
228.3357937456698892
 20
22.1907488941898912
 30
0.0
 40
0.218
 50
269.9999999999984084
 51
359.9999999999992042
  0
LINE
  5
3C07
  8
0
 10
228.9877937456699044
 20
28.0827489196898803
 30
0.0
 11
229.2077937456699033
 21
28.0827489196898803
 31
0.0
  0
LINE
  5
3C08
  8
0
 10
228.9877937456699044
 20
28.1927489196898691
 30
0.0
 11
229.2077937456699033
 21
28.1927489196898691
 31
0.0
  0
LINE
  5
3C09
  8
0
 10
228.8797937456699003
 20
27.9747489196898691
 30
0.0
 11
228.8797937456699003
 21
22.1907488941898805
 31
0.0
  0
LINE
  5
3C0A
  8
0
 10
228.7697937456698867
 20
27.9747489196898691
 30
0.0
 11
228.7697937456698867
 21
22.1907488941898912
 31
0.0
  0
LINE
  5
3C0B
  8
0
 10
229.3157937456699074
 20
27.9747489196898691
 30
0.0
 11
229.3157937456699074
 21
22.1907488941898805
 31
0.0
  0
LINE
  5
3C0C
  8
0
 10
229.4257937456698926
 20
27.9747489196898691
 30
0.0
 11
229.4257937456698926
 21
22.1907488941898912
 31
0.0
  0
ARC
  5
3C0D
  8
0
 10
228.9877937456699044
 20
27.9747489196898798
 30
0.0
 40
0.108
 50
89.9999999999983658
 51
180.0000000000017906
  0
ARC
  5
3C0E
  8
0
 10
229.2077937456699033
 20
27.9747489196898798
 30
0.0
 40
0.108
 50
359.9999999999980105
 51
90.0000000000032543
  0
ARC
  5
3C0F
  8
0
 10
228.9877937456699044
 20
27.9747489196898691
 30
0.0
 40
0.218
 50
90.0
 51
179.9999999999990905
  0
ARC
  5
3C10
  8
0
 10
229.2077937456699033
 20
27.9747489196898691
 30
0.0
 40
0.218
 50
0.000000000000916
 51
90.0000000000016058
  0
LINE
  5
3C11
  8
0
 10
228.9877937456699044
 20
22.08274889418988
 30
0.0
 11
229.2077937456699033
 21
22.08274889418988
 31
0.0
  0
LINE
  5
3C12
  8
0
 10
228.9877937456699044
 20
21.9727488941898805
 30
0.0
 11
229.2077937456699033
 21
21.9727488941898805
 31
0.0
  0
ARC
  5
3C13
  8
0
 10
228.9877937456699044
 20
22.1907488941898805
 30
0.0
 40
0.108
 50
179.9999999999978968
 51
270.0000000000017053
  0
ARC
  5
3C14
  8
0
 10
229.2077937456699033
 20
22.1907488941898805
 30
0.0
 40
0.108
 50
269.9999999999968168
 51
0.0000000000020356
  0
ARC
  5
3C15
  8
0
 10
228.9877937456699044
 20
22.1907488941898912
 30
0.0
 40
0.218
 50
180.0000000000007958
 51
270.0
  0
ARC
  5
3C16
  8
0
 10
229.2077937456699033
 20
22.1907488941898912
 30
0.0
 40
0.218
 50
269.9999999999984084
 51
359.9999999999992042
  0
LINE
  5
3C17
  8
0
 10
229.8597937456698901
 20
28.0827489196898803
 30
0.0
 11
230.0797937456698889
 21
28.0827489196898803
 31
0.0
  0
LINE
  5
3C18
  8
0
 10
229.8597937456698901
 20
28.1927489196898691
 30
0.0
 11
230.0797937456698889
 21
28.1927489196898691
 31
0.0
  0
LINE
  5
3C19
  8
0
 10
229.751793745669886
 20
27.9747489196898691
 30
0.0
 11
229.751793745669886
 21
22.1907488941898805
 31
0.0
  0
LINE
  5
3C1A
  8
0
 10
229.6417937456699008
 20
27.9747489196898691
 30
0.0
 11
229.6417937456699008
 21
22.1907488941898912
 31
0.0
  0
LINE
  5
3C1B
  8
0
 10
230.187793745669893
 20
27.9747489196898691
 30
0.0
 11
230.187793745669893
 21
22.1907488941898805
 31
0.0
  0
LINE
  5
3C1C
  8
0
 10
230.2977937456699067
 20
27.9747489196898691
 30
0.0
 11
230.2977937456699067
 21
22.1907488941898912
 31
0.0
  0
ARC
  5
3C1D
  8
0
 10
229.8597937456698901
 20
27.9747489196898798
 30
0.0
 40
0.108
 50
89.9999999999983658
 51
180.0000000000017906
  0
ARC
  5
3C1E
  8
0
 10
230.0797937456698889
 20
27.9747489196898798
 30
0.0
 40
0.108
 50
359.9999999999980105
 51
90.0000000000032543
  0
ARC
  5
3C1F
  8
0
 10
229.8597937456698901
 20
27.9747489196898691
 30
0.0
 40
0.218
 50
90.0
 51
179.9999999999990905
  0
ARC
  5
3C20
  8
0
 10
230.0797937456698889
 20
27.9747489196898691
 30
0.0
 40
0.218
 50
0.000000000000916
 51
90.0000000000016058
  0
LINE
  5
3C21
  8
0
 10
229.8597937456698901
 20
22.08274889418988
 30
0.0
 11
230.0797937456698889
 21
22.08274889418988
 31
0.0
  0
LINE
  5
3C22
  8
0
 10
229.8597937456698901
 20
21.9727488941898805
 30
0.0
 11
230.0797937456698889
 21
21.9727488941898805
 31
0.0
  0
ARC
  5
3C23
  8
0
 10
229.8597937456698901
 20
22.1907488941898805
 30
0.0
 40
0.108
 50
179.9999999999978968
 51
270.0000000000017053
  0
ARC
  5
3C24
  8
0
 10
230.0797937456698889
 20
22.1907488941898805
 30
0.0
 40
0.108
 50
269.9999999999968168
 51
0.0000000000020356
  0
ARC
  5
3C25
  8
0
 10
229.8597937456698901
 20
22.1907488941898912
 30
0.0
 40
0.218
 50
180.0000000000007958
 51
270.0
  0
ARC
  5
3C26
  8
0
 10
230.0797937456698889
 20
22.1907488941898912
 30
0.0
 40
0.218
 50
269.9999999999984084
 51
359.9999999999992042
  0
LINE
  5
3C27
  8
0
 10
230.7317937456699042
 20
28.0827489196898803
 30
0.0
 11
230.951793745669903
 21
28.0827489196898803
 31
0.0
  0
LINE
  5
3C28
  8
0
 10
230.7317937456699042
 20
28.1927489196898691
 30
0.0
 11
230.951793745669903
 21
28.1927489196898691
 31
0.0
  0
LINE
  5
3C29
  8
0
 10
230.6237937456699001
 20
27.9747489196898691
 30
0.0
 11
230.6237937456699001
 21
22.1907488941898805
 31
0.0
  0
LINE
  5
3C2A
  8
0
 10
230.5137937456698864
 20
27.9747489196898691
 30
0.0
 11
230.5137937456698864
 21
22.1907488941898912
 31
0.0
  0
LINE
  5
3C2B
  8
0
 10
231.0597937456699071
 20
27.9747489196898691
 30
0.0
 11
231.0597937456699071
 21
22.1907488941898805
 31
0.0
  0
LINE
  5
3C2C
  8
0
 10
231.1697937456698924
 20
27.9747489196898691
 30
0.0
 11
231.1697937456698924
 21
22.1907488941898912
 31
0.0
  0
ARC
  5
3C2D
  8
0
 10
230.7317937456699042
 20
27.9747489196898798
 30
0.0
 40
0.108
 50
89.9999999999983658
 51
180.0000000000017906
  0
ARC
  5
3C2E
  8
0
 10
230.951793745669903
 20
27.9747489196898798
 30
0.0
 40
0.108
 50
359.9999999999980105
 51
90.0000000000032543
  0
ARC
  5
3C2F
  8
0
 10
230.7317937456699042
 20
27.9747489196898691
 30
0.0
 40
0.218
 50
90.0
 51
179.9999999999990905
  0
ARC
  5
3C30
  8
0
 10
230.951793745669903
 20
27.9747489196898691
 30
0.0
 40
0.218
 50
0.000000000000916
 51
90.0000000000016058
  0
LINE
  5
3C31
  8
0
 10
230.7317937456699042
 20
22.08274889418988
 30
0.0
 11
230.951793745669903
 21
22.08274889418988
 31
0.0
  0
LINE
  5
3C32
  8
0
 10
230.7317937456699042
 20
21.9727488941898805
 30
0.0
 11
230.951793745669903
 21
21.9727488941898805
 31
0.0
  0
ARC
  5
3C33
  8
0
 10
230.7317937456699042
 20
22.1907488941898805
 30
0.0
 40
0.108
 50
179.9999999999978968
 51
270.0000000000017053
  0
ARC
  5
3C34
  8
0
 10
230.951793745669903
 20
22.1907488941898805
 30
0.0
 40
0.108
 50
269.9999999999968168
 51
0.0000000000020356
  0
ARC
  5
3C35
  8
0
 10
230.7317937456699042
 20
22.1907488941898912
 30
0.0
 40
0.218
 50
180.0000000000007958
 51
270.0
  0
ARC
  5
3C36
  8
0
 10
230.951793745669903
 20
22.1907488941898912
 30
0.0
 40
0.218
 50
269.9999999999984084
 51
359.9999999999992042
  0
LINE
  5
3C37
  8
0
 10
231.6037937456698899
 20
28.0827489196898803
 30
0.0
 11
231.8237937456698887
 21
28.0827489196898803
 31
0.0
  0
LINE
  5
3C38
  8
0
 10
231.6037937456698899
 20
28.1927489196898691
 30
0.0
 11
231.8237937456698887
 21
28.1927489196898691
 31
0.0
  0
LINE
  5
3C39
  8
0
 10
231.4957937456699142
 20
27.9747489196898691
 30
0.0
 11
231.4957937456699142
 21
22.1907488941898805
 31
0.0
  0
LINE
  5
3C3A
  8
0
 10
231.3857937456699005
 20
27.9747489196898691
 30
0.0
 11
231.3857937456699005
 21
22.1907488941898912
 31
0.0
  0
LINE
  5
3C3B
  8
0
 10
231.9317937456698928
 20
27.9747489196898691
 30
0.0
 11
231.9317937456698928
 21
22.1907488941898805
 31
0.0
  0
LINE
  5
3C3C
  8
0
 10
232.0417937456699065
 20
27.9747489196898691
 30
0.0
 11
232.0417937456699065
 21
22.1907488941898912
 31
0.0
  0
ARC
  5
3C3D
  8
0
 10
231.6037937456698899
 20
27.9747489196898798
 30
0.0
 40
0.108
 50
89.9999999999983658
 51
180.0000000000017906
  0
ARC
  5
3C3E
  8
0
 10
231.8237937456698887
 20
27.9747489196898798
 30
0.0
 40
0.108
 50
359.9999999999980105
 51
90.0000000000032543
  0
ARC
  5
3C3F
  8
0
 10
231.6037937456698899
 20
27.9747489196898691
 30
0.0
 40
0.218
 50
90.0
 51
179.9999999999990905
  0
ARC
  5
3C40
  8
0
 10
231.8237937456698887
 20
27.9747489196898691
 30
0.0
 40
0.218
 50
0.000000000000916
 51
90.0000000000016058
  0
LINE
  5
3C41
  8
0
 10
231.6037937456698899
 20
22.08274889418988
 30
0.0
 11
231.8237937456698887
 21
22.08274889418988
 31
0.0
  0
LINE
  5
3C42
  8
0
 10
231.6037937456698899
 20
21.9727488941898805
 30
0.0
 11
231.8237937456698887
 21
21.9727488941898805
 31
0.0
  0
ARC
  5
3C43
  8
0
 10
231.6037937456698899
 20
22.1907488941898805
 30
0.0
 40
0.108
 50
179.9999999999978968
 51
270.0000000000017053
  0
ARC
  5
3C44
  8
0
 10
231.8237937456698887
 20
22.1907488941898805
 30
0.0
 40
0.108
 50
269.9999999999968168
 51
0.0000000000020356
  0
ARC
  5
3C45
  8
0
 10
231.6037937456698899
 20
22.1907488941898912
 30
0.0
 40
0.218
 50
180.0000000000007958
 51
270.0
  0
ARC
  5
3C46
  8
0
 10
231.8237937456698887
 20
22.1907488941898912
 30
0.0
 40
0.218
 50
269.9999999999984084
 51
359.9999999999992042
  0
LINE
  5
3C47
  8
0
 10
232.475793745669904
 20
28.0827489196898803
 30
0.0
 11
232.6957937456699028
 21
28.0827489196898803
 31
0.0
  0
LINE
  5
3C48
  8
0
 10
232.475793745669904
 20
28.1927489196898691
 30
0.0
 11
232.6957937456699028
 21
28.1927489196898691
 31
0.0
  0
LINE
  5
3C49
  8
0
 10
232.3677937456698999
 20
27.9747489196898691
 30
0.0
 11
232.3677937456698999
 21
22.1907488941898805
 31
0.0
  0
LINE
  5
3C4A
  8
0
 10
232.2577937456698862
 20
27.9747489196898691
 30
0.0
 11
232.2577937456698862
 21
22.1907488941898912
 31
0.0
  0
LINE
  5
3C4B
  8
0
 10
232.8037937456699069
 20
27.9747489196898691
 30
0.0
 11
232.8037937456699069
 21
22.1907488941898805
 31
0.0
  0
LINE
  5
3C4C
  8
0
 10
232.9137937456698921
 20
27.9747489196898691
 30
0.0
 11
232.9137937456698921
 21
22.1907488941898912
 31
0.0
  0
ARC
  5
3C4D
  8
0
 10
232.475793745669904
 20
27.9747489196898798
 30
0.0
 40
0.108
 50
89.9999999999983658
 51
180.0000000000017906
  0
ARC
  5
3C4E
  8
0
 10
232.6957937456699028
 20
27.9747489196898798
 30
0.0
 40
0.108
 50
359.9999999999980105
 51
90.0000000000032543
  0
ARC
  5
3C4F
  8
0
 10
232.475793745669904
 20
27.9747489196898691
 30
0.0
 40
0.218
 50
90.0
 51
179.9999999999990905
  0
ARC
  5
3C50
  8
0
 10
232.6957937456699028
 20
27.9747489196898691
 30
0.0
 40
0.218
 50
0.000000000000916
 51
90.0000000000016058
  0
LINE
  5
3C51
  8
0
 10
232.475793745669904
 20
22.08274889418988
 30
0.0
 11
232.6957937456699028
 21
22.08274889418988
 31
0.0
  0
LINE
  5
3C52
  8
0
 10
232.475793745669904
 20
21.9727488941898805
 30
0.0
 11
232.6957937456699028
 21
21.9727488941898805
 31
0.0
  0
ARC
  5
3C53
  8
0
 10
232.475793745669904
 20
22.1907488941898805
 30
0.0
 40
0.108
 50
179.9999999999978968
 51
270.0000000000017053
  0
ARC
  5
3C54
  8
0
 10
232.6957937456699028
 20
22.1907488941898805
 30
0.0
 40
0.108
 50
269.9999999999968168
 51
0.0000000000020356
  0
ARC
  5
3C55
  8
0
 10
232.475793745669904
 20
22.1907488941898912
 30
0.0
 40
0.218
 50
180.0000000000007958
 51
270.0
  0
ARC
  5
3C56
  8
0
 10
232.6957937456699028
 20
22.1907488941898912
 30
0.0
 40
0.218
 50
269.9999999999984084
 51
359.9999999999992042
  0
LINE
  5
3C57
  8
0
 10
233.3477937456698896
 20
28.0827489196898803
 30
0.0
 11
233.5677937456698885
 21
28.0827489196898803
 31
0.0
  0
LINE
  5
3C58
  8
0
 10
233.3477937456698896
 20
28.1927489196898691
 30
0.0
 11
233.5677937456698885
 21
28.1927489196898691
 31
0.0
  0
LINE
  5
3C59
  8
0
 10
233.239793745669914
 20
27.9747489196898691
 30
0.0
 11
233.239793745669914
 21
22.1907488941898805
 31
0.0
  0
LINE
  5
3C5A
  8
0
 10
233.1297937456699003
 20
27.9747489196898691
 30
0.0
 11
233.1297937456699003
 21
22.1907488941898912
 31
0.0
  0
LINE
  5
3C5B
  8
0
 10
233.6757937456698926
 20
27.9747489196898691
 30
0.0
 11
233.6757937456698926
 21
22.1907488941898805
 31
0.0
  0
LINE
  5
3C5C
  8
0
 10
233.7857937456699062
 20
27.9747489196898691
 30
0.0
 11
233.7857937456699062
 21
22.1907488941898912
 31
0.0
  0
ARC
  5
3C5D
  8
0
 10
233.3477937456698896
 20
27.9747489196898798
 30
0.0
 40
0.108
 50
89.9999999999983658
 51
180.0000000000017906
  0
ARC
  5
3C5E
  8
0
 10
233.5677937456698885
 20
27.9747489196898798
 30
0.0
 40
0.108
 50
359.9999999999980105
 51
90.0000000000032543
  0
ARC
  5
3C5F
  8
0
 10
233.3477937456698896
 20
27.9747489196898691
 30
0.0
 40
0.218
 50
90.0
 51
179.9999999999990905
  0
ARC
  5
3C60
  8
0
 10
233.5677937456698885
 20
27.9747489196898691
 30
0.0
 40
0.218
 50
0.000000000000916
 51
90.0000000000016058
  0
LINE
  5
3C61
  8
0
 10
233.3477937456698896
 20
22.08274889418988
 30
0.0
 11
233.5677937456698885
 21
22.08274889418988
 31
0.0
  0
LINE
  5
3C62
  8
0
 10
233.3477937456698896
 20
21.9727488941898805
 30
0.0
 11
233.5677937456698885
 21
21.9727488941898805
 31
0.0
  0
ARC
  5
3C63
  8
0
 10
233.3477937456698896
 20
22.1907488941898805
 30
0.0
 40
0.108
 50
179.9999999999978968
 51
270.0000000000017053
  0
ARC
  5
3C64
  8
0
 10
233.5677937456698885
 20
22.1907488941898805
 30
0.0
 40
0.108
 50
269.9999999999968168
 51
0.0000000000020356
  0
ARC
  5
3C65
  8
0
 10
233.3477937456698896
 20
22.1907488941898912
 30
0.0
 40
0.218
 50
180.0000000000007958
 51
270.0
  0
ARC
  5
3C66
  8
0
 10
233.5677937456698885
 20
22.1907488941898912
 30
0.0
 40
0.218
 50
269.9999999999984084
 51
359.9999999999992042
  0
LINE
  5
3C67
  8
0
 10
234.2197937456699037
 20
28.0827489196898803
 30
0.0
 11
234.4397937456699026
 21
28.0827489196898803
 31
0.0
  0
LINE
  5
3C68
  8
0
 10
234.2197937456699037
 20
28.1927489196898691
 30
0.0
 11
234.4397937456699026
 21
28.1927489196898691
 31
0.0
  0
LINE
  5
3C69
  8
0
 10
234.1117937456698996
 20
27.9747489196898691
 30
0.0
 11
234.1117937456698996
 21
22.1907488941898805
 31
0.0
  0
LINE
  5
3C6A
  8
0
 10
234.001793745669886
 20
27.9747489196898691
 30
0.0
 11
234.001793745669886
 21
22.1907488941898912
 31
0.0
  0
LINE
  5
3C6B
  8
0
 10
234.5477937456699067
 20
27.9747489196898691
 30
0.0
 11
234.5477937456699067
 21
22.1907488941898805
 31
0.0
  0
LINE
  5
3C6C
  8
0
 10
234.6577937456698919
 20
27.9747489196898691
 30
0.0
 11
234.6577937456698919
 21
22.1907488941898912
 31
0.0
  0
ARC
  5
3C6D
  8
0
 10
234.2197937456699037
 20
27.9747489196898798
 30
0.0
 40
0.108
 50
89.9999999999983658
 51
180.0000000000017906
  0
ARC
  5
3C6E
  8
0
 10
234.4397937456699026
 20
27.9747489196898798
 30
0.0
 40
0.108
 50
359.9999999999980105
 51
90.0000000000032543
  0
ARC
  5
3C6F
  8
0
 10
234.2197937456699037
 20
27.9747489196898691
 30
0.0
 40
0.218
 50
90.0
 51
179.9999999999990905
  0
ARC
  5
3C70
  8
0
 10
234.4397937456699026
 20
27.9747489196898691
 30
0.0
 40
0.218
 50
0.000000000000916
 51
90.0000000000016058
  0
LINE
  5
3C71
  8
0
 10
234.2197937456699037
 20
22.08274889418988
 30
0.0
 11
234.4397937456699026
 21
22.08274889418988
 31
0.0
  0
LINE
  5
3C72
  8
0
 10
234.2197937456699037
 20
21.9727488941898805
 30
0.0
 11
234.4397937456699026
 21
21.9727488941898805
 31
0.0
  0
ARC
  5
3C73
  8
0
 10
234.2197937456699037
 20
22.1907488941898805
 30
0.0
 40
0.108
 50
179.9999999999978968
 51
270.0000000000017053
  0
ARC
  5
3C74
  8
0
 10
234.4397937456699026
 20
22.1907488941898805
 30
0.0
 40
0.108
 50
269.9999999999968168
 51
0.0000000000020356
  0
ARC
  5
3C75
  8
0
 10
234.2197937456699037
 20
22.1907488941898912
 30
0.0
 40
0.218
 50
180.0000000000007958
 51
270.0
  0
ARC
  5
3C76
  8
0
 10
234.4397937456699026
 20
22.1907488941898912
 30
0.0
 40
0.218
 50
269.9999999999984084
 51
359.9999999999992042
  0
LINE
  5
3C77
  8
0
 10
235.0917937456698894
 20
28.0827489196898803
 30
0.0
 11
235.3117937456698883
 21
28.0827489196898803
 31
0.0
  0
LINE
  5
3C78
  8
0
 10
235.0917937456698894
 20
28.1927489196898691
 30
0.0
 11
235.3117937456698883
 21
28.1927489196898691
 31
0.0
  0
LINE
  5
3C79
  8
0
 10
234.9837937456699137
 20
27.9747489196898691
 30
0.0
 11
234.9837937456699137
 21
22.1907488941898805
 31
0.0
  0
LINE
  5
3C7A
  8
0
 10
234.8737937456699001
 20
27.9747489196898691
 30
0.0
 11
234.8737937456699001
 21
22.1907488941898912
 31
0.0
  0
LINE
  5
3C7B
  8
0
 10
235.4197937456698924
 20
27.9747489196898691
 30
0.0
 11
235.4197937456698924
 21
22.1907488941898805
 31
0.0
  0
LINE
  5
3C7C
  8
0
 10
235.529793745669906
 20
27.9747489196898691
 30
0.0
 11
235.529793745669906
 21
22.1907488941898912
 31
0.0
  0
ARC
  5
3C7D
  8
0
 10
235.0917937456698894
 20
27.9747489196898798
 30
0.0
 40
0.108
 50
89.9999999999983658
 51
180.0000000000017906
  0
ARC
  5
3C7E
  8
0
 10
235.3117937456698883
 20
27.9747489196898798
 30
0.0
 40
0.108
 50
359.9999999999980105
 51
90.0000000000032543
  0
ARC
  5
3C7F
  8
0
 10
235.0917937456698894
 20
27.9747489196898691
 30
0.0
 40
0.218
 50
90.0
 51
179.9999999999990905
  0
ARC
  5
3C80
  8
0
 10
235.3117937456698883
 20
27.9747489196898691
 30
0.0
 40
0.218
 50
0.000000000000916
 51
90.0000000000016058
  0
LINE
  5
3C81
  8
0
 10
235.0917937456698894
 20
22.08274889418988
 30
0.0
 11
235.3117937456698883
 21
22.08274889418988
 31
0.0
  0
LINE
  5
3C82
  8
0
 10
235.0917937456698894
 20
21.9727488941898805
 30
0.0
 11
235.3117937456698883
 21
21.9727488941898805
 31
0.0
  0
ARC
  5
3C83
  8
0
 10
235.0917937456698894
 20
22.1907488941898805
 30
0.0
 40
0.108
 50
179.9999999999978968
 51
270.0000000000017053
  0
ARC
  5
3C84
  8
0
 10
235.3117937456698883
 20
22.1907488941898805
 30
0.0
 40
0.108
 50
269.9999999999968168
 51
0.0000000000020356
  0
ARC
  5
3C85
  8
0
 10
235.0917937456698894
 20
22.1907488941898912
 30
0.0
 40
0.218
 50
180.0000000000007958
 51
270.0
  0
ARC
  5
3C86
  8
0
 10
235.3117937456698883
 20
22.1907488941898912
 30
0.0
 40
0.218
 50
269.9999999999984084
 51
359.9999999999992042
  0
LINE
  5
3C87
  8
0
 10
244.7837937455699091
 20
11.2477489196898706
 30
0.0
 11
244.7837937455699091
 21
29.8027489196898685
 31
0.0
  0
LINE
  5
3C88
  8
0
 10
243.1237937455699125
 20
9.5877489196898757
 30
0.0
 11
238.7416136718782127
 21
9.5877489196898757
 31
0.0
  0
LINE
  5
3C89
  8
0
 10
243.1237937455699125
 20
31.4627489196898793
 30
0.0
 11
238.7416136718605912
 21
31.4627489196898793
 31
0.0
  0
LINE
  5
3C8A
  8
0
 10
238.5446521212622031
 20
31.2974785552461583
 30
0.0
 11
238.4603059115559915
 21
30.8191274299110702
 31
0.0
  0
LINE
  5
3C8B
  8
0
 10
238.460305911554201
 20
10.23137040947854
 30
0.0
 11
238.5446521212811035
 21
9.7530192841265446
 31
0.0
  0
ARC
  5
3C8C
  8
0
 10
243.1237937455699125
 20
11.2477489196898706
 30
0.0
 40
1.659999999999999
 50
270.0
 51
0.0
  0
ARC
  5
3C8D
  8
0
 10
243.1237937455699125
 20
29.8027489196898685
 30
0.0
 40
1.659999999999999
 50
0.0000000000001018
 51
90.0
  0
ARC
  5
3C8E
  8
0
 10
238.7416136718605912
 20
31.26274891968988
 30
0.0
 40
0.2
 50
89.9999999999967457
 51
169.9999999933411061
  0
ARC
  5
3C8F
  8
0
 10
238.1845597407182993
 20
30.8677489196898804
 30
0.0
 40
0.28
 50
270.0000000000017053
 51
349.9999999933367008
  0
ARC
  5
3C90
  8
0
 10
238.1845597407182993
 20
10.1827489196898693
 30
0.0
 40
0.28
 50
10.0000000087110195
 51
90.0
  0
ARC
  5
3C91
  8
0
 10
238.7416136718782127
 20
9.787748919689875
 30
0.0
 40
0.2
 50
190.0000000087107992
 51
270.0
  0
LINE
  5
3C92
  8
0
 10
244.0317937455698996
 20
28.0827489196898803
 30
0.0
 11
243.8117937455699007
 21
28.0827489196898803
 31
0.0
  0
LINE
  5
3C93
  8
0
 10
244.0317937455698996
 20
28.1927489196898691
 30
0.0
 11
243.8117937455699007
 21
28.1927489196898691
 31
0.0
  0
LINE
  5
3C94
  8
0
 10
244.1397937455699036
 20
27.9747489196898691
 30
0.0
 11
244.1397937455699036
 21
22.1907488941898805
 31
0.0
  0
LINE
  5
3C95
  8
0
 10
244.2497937455698889
 20
27.9747489196898691
 30
0.0
 11
244.2497937455698889
 21
22.1907488941898912
 31
0.0
  0
LINE
  5
3C96
  8
0
 10
243.7037937455698966
 20
27.9747489196898691
 30
0.0
 11
243.7037937455698966
 21
22.1907488941898805
 31
0.0
  0
LINE
  5
3C97
  8
0
 10
243.5937937455699114
 20
27.9747489196898691
 30
0.0
 11
243.5937937455699114
 21
22.1907488941898912
 31
0.0
  0
ARC
  5
3C98
  8
0
 10
244.0317937455698996
 20
27.9747489196898798
 30
0.0
 40
0.108
 50
359.9999999999980105
 51
90.0000000000016058
  0
ARC
  5
3C99
  8
0
 10
243.8117937455699007
 20
27.9747489196898798
 30
0.0
 40
0.108
 50
89.9999999999967457
 51
180.0000000000017906
  0
ARC
  5
3C9A
  8
0
 10
244.0317937455698996
 20
27.9747489196898691
 30
0.0
 40
0.218
 50
0.000000000000916
 51
90.0
  0
ARC
  5
3C9B
  8
0
 10
243.8117937455699007
 20
27.9747489196898691
 30
0.0
 40
0.218
 50
89.9999999999983658
 51
179.9999999999990905
  0
LINE
  5
3C9C
  8
0
 10
244.0317937455698996
 20
22.08274889418988
 30
0.0
 11
243.8117937455699007
 21
22.08274889418988
 31
0.0
  0
LINE
  5
3C9D
  8
0
 10
244.0317937455698996
 20
21.9727488941898805
 30
0.0
 11
243.8117937455699007
 21
21.9727488941898805
 31
0.0
  0
ARC
  5
3C9E
  8
0
 10
244.0317937455698996
 20
22.1907488941898805
 30
0.0
 40
0.108
 50
269.9999999999984084
 51
0.0000000000020356
  0
ARC
  5
3C9F
  8
0
 10
243.8117937455699007
 20
22.1907488941898805
 30
0.0
 40
0.108
 50
179.9999999999978968
 51
270.0000000000032969
  0
ARC
  5
3CA0
  8
0
 10
244.0317937455698996
 20
22.1907488941898912
 30
0.0
 40
0.218
 50
270.0
 51
359.9999999999992042
  0
ARC
  5
3CA1
  8
0
 10
243.8117937455699007
 20
22.1907488941898912
 30
0.0
 40
0.218
 50
180.0000000000007958
 51
270.0000000000017053
  0
LINE
  5
3CA2
  8
0
 10
243.1597937455699139
 20
28.0827489196898803
 30
0.0
 11
242.9397937455698866
 21
28.0827489196898803
 31
0.0
  0
LINE
  5
3CA3
  8
0
 10
243.1597937455699139
 20
28.1927489196898691
 30
0.0
 11
242.9397937455698866
 21
28.1927489196898691
 31
0.0
  0
LINE
  5
3CA4
  8
0
 10
243.2677937455698896
 20
27.9747489196898691
 30
0.0
 11
243.2677937455698896
 21
22.1907488941898805
 31
0.0
  0
LINE
  5
3CA5
  8
0
 10
243.3777937455699032
 20
27.9747489196898691
 30
0.0
 11
243.3777937455699032
 21
22.1907488941898912
 31
0.0
  0
LINE
  5
3CA6
  8
0
 10
242.8317937455699109
 20
27.9747489196898691
 30
0.0
 11
242.8317937455699109
 21
22.1907488941898805
 31
0.0
  0
LINE
  5
3CA7
  8
0
 10
242.7217937455698973
 20
27.9747489196898691
 30
0.0
 11
242.7217937455698973
 21
22.1907488941898912
 31
0.0
  0
ARC
  5
3CA8
  8
0
 10
243.1597937455699139
 20
27.9747489196898798
 30
0.0
 40
0.108
 50
359.999999999998181
 51
90.0000000000016058
  0
ARC
  5
3CA9
  8
0
 10
242.9397937455698866
 20
27.9747489196898798
 30
0.0
 40
0.108
 50
89.9999999999967457
 51
180.0000000000017906
  0
ARC
  5
3CAA
  8
0
 10
243.1597937455699139
 20
27.9747489196898691
 30
0.0
 40
0.218
 50
0.000000000000916
 51
90.0
  0
ARC
  5
3CAB
  8
0
 10
242.9397937455698866
 20
27.9747489196898691
 30
0.0
 40
0.218
 50
89.9999999999983658
 51
179.9999999999990905
  0
LINE
  5
3CAC
  8
0
 10
243.1597937455699139
 20
22.08274889418988
 30
0.0
 11
242.9397937455698866
 21
22.08274889418988
 31
0.0
  0
LINE
  5
3CAD
  8
0
 10
243.1597937455699139
 20
21.9727488941898805
 30
0.0
 11
242.9397937455698866
 21
21.9727488941898805
 31
0.0
  0
ARC
  5
3CAE
  8
0
 10
243.1597937455699139
 20
22.1907488941898805
 30
0.0
 40
0.108
 50
269.9999999999984084
 51
0.0000000000020356
  0
ARC
  5
3CAF
  8
0
 10
242.9397937455698866
 20
22.1907488941898805
 30
0.0
 40
0.108
 50
179.9999999999978968
 51
270.0000000000032969
  0
ARC
  5
3CB0
  8
0
 10
243.1597937455699139
 20
22.1907488941898912
 30
0.0
 40
0.218
 50
270.0
 51
359.9999999999992042
  0
ARC
  5
3CB1
  8
0
 10
242.9397937455698866
 20
22.1907488941898912
 30
0.0
 40
0.218
 50
180.0000000000007958
 51
270.0000000000017053
  0
LINE
  5
3CB2
  8
0
 10
242.2877937455698998
 20
28.0827489196898803
 30
0.0
 11
242.0677937455699009
 21
28.0827489196898803
 31
0.0
  0
LINE
  5
3CB3
  8
0
 10
242.2877937455698998
 20
28.1927489196898691
 30
0.0
 11
242.0677937455699009
 21
28.1927489196898691
 31
0.0
  0
LINE
  5
3CB4
  8
0
 10
242.3957937455699039
 20
27.9747489196898691
 30
0.0
 11
242.3957937455699039
 21
22.1907488941898805
 31
0.0
  0
LINE
  5
3CB5
  8
0
 10
242.5057937455698891
 20
27.9747489196898691
 30
0.0
 11
242.5057937455698891
 21
22.1907488941898912
 31
0.0
  0
LINE
  5
3CB6
  8
0
 10
241.9597937455698968
 20
27.9747489196898691
 30
0.0
 11
241.9597937455698968
 21
22.1907488941898805
 31
0.0
  0
LINE
  5
3CB7
  8
0
 10
241.8497937455699116
 20
27.9747489196898691
 30
0.0
 11
241.8497937455699116
 21
22.1907488941898912
 31
0.0
  0
ARC
  5
3CB8
  8
0
 10
242.2877937455698998
 20
27.9747489196898798
 30
0.0
 40
0.108
 50
359.999999999998181
 51
90.0000000000016058
  0
ARC
  5
3CB9
  8
0
 10
242.0677937455699009
 20
27.9747489196898798
 30
0.0
 40
0.108
 50
89.9999999999967457
 51
180.0000000000017906
  0
ARC
  5
3CBA
  8
0
 10
242.2877937455698998
 20
27.9747489196898691
 30
0.0
 40
0.218
 50
0.000000000000916
 51
90.0
  0
ARC
  5
3CBB
  8
0
 10
242.0677937455699009
 20
27.9747489196898691
 30
0.0
 40
0.218
 50
89.9999999999983658
 51
179.9999999999990905
  0
LINE
  5
3CBC
  8
0
 10
242.2877937455698998
 20
22.08274889418988
 30
0.0
 11
242.0677937455699009
 21
22.08274889418988
 31
0.0
  0
LINE
  5
3CBD
  8
0
 10
242.2877937455698998
 20
21.9727488941898805
 30
0.0
 11
242.0677937455699009
 21
21.9727488941898805
 31
0.0
  0
ARC
  5
3CBE
  8
0
 10
242.2877937455698998
 20
22.1907488941898805
 30
0.0
 40
0.108
 50
269.9999999999984084
 51
0.0000000000020356
  0
ARC
  5
3CBF
  8
0
 10
242.0677937455699009
 20
22.1907488941898805
 30
0.0
 40
0.108
 50
179.9999999999978968
 51
270.0000000000032969
  0
ARC
  5
3CC0
  8
0
 10
242.2877937455698998
 20
22.1907488941898912
 30
0.0
 40
0.218
 50
270.0
 51
359.9999999999992042
  0
ARC
  5
3CC1
  8
0
 10
242.0677937455699009
 20
22.1907488941898912
 30
0.0
 40
0.218
 50
180.0000000000007958
 51
270.0000000000017053
  0
LINE
  5
3CC2
  8
0
 10
241.4157937455699141
 20
28.0827489196898803
 30
0.0
 11
241.1957937455698868
 21
28.0827489196898803
 31
0.0
  0
LINE
  5
3CC3
  8
0
 10
241.4157937455699141
 20
28.1927489196898691
 30
0.0
 11
241.1957937455698868
 21
28.1927489196898691
 31
0.0
  0
LINE
  5
3CC4
  8
0
 10
241.5237937455698898
 20
27.9747489196898691
 30
0.0
 11
241.5237937455698898
 21
22.1907488941898805
 31
0.0
  0
LINE
  5
3CC5
  8
0
 10
241.6337937455699034
 20
27.9747489196898691
 30
0.0
 11
241.6337937455699034
 21
22.1907488941898912
 31
0.0
  0
LINE
  5
3CC6
  8
0
 10
241.0877937455699112
 20
27.9747489196898691
 30
0.0
 11
241.0877937455699112
 21
22.1907488941898805
 31
0.0
  0
LINE
  5
3CC7
  8
0
 10
240.9777937455698975
 20
27.9747489196898691
 30
0.0
 11
240.9777937455698975
 21
22.1907488941898912
 31
0.0
  0
ARC
  5
3CC8
  8
0
 10
241.4157937455699141
 20
27.9747489196898798
 30
0.0
 40
0.108
 50
359.999999999998181
 51
90.0000000000016058
  0
ARC
  5
3CC9
  8
0
 10
241.1957937455698868
 20
27.9747489196898798
 30
0.0
 40
0.108
 50
89.9999999999967457
 51
180.0000000000017906
  0
ARC
  5
3CCA
  8
0
 10
241.4157937455699141
 20
27.9747489196898691
 30
0.0
 40
0.218
 50
0.000000000000916
 51
90.0
  0
ARC
  5
3CCB
  8
0
 10
241.1957937455698868
 20
27.9747489196898691
 30
0.0
 40
0.218
 50
89.9999999999983658
 51
179.9999999999990905
  0
LINE
  5
3CCC
  8
0
 10
241.4157937455699141
 20
22.08274889418988
 30
0.0
 11
241.1957937455698868
 21
22.08274889418988
 31
0.0
  0
LINE
  5
3CCD
  8
0
 10
241.4157937455699141
 20
21.9727488941898805
 30
0.0
 11
241.1957937455698868
 21
21.9727488941898805
 31
0.0
  0
ARC
  5
3CCE
  8
0
 10
241.4157937455699141
 20
22.1907488941898805
 30
0.0
 40
0.108
 50
269.9999999999984084
 51
0.0000000000020356
  0
ARC
  5
3CCF
  8
0
 10
241.1957937455698868
 20
22.1907488941898805
 30
0.0
 40
0.108
 50
179.9999999999978968
 51
270.0000000000032969
  0
ARC
  5
3CD0
  8
0
 10
241.4157937455699141
 20
22.1907488941898912
 30
0.0
 40
0.218
 50
270.0
 51
359.9999999999992042
  0
ARC
  5
3CD1
  8
0
 10
241.1957937455698868
 20
22.1907488941898912
 30
0.0
 40
0.218
 50
180.0000000000007958
 51
270.0000000000017053
  0
LINE
  5
3CD2
  8
0
 10
240.5437937455699
 20
28.0827489196898803
 30
0.0
 11
240.3237937455699011
 21
28.0827489196898803
 31
0.0
  0
LINE
  5
3CD3
  8
0
 10
240.5437937455699
 20
28.1927489196898691
 30
0.0
 11
240.3237937455699011
 21
28.1927489196898691
 31
0.0
  0
LINE
  5
3CD4
  8
0
 10
240.6517937455699041
 20
27.9747489196898691
 30
0.0
 11
240.6517937455699041
 21
22.1907488941898805
 31
0.0
  0
LINE
  5
3CD5
  8
0
 10
240.7617937455698893
 20
27.9747489196898691
 30
0.0
 11
240.7617937455698893
 21
22.1907488941898912
 31
0.0
  0
LINE
  5
3CD6
  8
0
 10
240.2157937455698971
 20
27.9747489196898691
 30
0.0
 11
240.2157937455698971
 21
22.1907488941898805
 31
0.0
  0
LINE
  5
3CD7
  8
0
 10
240.1057937455699118
 20
27.9747489196898691
 30
0.0
 11
240.1057937455699118
 21
22.1907488941898912
 31
0.0
  0
ARC
  5
3CD8
  8
0
 10
240.5437937455699
 20
27.9747489196898798
 30
0.0
 40
0.108
 50
359.999999999998181
 51
90.0000000000016058
  0
ARC
  5
3CD9
  8
0
 10
240.3237937455699011
 20
27.9747489196898798
 30
0.0
 40
0.108
 50
89.9999999999967457
 51
180.0000000000017906
  0
ARC
  5
3CDA
  8
0
 10
240.5437937455699
 20
27.9747489196898691
 30
0.0
 40
0.218
 50
0.000000000000916
 51
90.0
  0
ARC
  5
3CDB
  8
0
 10
240.3237937455699011
 20
27.9747489196898691
 30
0.0
 40
0.218
 50
89.9999999999983658
 51
179.9999999999990905
  0
LINE
  5
3CDC
  8
0
 10
240.5437937455699
 20
22.08274889418988
 30
0.0
 11
240.3237937455699011
 21
22.08274889418988
 31
0.0
  0
LINE
  5
3CDD
  8
0
 10
240.5437937455699
 20
21.9727488941898805
 30
0.0
 11
240.3237937455699011
 21
21.9727488941898805
 31
0.0
  0
ARC
  5
3CDE
  8
0
 10
240.5437937455699
 20
22.1907488941898805
 30
0.0
 40
0.108
 50
269.9999999999984084
 51
0.0000000000020356
  0
ARC
  5
3CDF
  8
0
 10
240.3237937455699011
 20
22.1907488941898805
 30
0.0
 40
0.108
 50
179.9999999999978968
 51
270.0000000000032969
  0
ARC
  5
3CE0
  8
0
 10
240.5437937455699
 20
22.1907488941898912
 30
0.0
 40
0.218
 50
270.0
 51
359.9999999999992042
  0
ARC
  5
3CE1
  8
0
 10
240.3237937455699011
 20
22.1907488941898912
 30
0.0
 40
0.218
 50
180.0000000000007958
 51
270.0000000000017053
  0
LINE
  5
3CE2
  8
0
 10
239.6717937455698859
 20
28.0827489196898803
 30
0.0
 11
239.4517937455698871
 21
28.0827489196898803
 31
0.0
  0
LINE
  5
3CE3
  8
0
 10
239.6717937455698859
 20
28.1927489196898691
 30
0.0
 11
239.4517937455698871
 21
28.1927489196898691
 31
0.0
  0
LINE
  5
3CE4
  8
0
 10
239.77979374556989
 20
27.9747489196898691
 30
0.0
 11
239.77979374556989
 21
22.1907488941898805
 31
0.0
  0
LINE
  5
3CE5
  8
0
 10
239.8897937455699036
 20
27.9747489196898691
 30
0.0
 11
239.8897937455699036
 21
22.1907488941898912
 31
0.0
  0
LINE
  5
3CE6
  8
0
 10
239.3437937455699114
 20
27.9747489196898691
 30
0.0
 11
239.3437937455699114
 21
22.1907488941898805
 31
0.0
  0
LINE
  5
3CE7
  8
0
 10
239.2337937455698977
 20
27.9747489196898691
 30
0.0
 11
239.2337937455698977
 21
22.1907488941898912
 31
0.0
  0
ARC
  5
3CE8
  8
0
 10
239.6717937455698859
 20
27.9747489196898798
 30
0.0
 40
0.108
 50
359.999999999998181
 51
90.0000000000016058
  0
ARC
  5
3CE9
  8
0
 10
239.4517937455698871
 20
27.9747489196898798
 30
0.0
 40
0.108
 50
89.9999999999967457
 51
180.0000000000017906
  0
ARC
  5
3CEA
  8
0
 10
239.6717937455698859
 20
27.9747489196898691
 30
0.0
 40
0.218
 50
0.000000000000916
 51
90.0
  0
ARC
  5
3CEB
  8
0
 10
239.4517937455698871
 20
27.9747489196898691
 30
0.0
 40
0.218
 50
89.9999999999983658
 51
179.9999999999990905
  0
LINE
  5
3CEC
  8
0
 10
239.6717937455698859
 20
22.08274889418988
 30
0.0
 11
239.4517937455698871
 21
22.08274889418988
 31
0.0
  0
LINE
  5
3CED
  8
0
 10
239.6717937455698859
 20
21.9727488941898805
 30
0.0
 11
239.4517937455698871
 21
21.9727488941898805
 31
0.0
  0
ARC
  5
3CEE
  8
0
 10
239.6717937455698859
 20
22.1907488941898805
 30
0.0
 40
0.108
 50
269.9999999999984084
 51
0.0000000000020356
  0
ARC
  5
3CEF
  8
0
 10
239.4517937455698871
 20
22.1907488941898805
 30
0.0
 40
0.108
 50
179.9999999999978968
 51
270.0000000000032969
  0
ARC
  5
3CF0
  8
0
 10
239.6717937455698859
 20
22.1907488941898912
 30
0.0
 40
0.218
 50
270.0
 51
359.9999999999992042
  0
ARC
  5
3CF1
  8
0
 10
239.4517937455698871
 20
22.1907488941898912
 30
0.0
 40
0.218
 50
180.0000000000007958
 51
270.0000000000017053
  0
LINE
  5
3CF2
  8
0
 10
238.7997937455699002
 20
28.0827489196898803
 30
0.0
 11
238.5797937455699014
 21
28.0827489196898803
 31
0.0
  0
LINE
  5
3CF3
  8
0
 10
238.7997937455699002
 20
28.1927489196898691
 30
0.0
 11
238.5797937455699014
 21
28.1927489196898691
 31
0.0
  0
LINE
  5
3CF4
  8
0
 10
238.9077937455699043
 20
27.9747489196898691
 30
0.0
 11
238.9077937455699043
 21
22.1907488941898805
 31
0.0
  0
LINE
  5
3CF5
  8
0
 10
239.0177937455698896
 20
27.9747489196898691
 30
0.0
 11
239.0177937455698896
 21
22.1907488941898912
 31
0.0
  0
LINE
  5
3CF6
  8
0
 10
238.4717937455698973
 20
27.9747489196898691
 30
0.0
 11
238.4717937455698973
 21
22.1907488941898805
 31
0.0
  0
LINE
  5
3CF7
  8
0
 10
238.3617937455699121
 20
27.9747489196898691
 30
0.0
 11
238.3617937455699121
 21
22.1907488941898912
 31
0.0
  0
ARC
  5
3CF8
  8
0
 10
238.7997937455699002
 20
27.9747489196898798
 30
0.0
 40
0.108
 50
359.999999999998181
 51
90.0000000000016058
  0
ARC
  5
3CF9
  8
0
 10
238.5797937455699014
 20
27.9747489196898798
 30
0.0
 40
0.108
 50
89.9999999999967457
 51
180.0000000000017906
  0
ARC
  5
3CFA
  8
0
 10
238.7997937455699002
 20
27.9747489196898691
 30
0.0
 40
0.218
 50
0.000000000000916
 51
90.0
  0
ARC
  5
3CFB
  8
0
 10
238.5797937455699014
 20
27.9747489196898691
 30
0.0
 40
0.218
 50
89.9999999999983658
 51
179.9999999999990905
  0
LINE
  5
3CFC
  8
0
 10
238.7997937455699002
 20
22.08274889418988
 30
0.0
 11
238.5797937455699014
 21
22.08274889418988
 31
0.0
  0
LINE
  5
3CFD
  8
0
 10
238.7997937455699002
 20
21.9727488941898805
 30
0.0
 11
238.5797937455699014
 21
21.9727488941898805
 31
0.0
  0
ARC
  5
3CFE
  8
0
 10
238.7997937455699002
 20
22.1907488941898805
 30
0.0
 40
0.108
 50
269.9999999999984084
 51
0.0000000000020356
  0
ARC
  5
3CFF
  8
0
 10
238.5797937455699014
 20
22.1907488941898805
 30
0.0
 40
0.108
 50
179.9999999999978968
 51
270.0000000000032969
  0
ARC
  5
3D00
  8
0
 10
238.7997937455699002
 20
22.1907488941898912
 30
0.0
 40
0.218
 50
270.0
 51
359.9999999999992042
  0
ARC
  5
3D01
  8
0
 10
238.5797937455699014
 20
22.1907488941898912
 30
0.0
 40
0.218
 50
180.0000000000007958
 51
270.0000000000017053
  0
LINE
  5
3D02
  8
0
 10
237.9277937455698861
 20
28.0827489196898803
 30
0.0
 11
237.7077937455698873
 21
28.0827489196898803
 31
0.0
  0
LINE
  5
3D03
  8
0
 10
237.9277937455698861
 20
28.1927489196898691
 30
0.0
 11
237.7077937455698873
 21
28.1927489196898691
 31
0.0
  0
LINE
  5
3D04
  8
0
 10
238.0357937455698902
 20
27.9747489196898691
 30
0.0
 11
238.0357937455698902
 21
22.1907488941898805
 31
0.0
  0
LINE
  5
3D05
  8
0
 10
238.1457937455699039
 20
27.9747489196898691
 30
0.0
 11
238.1457937455699039
 21
22.1907488941898912
 31
0.0
  0
LINE
  5
3D06
  8
0
 10
237.5997937455699116
 20
27.9747489196898691
 30
0.0
 11
237.5997937455699116
 21
22.1907488941898805
 31
0.0
  0
LINE
  5
3D07
  8
0
 10
237.489793745569898
 20
27.9747489196898691
 30
0.0
 11
237.489793745569898
 21
22.1907488941898912
 31
0.0
  0
ARC
  5
3D08
  8
0
 10
237.9277937455698861
 20
27.9747489196898798
 30
0.0
 40
0.108
 50
359.999999999998181
 51
90.0000000000016058
  0
ARC
  5
3D09
  8
0
 10
237.7077937455698873
 20
27.9747489196898798
 30
0.0
 40
0.108
 50
89.9999999999967457
 51
180.0000000000017906
  0
ARC
  5
3D0A
  8
0
 10
237.9277937455698861
 20
27.9747489196898691
 30
0.0
 40
0.218
 50
0.000000000000916
 51
90.0
  0
ARC
  5
3D0B
  8
0
 10
237.7077937455698873
 20
27.9747489196898691
 30
0.0
 40
0.218
 50
89.9999999999983658
 51
179.9999999999990905
  0
LINE
  5
3D0C
  8
0
 10
237.9277937455698861
 20
22.08274889418988
 30
0.0
 11
237.7077937455698873
 21
22.08274889418988
 31
0.0
  0
LINE
  5
3D0D
  8
0
 10
237.9277937455698861
 20
21.9727488941898805
 30
0.0
 11
237.7077937455698873
 21
21.9727488941898805
 31
0.0
  0
ARC
  5
3D0E
  8
0
 10
237.9277937455698861
 20
22.1907488941898805
 30
0.0
 40
0.108
 50
269.9999999999984084
 51
0.0000000000020356
  0
ARC
  5
3D0F
  8
0
 10
237.7077937455698873
 20
22.1907488941898805
 30
0.0
 40
0.108
 50
179.9999999999978968
 51
270.0000000000032969
  0
ARC
  5
3D10
  8
0
 10
237.9277937455698861
 20
22.1907488941898912
 30
0.0
 40
0.218
 50
270.0
 51
359.9999999999992042
  0
ARC
  5
3D11
  8
0
 10
237.7077937455698873
 20
22.1907488941898912
 30
0.0
 40
0.218
 50
180.0000000000007958
 51
270.0000000000017053
  0
LINE
  5
3D12
  8
0
 10
237.0557937455699005
 20
28.0827489196898803
 30
0.0
 11
236.8357937455699016
 21
28.0827489196898803
 31
0.0
  0
LINE
  5
3D13
  8
0
 10
237.0557937455699005
 20
28.1927489196898691
 30
0.0
 11
236.8357937455699016
 21
28.1927489196898691
 31
0.0
  0
LINE
  5
3D14
  8
0
 10
237.1637937455699046
 20
27.9747489196898691
 30
0.0
 11
237.1637937455699046
 21
22.1907488941898805
 31
0.0
  0
LINE
  5
3D15
  8
0
 10
237.2737937455698898
 20
27.9747489196898691
 30
0.0
 11
237.2737937455698898
 21
22.1907488941898912
 31
0.0
  0
LINE
  5
3D16
  8
0
 10
236.7277937455698975
 20
27.9747489196898691
 30
0.0
 11
236.7277937455698975
 21
22.1907488941898805
 31
0.0
  0
LINE
  5
3D17
  8
0
 10
236.6177937455699123
 20
27.9747489196898691
 30
0.0
 11
236.6177937455699123
 21
22.1907488941898912
 31
0.0
  0
ARC
  5
3D18
  8
0
 10
237.0557937455699005
 20
27.9747489196898798
 30
0.0
 40
0.108
 50
359.999999999998181
 51
90.0000000000016058
  0
ARC
  5
3D19
  8
0
 10
236.8357937455699016
 20
27.9747489196898798
 30
0.0
 40
0.108
 50
89.9999999999967457
 51
180.0000000000017906
  0
ARC
  5
3D1A
  8
0
 10
237.0557937455699005
 20
27.9747489196898691
 30
0.0
 40
0.218
 50
0.000000000000916
 51
90.0
  0
ARC
  5
3D1B
  8
0
 10
236.8357937455699016
 20
27.9747489196898691
 30
0.0
 40
0.218
 50
89.9999999999983658
 51
179.9999999999990905
  0
LINE
  5
3D1C
  8
0
 10
237.0557937455699005
 20
22.08274889418988
 30
0.0
 11
236.8357937455699016
 21
22.08274889418988
 31
0.0
  0
LINE
  5
3D1D
  8
0
 10
237.0557937455699005
 20
21.9727488941898805
 30
0.0
 11
236.8357937455699016
 21
21.9727488941898805
 31
0.0
  0
ARC
  5
3D1E
  8
0
 10
237.0557937455699005
 20
22.1907488941898805
 30
0.0
 40
0.108
 50
269.9999999999984084
 51
0.0000000000020356
  0
ARC
  5
3D1F
  8
0
 10
236.8357937455699016
 20
22.1907488941898805
 30
0.0
 40
0.108
 50
179.9999999999978968
 51
270.0000000000032969
  0
ARC
  5
3D20
  8
0
 10
237.0557937455699005
 20
22.1907488941898912
 30
0.0
 40
0.218
 50
270.0
 51
359.9999999999992042
  0
ARC
  5
3D21
  8
0
 10
236.8357937455699016
 20
22.1907488941898912
 30
0.0
 40
0.218
 50
180.0000000000007958
 51
270.0000000000017053
  0
LINE
  5
3D22
  8
0
 10
235.9637937458658996
 20
28.0827489197200286
 30
0.0
 11
236.1837937458658985
 21
28.0827489197200286
 31
0.0
  0
LINE
  5
3D23
  8
0
 10
235.9637937458658996
 20
28.192748919720021
 30
0.0
 11
236.1837937458658985
 21
28.192748919720021
 31
0.0
  0
LINE
  5
3D24
  8
0
 10
235.8557937458658955
 20
27.9747489197200316
 30
0.0
 11
235.8557937458658955
 21
22.1907488942200288
 31
0.0
  0
LINE
  5
3D25
  8
0
 10
235.7457937458659103
 20
27.9747489197200316
 30
0.0
 11
235.7457937458659103
 21
22.1907488942200395
 31
0.0
  0
LINE
  5
3D26
  8
0
 10
236.2917937458659026
 20
27.9747489197200316
 30
0.0
 11
236.2917937458659026
 21
22.1907488942200288
 31
0.0
  0
LINE
  5
3D27
  8
0
 10
236.4017937458658878
 20
27.9747489197200316
 30
0.0
 11
236.4017937458658878
 21
22.1907488942200395
 31
0.0
  0
ARC
  5
3D28
  8
0
 10
235.9637937458658996
 20
27.9747489197200316
 30
0.0
 40
0.108
 50
89.9999999999983658
 51
180.0000000000017906
  0
ARC
  5
3D29
  8
0
 10
236.1837937458658985
 20
27.9747489197200316
 30
0.0
 40
0.108
 50
359.9999999999980105
 51
90.0000000000032543
  0
ARC
  5
3D2A
  8
0
 10
235.9637937458658996
 20
27.974748919720021
 30
0.0
 40
0.218
 50
90.0
 51
179.9999999999990905
  0
ARC
  5
3D2B
  8
0
 10
236.1837937458658985
 20
27.974748919720021
 30
0.0
 40
0.218
 50
0.000000000000916
 51
90.0000000000016058
  0
LINE
  5
3D2C
  8
0
 10
235.9637937458658996
 20
22.0827488942200283
 30
0.0
 11
236.1837937458658985
 21
22.0827488942200283
 31
0.0
  0
LINE
  5
3D2D
  8
0
 10
235.9637937458658996
 20
21.9727488942200289
 30
0.0
 11
236.1837937458658985
 21
21.9727488942200289
 31
0.0
  0
ARC
  5
3D2E
  8
0
 10
235.9637937458658996
 20
22.1907488942200288
 30
0.0
 40
0.108
 50
179.9999999999978968
 51
270.0000000000017053
  0
ARC
  5
3D2F
  8
0
 10
236.1837937458658985
 20
22.1907488942200288
 30
0.0
 40
0.108
 50
269.9999999999968168
 51
0.0000000000020356
  0
ARC
  5
3D30
  8
0
 10
235.9637937458658996
 20
22.1907488942200395
 30
0.0
 40
0.218
 50
180.0000000000007105
 51
270.0
  0
ARC
  5
3D31
  8
0
 10
236.1837937458658985
 20
22.1907488942200395
 30
0.0
 40
0.218
 50
269.9999999999984084
 51
359.9999999999992042
  0
ENDSEC
  0
EOF
