  0
SECTION
  2
HEADER
  9
$ACADVER
  1
AC1009
  9
$INSBASE
 10
4869.4201899407944438
 20
24.968694976962361
 30
0.0
  9
$EXTMIN
 10
4867.4748972377592509
 20
20.8729584731499109
 30
-0.0000000349181948
  9
$EXTMAX
 10
4882.3742606375453761
 20
24.9733917332038793
 30
0.0000000814935746
  9
$LIMMIN
 10
0.0
 20
0.0
  9
$LIMMAX
 10
11.6929133858000007
 20
8.2677165353999982
  9
$ORTHOMODE
 70
     0
  9
$REGENMODE
 70
     1
  9
$FILLMODE
 70
     1
  9
$QTEXTMODE
 70
     0
  9
$MIRRTEXT
 70
     0
  9
$DRAGMODE
 70
     2
  9
$LTSCALE
 40
0.6431102362
  9
$OSMODE
 70
  3839
  9
$ATTMODE
 70
     1
  9
$TEXTSIZE
 40
0.2
  9
$TRACEWID
 40
0.05
  9
$TEXTSTYLE
  7
STANDARD
  9
$CLAYER
  8
0
  9
$CELTYPE
  6
BYLAYER
  9
$CECOLOR
 62
   256
  9
$DIMSCALE
 40
1.0
  9
$DIMASZ
 40
0.1875
  9
$DIMEXO
 40
0.0625
  9
$DIMDLI
 40
0.4443307087
  9
$DIMRND
 40
0.0
  9
$DIMDLE
 40
0.0
  9
$DIMEXE
 40
0.125
  9
$DIMTP
 40
0.01
  9
$DIMTM
 40
0.01
  9
$DIMTXT
 40
2.0
  9
$DIMCEN
 40
0.1052362205
  9
$DIMTSZ
 40
0.0
  9
$DIMTOL
 70
     1
  9
$DIMLIM
 70
     0
  9
$DIMTIH
 70
     1
  9
$DIMTOH
 70
     1
  9
$DIMSE1
 70
     0
  9
$DIMSE2
 70
     0
  9
$DIMTAD
 70
     0
  9
$DIMZIN
 70
     0
  9
$DIMBLK
  1

  9
$DIMASO
 70
     1
  9
$DIMSHO
 70
     1
  9
$DIMPOST
  1
\X
  9
$DIMAPOST
  1

  9
$DIMALT
 70
     1
  9
$DIMALTD
 70
     2
  9
$DIMALTF
 40
25.3999999999999986
  9
$DIMLFAC
 40
1.0
  9
$DIMTOFL
 70
     0
  9
$DIMTVP
 40
0.0
  9
$DIMTIX
 70
     0
  9
$DIMSOXD
 70
     0
  9
$DIMSAH
 70
     0
  9
$DIMBLK1
  1

  9
$DIMBLK2
  1

  9
$DIMSTYLE
  2
STANDARD
  9
$DIMCLRD
 70
     0
  9
$DIMCLRE
 70
     0
  9
$DIMCLRT
 70
     0
  9
$DIMTFAC
 40
1.0
  9
$DIMGAP
 40
0.09
  9
$LUNITS
 70
     2
  9
$LUPREC
 70
     4
  9
$SKETCHINC
 40
0.1
  9
$FILLETRAD
 40
0.0
  9
$AUNITS
 70
     0
  9
$AUPREC
 70
     0
  9
$MENU
  1
.
  9
$ELEVATION
 40
0.0
  9
$PELEVATION
 40
0.0
  9
$THICKNESS
 40
0.0
  9
$LIMCHECK
 70
     0
  9
$BLIPMODE
 70
     0
  9
$CHAMFERA
 40
0.0
  9
$CHAMFERB
 40
0.0
  9
$SKPOLY
 70
     0
  9
$TDCREATE
 40
2458060.468368056230247
  9
$TDUPDATE
 40
2460511.7675347221083939
  9
$TDINDWG
 40
0.5557015046
  9
$TDUSRTIMER
 40
0.5557015046
  9
$USRTIMER
 70
     1
  9
$ANGBASE
 50
0.0
  9
$ANGDIR
 70
     0
  9
$PDMODE
 70
     0
  9
$PDSIZE
 40
0.3125
  9
$PLINEWID
 40
0.0
  9
$COORDS
 70
     1
  9
$SPLFRAME
 70
     0
  9
$SPLINETYPE
 70
     6
  9
$SPLINESEGS
 70
     8
  9
$ATTDIA
 70
     1
  9
$ATTREQ
 70
     1
  9
$HANDLING
 70
     1
  9
$HANDSEED
  5
277B3
  9
$SURFTAB1
 70
     6
  9
$SURFTAB2
 70
     6
  9
$SURFTYPE
 70
     6
  9
$SURFU
 70
     6
  9
$SURFV
 70
     6
  9
$UCSNAME
  2

  9
$UCSORG
 10
0.0
 20
0.0
 30
0.0
  9
$UCSXDIR
 10
1.0
 20
0.0
 30
0.0
  9
$UCSYDIR
 10
0.0
 20
1.0
 30
0.0
  9
$PUCSNAME
  2

  9
$PUCSORG
 10
0.0
 20
0.0
 30
0.0
  9
$PUCSXDIR
 10
1.0
 20
0.0
 30
0.0
  9
$PUCSYDIR
 10
0.0
 20
1.0
 30
0.0
  9
$USERI1
 70
     0
  9
$USERI2
 70
     0
  9
$USERI3
 70
     0
  9
$USERI4
 70
     0
  9
$USERI5
 70
     0
  9
$USERR1
 40
0.0
  9
$USERR2
 40
0.0
  9
$USERR3
 40
0.0
  9
$USERR4
 40
0.0
  9
$USERR5
 40
0.0
  9
$WORLDVIEW
 70
     1
  9
$SHADEDGE
 70
     3
  9
$SHADEDIF
 70
    70
  9
$TILEMODE
 70
     1
  9
$MAXACTVP
 70
    64
  9
$PLIMCHECK
 70
     0
  9
$PEXTMIN
 10
1.0000000000000000E+20
 20
1.0000000000000000E+20
 30
1.0000000000000000E+20
  9
$PEXTMAX
 10
-1.0000000000000000E+20
 20
-1.0000000000000000E+20
 30
-1.0000000000000000E+20
  9
$PLIMMIN
 10
0.0
 20
0.0
  9
$PLIMMAX
 10
12.0
 20
9.0
  9
$UNITMODE
 70
     0
  9
$VISRETAIN
 70
     1
  9
$PLINEGEN
 70
     0
  9
$PSLTSCALE
 70
     1
  0
ENDSEC
  0
SECTION
  2
TABLES
  0
TABLE
  2
VPORT
 70
     1
  0
VPORT
  2
*ACTIVE
 70
     0
 10
0.0
 20
0.0
 11
1.0
 21
1.0
 12
1082.5666687814020861
 22
-97.2574813299285665
 13
0.0
 23
0.0
 14
1.0
 24
1.0
 15
0.0
 25
0.0
 16
0.0
 26
0.0
 36
5.1040778033513332
 17
3792.35791015625
 27
120.1806564331053977
 37
0.0
 40
6.5462454875103813
 41
2.2831541218637992
 42
50.0
 43
0.0
 44
0.0
 50
0.0
 51
0.0
 71
     0
 72
   100
 73
     1
 74
     1
 75
     0
 76
     0
 77
     0
 78
     0
  0
ENDTAB
  0
TABLE
  2
LTYPE
 70
     2
  0
LTYPE
  2
CONTINUOUS
 70
     0
  3
Solid line
 72
    65
 73
     0
 40
0.0
  0
LTYPE
  2
PHANTOM2
 70
     0
  3
___ _ _ ___ _ _ ___ _ _ ___ _ _
 72
    65
 73
     6
 40
1.25
 49
0.625
 49
-0.125
 49
0.125
 49
-0.125
 49
0.125
 49
-0.125
  0
ENDTAB
  0
TABLE
  2
LAYER
 70
     2
  0
LAYER
  2
0
 70
     0
 62
   255
  6
CONTINUOUS
  0
LAYER
  2
DEFPOINTS
 70
     0
 62
     7
  6
CONTINUOUS
  0
ENDTAB
  0
TABLE
  2
STYLE
 70
     1
  0
STYLE
  2
STANDARD
 70
     0
 40
0.0
 41
0.8
 50
0.0
 71
     0
 42
0.2
  3
txt
  4

  0
ENDTAB
  0
TABLE
  2
VIEW
 70
     0
  0
ENDTAB
  0
TABLE
  2
UCS
 70
     0
  0
ENDTAB
  0
TABLE
  2
APPID
 70
     9
  0
APPID
  2
ACAD
 70
     0
  0
APPID
  2
ACAD_MLEADERVER
 70
     0
  0
APPID
  2
ACAD_EXEMPT_FROM_CAD_STANDARDS
 70
     0
  0
APPID
  2
ACAD_NAV_VCDISPLAY
 70
     0
  0
APPID
  2
ACAECLAYERSTANDARD
 70
     0
  0
APPID
  2
ACCMTRANSPARENCY
 70
     0
  0
APPID
  2
ACAD_DSTYLE_DIMJAG
 70
     0
  0
APPID
  2
ACAD_DSTYLE_DIMTALN
 70
     0
  0
APPID
  2
ACDBATTR
 70
     0
  0
ENDTAB
  0
TABLE
  2
DIMSTYLE
 70
     1
  0
DIMSTYLE
  2
STANDARD
 70
     0
  3

  4

  5

  6

  7

 40
1.0
 41
0.1875
 42
0.0625
 43
0.38
 44
0.125
 45
0.0
 46
0.0
 47
0.01
 48
0.01
140
0.15625
141
0.09
142
0.0
143
25.3999999999999986
144
1.0
145
0.0
146
1.0
147
0.09
 71
     1
 72
     0
 73
     1
 74
     1
 75
     0
 76
     0
 77
     0
 78
     4
170
     0
171
     2
172
     0
173
     0
174
     0
175
     0
176
     0
177
     0
178
     0
  0
ENDTAB
  0
ENDSEC
  0
SECTION
  2
BLOCKS
  0
BLOCK
  8
0
  2
$MODEL_SPACE
 70
     0
 10
0.0
 20
0.0
 30
0.0
  3
$MODEL_SPACE
  1

  0
ENDBLK
  5
21
  8
0
  0
BLOCK
 67
     1
  8
0
  2
$PAPER_SPACE
 70
     0
 10
0.0
 20
0.0
 30
0.0
  3
$PAPER_SPACE
  1

  0
ENDBLK
  5
1D
 67
     1
  8
0
  0
BLOCK
  8
0
  2
_FILLED
 70
     0
 10
0.0
 20
0.0
 30
0.0
  3
_FILLED
  1

  0
SOLID
  5
268F5
  8
0
  6
BYBLOCK
 62
     0
 10
0.0
 20
0.0
 30
0.0
 11
-1.0
 21
0.1666666667
 31
0.0
 12
-1.0
 22
-0.1666666667
 32
0.0
 13
-1.0
 23
-0.1666666667
 33
0.0
  0
ENDBLK
  5
268F6
  8
0
  6
BYBLOCK
 62
     0
  0
ENDSEC
  0
SECTION
  2
ENTITIES
  0
ATTDEF
  5
267EA
  8
DEFPOINTS
 10
4869.4201899407944438
 20
24.9720283102956806
 30
0.0
 40
0.001
  1
K-35331-Y
  3

  2
MODELNUMBER
 70
     0
1001
ACDBATTR
1070
     0
1070
     1
  0
ATTDEF
  5
267EB
  8
DEFPOINTS
 10
4869.4201899407944438
 20
24.970361643629019
 30
0.0
 40
0.001
  1
ELATE
  3

  2
TRADENAME
 70
     0
1001
ACDBATTR
1070
     0
1070
     1
  0
ATTDEF
  5
267EC
  8
DEFPOINTS
 10
4869.4201899407944438
 20
24.968694976962361
 30
0.0
 40
0.001
  1
HANDSHOWER KIT
  3

  2
PRODUCT
 70
     0
1001
ACDBATTR
1070
     0
1070
     1
  0
LINE
  5
26F74
  8
0
 10
4868.601132538928141
 20
23.7856804857321187
 30
0.0
 11
4868.6326286019266263
 21
23.7856804857321187
 31
0.0
  0
LINE
  5
26F75
  8
0
 10
4868.6326286019266263
 20
23.7856804857321187
 30
0.0
 11
4868.6326286019266263
 21
22.21284584003212
 31
0.0
  0
LINE
  5
26F76
  8
0
 10
4868.6326286019266263
 20
22.21284584003212
 30
0.0
 11
4868.601132538928141
 21
22.21284584003212
 31
0.0
  0
LINE
  5
26F77
  8
0
 10
4868.601132538928141
 20
22.21284584003212
 30
0.0
 11
4868.601132538928141
 21
23.7856804857321187
 31
0.0
  0
ARC
  5
26F78
  8
0
 10
4868.5813015125058882
 20
23.7785713893315211
 30
0.0
 40
0.0199121949340113
 50
5.1751088812694697
 51
90.0742797317237915
  0
LINE
  5
26F79
  8
0
 10
4868.5812756978266407
 20
23.79848356753212
 30
0.0
 11
4867.6496470250958737
 21
23.7903263275942791
 31
0.0
  0
ARC
  5
26F7A
  8
0
 10
4867.6514491653397272
 20
23.7509975163744684
 30
0.0
 40
0.039370078758188
 50
92.6235945082641337
 51
172.6709247671923038
  0
ARC
  5
26F7B
  8
0
 10
4873.4945554316873313
 20
22.9994442572804694
 30
0.0
 40
5.9306113012046948
 50
172.6707322258945112
 51
187.3292677820919891
  0
ARC
  5
26F7C
  8
0
 10
4867.6514491649577394
 20
22.2478909973095291
 30
0.0
 40
0.0393700782662543
 50
187.3290752407941966
 51
269.5000005176128184
  0
LINE
  5
26F7D
  8
0
 10
4867.6511056009267122
 20
22.2085224181321195
 30
0.0
 11
4868.581447493061205
 21
22.2004034558449099
 31
0.0
  0
ARC
  5
26F7E
  8
0
 10
4868.5816183548849949
 20
22.2199823018845812
 30
0.0
 40
0.019579591568983
 50
269.5000005176128184
 51
355.3154200914138983
  0
LINE
  5
26F7F
  8
0
 10
4867.6124007715980042
 20
23.7560200702601385
 30
0.0
 11
4867.6124007715980042
 21
22.2428684443007896
 31
0.0
  0
LINE
  5
26F80
  8
0
 10
4873.1229022729276039
 20
22.6982146832321305
 30
0.0
 11
4873.1325070717957715
 21
21.7132966339618285
 31
0.0
  0
ARC
  5
26F81
  8
0
 10
4868.6523943334477735
 20
23.7804005460694583
 30
0.0
 40
0.0198342254779178
 50
89.746362455220634
 51
175.2369932762985911
  0
LINE
  5
26F82
  8
0
 10
4868.6524821355151289
 20
23.8002345772055186
 30
0.0
 11
4868.9464114304391842
 21
23.797669495344671
 31
0.0
  0
LINE
  5
26F83
  8
0
 10
4869.9138196642743424
 20
24.968694976962361
 30
0.0
 11
4868.9265602173136358
 21
24.968694976962361
 31
0.0
  0
LINE
  5
26F84
  8
0
 10
4868.9265602173136358
 20
24.968694976962361
 30
0.0
 11
4868.9464114304391842
 21
23.797669495344671
 31
0.0
  0
LINE
  5
26F85
  8
0
 10
4868.9464114304391842
 20
23.797669495344671
 30
0.0
 11
4868.9604710460398564
 21
22.9921941024550911
 31
0.0
  0
ARC
  5
26F86
  8
0
 10
4869.419986179163061
 20
23.0002149634172213
 30
0.0
 40
0.4595851300684392
 50
180.9999993116798009
 51
359.0001921451292901
  0
LINE
  5
26F87
  8
0
 10
4869.879501339086346
 20
22.9921956379487114
 30
0.0
 11
4869.9138196642743424
 21
24.968694976962361
 31
0.0
  0
ARC
  5
26F88
  8
0
 10
4868.6523291255916774
 20
22.2179999888020383
 30
0.0
 40
0.0197089673524906
 50
181.6772093743990126
 51
269.9549858143624874
  0
LINE
  5
26F89
  8
0
 10
4868.6523136413270549
 20
22.1982910275321217
 30
0.0
 11
4869.5942187593282142
 21
22.2065101594321206
 31
0.0
  0
LINE
  5
26F8A
  8
0
 10
4869.5978469009260152
 20
22.5764413735912903
 30
0.0
 11
4869.5895508015901214
 21
21.7206616059252298
 31
0.0
  0
ARC
  5
26F8B
  8
0
 10
4870.0551874158118153
 20
21.739067278593069
 30
0.0
 40
0.4660002417270971
 50
182.2636077254884981
 51
215.7865876539997032
  0
ARC
  5
26F8C
  8
0
 10
4870.5129669864836615
 20
22.1354025669504715
 30
0.0
 40
1.0704689216238661
 50
218.6680744296405123
 51
244.4402340344522031
  0
ARC
  5
26F8D
  8
0
 10
4871.3600075594049486
 20
24.4743438618321001
 30
0.0
 40
3.599792411728417
 50
264.5192322820250865
 51
270.015358398350827
  0
ARC
  5
26F8E
  8
0
 10
4871.3175206278492624
 20
24.031542325348429
 30
0.0
 40
3.1549572286939251
 50
257.8085273403509063
 51
264.5192322820250865
  0
ARC
  5
26F8F
  8
0
 10
4871.1673803174617206
 20
23.3366151767891097
 30
0.0
 40
2.443996009914803
 50
247.9003263400591948
 51
257.8085273403509063
  0
ARC
  5
26F90
  8
0
 10
4870.8680248268037758
 20
22.5709305561089906
 30
0.0
 40
1.621977740395848
 50
239.7580143845889893
 51
247.5222433707517951
  0
ARC
  5
26F91
  8
0
 10
4871.3624650389892849
 20
24.8053335409651687
 30
0.0
 40
3.8909596919994209
 50
265.1632267518829735
 51
269.9780600552023202
  0
ARC
  5
26F92
  8
0
 10
4871.3278348905387247
 20
24.3787883680773199
 30
0.0
 40
3.4630138518494329
 50
256.393735326778426
 51
265.139098313878776
  0
ARC
  5
26F93
  8
0
 10
4871.0695467233890668
 20
23.3116635794808786
 30
0.0
 40
2.365075742606972
 50
247.5792811884651883
 51
256.393735326778426
  0
ARC
  5
26F94
  8
0
 10
4870.8262771050513038
 20
22.7220525006066616
 30
0.0
 40
1.727250271543189
 50
241.8548067687187029
 51
247.579281188465103
  0
ARC
  5
26F95
  8
0
 10
4870.6551264026638819
 20
22.4021233283036203
 30
0.0
 40
1.3644180262593151
 50
234.7345444369703102
 51
241.8548067687187029
  0
ARC
  5
26F96
  8
0
 10
4870.5469555264025985
 20
22.2491526448304988
 30
0.0
 40
1.177065501661253
 50
228.5478021049034965
 51
234.7345444369703955
  0
CIRCLE
  5
26F97
  8
0
 10
4869.4200307379269361
 20
23.0002467842321217
 30
0.0
 40
0.3739942442160542
  0
CIRCLE
  5
26F98
  8
0
 10
4869.4200301767277779
 20
23.0002157368321285
 30
0.0
 40
0.375983218719485
  0
CIRCLE
  5
26F99
  8
0
 10
4869.4200301767277779
 20
23.0002157368321285
 30
0.0
 40
0.3809055116
  0
CIRCLE
  5
26F9A
  8
0
 10
4869.4200301767277779
 20
23.0002157368321285
 30
0.0
 40
0.4070978921173695
  0
ARC
  5
26F9B
  8
0
 10
4869.4200301767277779
 20
23.0002157368321285
 30
0.0
 40
0.3874887761717111
 50
283.1844962759590771
 51
256.6186655629169877
  0
ARC
  5
26F9C
  8
0
 10
4869.3630979154004308
 20
22.6160495188619599
 30
0.0
 40
0.0187392169331138
 50
208.4567349299506986
 51
262.6586138353160891
  0
ARC
  5
26F9D
  8
0
 10
4869.177122918634268
 20
22.5152550927348685
 30
0.0
 40
0.1927937964722954
 50
28.4567349299507413
 51
30.7997292752051592
  0
ARC
  5
26F9E
  8
0
 10
4869.3252595585536255
 20
22.6035613045711408
 30
0.0
 40
0.0203337978176262
 50
30.7997292752051592
 51
75.4926282702086979
  0
ARC
  5
26F9F
  8
0
 10
4869.3300793571479517
 20
22.6100967211852684
 30
0.0
 40
0.0194500346865029
 50
29.6471765580007585
 51
76.5391265120670852
  0
ARC
  5
26FA0
  8
0
 10
4869.7260122164498171
 20
22.8354493038139914
 30
0.0
 40
0.4361228086363513
 50
209.6471765580008082
 51
210.6352372944172942
  0
ARC
  5
26FA1
  8
0
 10
4869.3696026435409294
 20
22.624373304322809
 30
0.0
 40
0.0218996064578494
 50
210.6352372944145088
 51
230.0645524590252933
  0
ARC
  5
26FA2
  8
0
 10
4869.3668490849076989
 20
22.6210842223961492
 30
0.0
 40
0.0176100674312568
 50
230.0645524590252933
 51
264.0715588089657899
  0
ARC
  5
26FA3
  8
0
 10
4869.4200281273224391
 20
22.990805505872661
 30
0.0
 40
0.3911232470405425
 50
261.9165462302705123
 51
278.0840920438178046
  0
ARC
  5
26FA4
  8
0
 10
4869.4732301768453908
 20
22.6209029381711701
 30
0.0
 40
0.0174272125910475
 50
275.9290794651200827
 51
303.7488795480082899
  0
ARC
  5
26FA5
  8
0
 10
4869.4714933813247626
 20
22.6235023463951102
 30
0.0
 40
0.0205534534312924
 50
303.7488795480090857
 51
329.9833474134251219
  0
ARC
  5
26FA6
  8
0
 10
4871.9708280570439456
 20
21.1795420856079204
 30
0.0
 40
2.8659141206075058
 50
149.833004949265586
 51
149.9833474134250935
  0
ARC
  5
26FA7
  8
0
 10
4869.5102160297692535
 20
22.6097555578348484
 30
0.0
 40
0.0198427713766887
 50
104.6085634775069053
 51
149.8330049492651881
  0
ARC
  5
26FA8
  8
0
 10
4869.5139671941797133
 20
22.6047534521945899
 30
0.0
 40
0.0190170832588341
 50
106.9862810968577946
 51
151.0005882792027876
  0
ARC
  5
26FA9
  8
0
 10
4868.9607986114842788
 20
22.9113723798885509
 30
0.0
 40
0.6134468664663779
 50
330.2643147095212157
 51
331.000588279202816
  0
ARC
  5
26FAA
  8
0
 10
4869.4764543550936651
 20
22.6168217326219292
 30
0.0
 40
0.0195942503027384
 50
281.0323348923208187
 51
330.2643147095201925
  0
CIRCLE
  5
26FAB
  8
0
 10
4869.4200301767277779
 20
24.1419480203321193
 30
0.0
 40
0.1653379229874595
  0
CIRCLE
  5
26FAC
  8
0
 10
4869.4200301767277779
 20
24.1419480203321193
 30
0.0
 40
0.1456692913000005
  0
CIRCLE
  5
26FAD
  8
0
 10
4869.4200301767277779
 20
24.1419480203321193
 30
0.0
 40
0.1377952756
  0
ARC
  5
26FAE
  8
0
 10
4869.3698333262427695
 20
24.1725855101548994
 30
0.0
 40
0.0098425196149441
 50
119.9999996452882982
 51
180.0000001326083066
  0
LINE
  5
26FAF
  8
0
 10
4869.3649120664886141
 20
24.1811093822091614
 30
0.0
 11
4869.4151089171100466
 21
24.2100905470145484
 31
0.0
  0
ARC
  5
26FB0
  8
0
 10
4869.4200301771170416
 20
24.2015666745247806
 30
0.0
 40
0.0098425201178314
 50
60.0000037777649595
 51
119.9999996452882982
  0
LINE
  5
26FB1
  8
0
 10
4869.4249514366147196
 20
24.2100905473085604
 30
0.0
 11
4869.4751482888541432
 21
24.1811093855684014
 31
0.0
  0
ARC
  5
26FB2
  8
0
 10
4869.4702270320040043
 20
24.1725855173695905
 30
0.0
 40
0.0098425148235667
 50
359.9999578689041755
 51
60.0000037777582378
  0
LINE
  5
26FB3
  8
0
 10
4869.4800695468284175
 20
24.1725855101321194
 30
0.0
 11
4869.4800695042067673
 21
24.1146231799321384
 31
0.0
  0
ARC
  5
26FB4
  8
0
 10
4869.470226929567616
 20
24.1146231871696486
 30
0.0
 40
0.009842574638862
 50
300.0004707978665124
 51
359.9999578688867246
  0
LINE
  5
26FB5
  8
0
 10
4869.4751482869278334
 20
24.1060993079321193
 30
0.0
 11
4869.4249516747386224
 21
24.0771177304170401
 31
0.0
  0
ARC
  5
26FB6
  8
0
 10
4869.4200306529528461
 20
24.0856410284316382
 30
0.0
 40
0.0098419034972564
 50
239.9947275074256936
 51
300.0004707978661145
  0
LINE
  5
26FB7
  8
0
 10
4869.4151089168881299
 20
24.0771181428550811
 30
0.0
 11
4869.3649147336518581
 21
24.1061039270350008
 31
0.0
  0
ARC
  5
26FB8
  8
0
 10
4869.3698402357431405
 20
24.1146333341746413
 30
0.0
 40
0.009849434349803
 50
180.0590689092159948
 51
239.9947275074279958
  0
LINE
  5
26FB9
  8
0
 10
4869.3599908066280477
 20
24.1146231799321207
 30
0.0
 11
4869.3599908066280477
 21
24.1725855101321194
 31
0.0
  0
ARC
  5
26FBA
  8
0
 10
4872.6839917159513789
 20
21.7315535223769807
 30
0.0
 40
0.4488867768200091
 50
352.2564504433026968
 51
357.6690530648037907
  0
ARC
  5
26FBB
  8
0
 10
4872.6663718522340787
 20
21.7351453835396313
 30
0.0
 40
0.4668314354577932
 50
347.1572877422391912
 51
352.1110090996652957
  0
ARC
  5
26FBC
  8
0
 10
4872.7165730571787208
 20
21.7234941863775894
 30
0.0
 40
0.415296342063947
 50
327.6274911205011904
 51
347.1850512678519749
  0
ARC
  5
26FBD
  8
0
 10
4872.4165923295586254
 20
21.9147182205898901
 30
0.0
 40
0.7710415356261536
 50
317.3621649096480155
 51
327.5614469406007743
  0
ARC
  5
26FBE
  8
0
 10
4872.4323297788523632
 20
21.9002277030227006
 30
0.0
 40
0.749648957249435
 50
305.1195192949203943
 51
317.3621649096480155
  0
ARC
  5
26FBF
  8
0
 10
4871.7511973432910963
 20
22.8686796425366801
 30
0.0
 40
1.9336424343943219
 50
296.6983381756994049
 51
305.1195192949203943
  0
ARC
  5
26FC0
  8
0
 10
4871.5644022388878511
 20
23.2401072049228787
 30
0.0
 40
2.3493957808977819
 50
287.9436247813928276
 51
296.6983381756994049
  0
ARC
  5
26FC1
  8
0
 10
4871.5626634932668821
 20
23.2454764839540715
 30
0.0
 40
2.3550395733863581
 50
276.4965834118697785
 51
287.9436247813928276
  0
ARC
  5
26FC2
  8
0
 10
4871.3694515741563009
 20
24.3208249346795817
 30
0.0
 40
3.4460607289646652
 50
272.5941421280717805
 51
277.6655383332765723
  0
ARC
  5
26FC3
  8
0
 10
4871.3628309931300464
 20
24.4063095159941987
 30
0.0
 40
3.5317584255529848
 50
269.9698496377333186
 51
272.6386693051438783
  0
ARC
  5
26FC4
  8
0
 10
4871.3609475354505776
 20
24.7898607694689908
 30
0.0
 40
3.8754866353335919
 50
270.0004074609714166
 51
271.7727974403666735
  0
ARC
  5
26FC5
  8
0
 10
4871.3638512191109839
 20
24.6960453564467706
 30
0.0
 40
3.781626297068001
 50
271.7727974403666735
 51
277.5106382075002784
  0
ARC
  5
26FC6
  8
0
 10
4871.4369441525122966
 20
24.1416448586717785
 30
0.0
 40
3.2224282204919921
 50
277.5106382075002784
 51
284.2581204051153918
  0
ARC
  5
26FC7
  8
0
 10
4871.6275565436144461
 20
23.3915523810342911
 30
0.0
 40
2.4484955304925711
 50
284.2581204051153918
 51
291.8838048506754035
  0
ARC
  5
26FC8
  8
0
 10
4871.9180263177040615
 20
22.6683955399826509
 30
0.0
 40
1.6691826880344149
 50
291.8838048506754035
 51
301.7448971249477836
  0
ARC
  5
26FC9
  8
0
 10
4872.2610764038363413
 20
22.1139224242596484
 30
0.0
 40
1.0171675059607801
 50
301.7448971249477836
 51
313.8350567982110988
  0
ARC
  5
26FCA
  8
0
 10
4872.5074336055031381
 20
21.8573379557043808
 30
0.0
 40
0.661460519359224
 50
313.8350567982110988
 51
325.0909539300948836
  0
ARC
  5
26FCB
  8
0
 10
4872.6104958157447982
 20
21.7846003715775183
 30
0.0
 40
0.5353176568949156
 50
325.1625934460435019
 51
340.0006654525287217
  0
ARC
  5
26FCC
  8
0
 10
4872.7234786351582443
 20
22.6948253486769502
 30
0.0
 40
0.3994380177177037
 50
0.4861752941708486
 51
10.4190404560535903
  0
ARC
  5
26FCD
  8
0
 10
4872.6848436811696956
 20
22.6877212353093292
 30
0.0
 40
0.4387206868773763
 50
10.4190404560535903
 51
26.7231358072125005
  0
ARC
  5
26FCE
  8
0
 10
4872.5589269928668728
 20
22.6243280196353496
 30
0.0
 40
0.5796948411994393
 50
26.7231358072125005
 51
41.5380899032464015
  0
ARC
  5
26FCF
  8
0
 10
4872.2768006384876571
 20
22.3743891459888289
 30
0.0
 40
0.9566095800934665
 50
41.5380899032461031
 51
51.8051746445315402
  0
ARC
  5
26FD0
  8
0
 10
4872.0783799940063545
 20
22.1920369419703789
 30
0.0
 40
1.2233758991859589
 50
49.7821687194399374
 51
63.2103524365121885
  0
ARC
  5
26FD1
  8
0
 10
4871.6247865142067894
 20
21.2473659194840998
 30
0.0
 40
2.2711906519617129
 50
63.7368649742778715
 51
79.0326879425080335
  0
ARC
  5
26FD2
  8
0
 10
4871.3585644619051891
 20
19.9595512035281395
 30
0.0
 40
3.5861703217676659
 50
78.7713954697635614
 51
96.6065264593054849
  0
ARC
  5
26FD3
  8
0
 10
4871.2686653747923629
 20
20.5964545760184983
 30
0.0
 40
2.9431969156256832
 50
96.2945397813257671
 51
107.597579079395004
  0
ARC
  5
26FD4
  8
0
 10
4870.8366881981173719
 20
21.8855855068565184
 30
0.0
 40
1.5839464439713411
 50
106.8010401455914007
 51
127.0548181627435014
  0
LINE
  5
26FD5
  8
0
 10
4869.893343211926549
 20
23.7893922485126197
 30
0.0
 11
4870.1879217601281198
 21
23.7868349986149603
 31
0.0
  0
ARC
  5
26FD6
  8
0
 10
4870.1877509163277864
 20
23.7671549045110808
 30
0.0
 40
0.0196808356413411
 50
359.9878688936831281
 51
89.502625202157077
  0
LINE
  5
26FD7
  8
0
 10
4870.20743175152802
 20
23.7671507375321198
 30
0.0
 11
4870.20743175152802
 21
23.3391750850371693
 31
0.0
  0
LINE
  5
26FD8
  8
0
 10
4870.2271167909266296
 20
23.3475393491192698
 30
0.0
 11
4870.2271167909266296
 21
23.7651856371321202
 31
0.0
  0
ARC
  5
26FD9
  8
0
 10
4870.2468033247669155
 20
23.7651856371321202
 30
0.0
 40
0.0196865338390018
 50
89.5042748921033535
 51
180.0
  0
LINE
  5
26FDA
  8
0
 10
4870.2469736512266536
 20
23.7848714341312508
 30
0.0
 11
4871.857530118428258
 21
23.7708401809321188
 31
0.0
  0
LINE
  5
26FDB
  8
0
 10
4871.8575301227283489
 20
23.7708401626321191
 30
0.0
 11
4871.8649899101792471
 21
23.7663363599321187
 31
0.0
  0
ARC
  5
26FDC
  8
0
 10
4871.8427235946937799
 20
23.7332062684263683
 30
0.0
 40
0.0399173116380571
 50
37.8608681991385083
 51
56.095451485111802
  0
ARC
  5
26FDD
  8
0
 10
4871.7974670009316469
 20
23.7037944090202011
 30
0.0
 40
0.0938096285562954
 50
32.0999513706758535
 51
35.0775520472152635
  0
ARC
  5
26FDE
  8
0
 10
4866.0500678623739077
 20
23.001343305607179
 30
0.0
 40
5.8752311184579362
 50
4.9083242753573151
 51
7.3567073896825548
  0
LINE
  5
26FDF
  8
0
 10
4871.8768664393282961
 20
23.7537674842321209
 30
0.0
 11
4871.8768664393282961
 21
23.5080692937915998
 31
0.0
  0
ARC
  5
26FE0
  8
0
 10
4870.1009629291611418
 20
22.7937553492147487
 30
0.0
 40
0.4429546176129638
 50
201.9264169194088936
 51
208.0611695888692054
  0
ARC
  5
26FE1
  8
0
 10
4870.171351913018043
 20
22.8312782841081301
 30
0.0
 40
0.5227203978169124
 50
208.0611695888692054
 51
219.8138923380724066
  0
ARC
  5
26FE2
  8
0
 10
4870.3704981366690845
 20
22.997282484206611
 30
0.0
 40
0.7819820664923092
 50
219.8138923380724066
 51
232.2886961077379055
  0
ARC
  5
26FE3
  8
0
 10
4870.6356099445392829
 20
23.3401572538254207
 30
0.0
 40
1.215395700695818
 50
232.2886961077379055
 51
240.9279228534497008
  0
ARC
  5
26FE4
  8
0
 10
4870.8410320854191013
 20
23.7096516341307897
 30
0.0
 40
1.6381537320101971
 50
240.9279228534497008
 51
247.9494562648006024
  0
ARC
  5
26FE5
  8
0
 10
4871.1400922271077434
 20
24.4479755781168109
 30
0.0
 40
2.434745983171267
 50
247.9494562648006024
 51
260.9857793499818968
  0
ARC
  5
26FE6
  8
0
 10
4871.4526294803372366
 20
26.4180932799226511
 30
0.0
 40
4.4294999262993286
 50
260.9857793499817831
 51
266.0919899922968739
  0
ARC
  5
26FE7
  8
0
 10
4871.3608369153680542
 20
25.6976877024774097
 30
0.0
 40
3.7047569171067392
 50
266.7489780259023746
 51
270.0021305926558171
  0
ARC
  5
26FE8
  8
0
 10
4871.362396017246283
 20
25.5837252783924107
 30
0.0
 40
3.5907947717628952
 50
269.9773207222908127
 51
271.3025349539007038
  0
ARC
  5
26FE9
  8
0
 10
4871.3628956799148
 20
25.6170656033395012
 30
0.0
 40
3.6241153417417928
 50
271.2826557951598829
 51
278.4194949098479128
  0
ARC
  5
26FEA
  8
0
 10
4871.4721576124793501
 20
24.8788833190508711
 30
0.0
 40
2.87789067400101
 50
278.4194949098479128
 51
288.4897820203819947
  0
ARC
  5
26FEB
  8
0
 10
4871.8296584480531237
 20
23.8097923724834395
 30
0.0
 40
1.750609742081721
 50
288.4897820203819947
 51
298.783609016553612
  0
ARC
  5
26FEC
  8
0
 10
4872.1145967916545487
 20
23.2911400435027716
 30
0.0
 40
1.158841123438056
 50
298.783609016553612
 51
311.25714338566371
  0
ARC
  5
26FED
  8
0
 10
4872.4690416063949669
 20
22.887074827972441
 30
0.0
 40
0.6213471001239879
 50
311.25714338566371
 51
328.7076500132250203
  0
ARC
  5
26FEE
  8
0
 10
4872.6468451300170273
 20
22.7790011045080689
 30
0.0
 40
0.4132749426506838
 50
328.7076500132250203
 51
357.1444525379981201
  0
ARC
  5
26FEF
  8
0
 10
4872.6926470554999469
 20
22.7673524118731301
 30
0.0
 40
0.3670687376220967
 50
358.6044372734377816
 51
19.7954673300013901
  0
ARC
  5
26FF0
  8
0
 10
4872.5020741374082718
 20
22.6831866596387002
 30
0.0
 40
0.5750707939223362
 50
21.255452065442789
 51
33.1970035913005219
  0
ARC
  5
26FF1
  8
0
 10
4872.3984736389902537
 20
22.5889116447937006
 30
0.0
 40
0.7137246320710586
 50
34.9766631557696002
 51
48.8718469332659495
  0
ARC
  5
26FF2
  8
0
 10
4870.0549379098820282
 20
22.721035459595889
 30
0.0
 40
0.4599103896000833
 50
197.2764652361404103
 51
210.8896795653830054
  0
ARC
  5
26FF3
  8
0
 10
4870.195131818201844
 20
22.8049054888928389
 30
0.0
 40
0.6232765848314027
 50
210.8896795653830054
 51
228.6505829280771138
  0
ARC
  5
26FF4
  8
0
 10
4870.5982386997138747
 20
23.2629550559130003
 30
0.0
 40
1.2334442370136589
 50
228.6505829280771138
 51
242.6136055735676962
  0
ARC
  5
26FF5
  8
0
 10
4870.9179554691500016
 20
23.8801098763422992
 30
0.0
 40
1.9284973896844599
 50
242.6136055735676962
 51
250.0763449503901086
  0
ARC
  5
26FF6
  8
0
 10
4871.141438633801954
 20
24.4966798326311697
 30
0.0
 40
2.5843199540119239
 50
250.0763449503901086
 51
258.6492644492772115
  0
ARC
  5
26FF7
  8
0
 10
4871.3674967168599323
 20
25.6227994410764985
 30
0.0
 40
3.7329050093913558
 50
258.6492644492772115
 51
264.0876403813343245
  0
ARC
  5
26FF8
  8
0
 10
4871.3481510656847604
 20
25.4359895720814002
 30
0.0
 40
3.5450961135069678
 50
264.0876403813343245
 51
270.6787032529827002
  0
ARC
  5
26FF9
  8
0
 10
4871.3423572633046206
 20
25.9250765116723692
 30
0.0
 40
4.0342173690505101
 50
270.6787032529827002
 51
277.9579080325855784
  0
ARC
  5
26FFA
  8
0
 10
4871.5031767751779626
 20
24.7746545257112096
 30
0.0
 40
2.8726091471521209
 50
277.9579080325855784
 51
287.7305305888431235
  0
ARC
  5
26FFB
  8
0
 10
4871.7735773932126904
 20
23.9289335749207588
 30
0.0
 40
1.9847125198133899
 50
287.7305305888431235
 51
300.3253386119675952
  0
ARC
  5
26FFC
  8
0
 10
4872.3117677427380841
 20
23.008865497772149
 30
0.0
 40
0.9187978333070075
 50
300.3253386119675952
 51
318.9884906556961255
  0
ARC
  5
26FFD
  8
0
 10
4872.6125356394823029
 20
22.7473058637030903
 30
0.0
 40
0.5202068526190869
 50
318.9884906556961255
 51
339.218334402099515
  0
ARC
  5
26FFE
  8
0
 10
4872.7520476260724536
 20
22.6943613103466788
 30
0.0
 40
0.3709864782309294
 50
339.2183344020999129
 51
359.1971747004400868
  0
LINE
  5
26FFF
  8
0
 10
4872.3654197879795902
 20
23.3944032576173306
 30
0.0
 11
4881.3817502686160879
 21
23.3954955187201499
 31
0.0
  0
LINE
  5
27000
  8
0
 10
4881.241899766356255
 20
22.7451022563994201
 30
0.0
 11
4873.1196742425390767
 21
22.7456167917555589
 31
0.0
  0
ARC
  5
27001
  8
0
 10
4867.6562801555301121
 20
23.693303247354411
 30
0.0
 40
0.0393995910959159
 50
90.5425359890063106
 51
180.0316042192611121
  0
LINE
  5
27002
  8
0
 10
4867.6168805704282931
 20
23.6932815146323215
 30
0.0
 11
4867.6168805723900732
 21
23.5433972819918615
 31
0.0
  0
ARC
  5
27003
  8
0
 10
4867.6494795244707348
 20
23.6440238301560086
 30
0.0
 40
0.0334379240269375
 50
188.9340506853247916
 51
253.6563253929703876
  0
ARC
  5
27004
  8
0
 10
4867.6559843252643986
 20
23.6592294221688384
 30
0.0
 40
0.0498981460193896
 50
251.4015797875345015
 51
269.9113082734839963
  0
LINE
  5
27005
  8
0
 10
4867.6559070848270494
 20
23.6093313359321186
 30
0.0
 11
4868.5798847754558665
 21
23.6032884543934784
 31
0.0
  0
ARC
  5
27006
  8
0
 10
4868.5812498785062417
 20
23.6296908332614883
 30
0.0
 40
0.02643764581472
 50
267.0402266140746974
 51
289.2110515350080959
  0
ARC
  5
27007
  8
0
 10
4868.582660928873338
 20
23.6256413636923703
 30
0.0
 40
0.0221493749591413
 50
289.2110515350073001
 51
326.5073134791389862
  0
ARC
  5
27008
  8
0
 10
4868.5730048866125799
 20
23.7144564171466783
 30
0.0
 40
0.0303358002416333
 50
21.9960260820657609
 51
42.6806454105080206
  0
ARC
  5
27009
  8
0
 10
4868.5814474993603653
 20
23.7210413738776396
 30
0.0
 40
0.0196850396990299
 50
45.2500001740529285
 51
90.5000373003615266
  0
LINE
  5
2700A
  8
0
 10
4868.5812757043477177
 20
23.7407256639188411
 30
0.0
 11
4867.6559070848270494
 21
23.7327010721265488
 31
0.0
  0
ARC
  5
2700B
  8
0
 10
4867.642969020072087
 20
23.5440570334790493
 30
0.0
 40
0.0260967885851891
 50
181.4486458124173964
 51
240.3306215346786132
  0
ARC
  5
2700C
  8
0
 10
4867.6633264709062132
 20
23.5795387988359302
 30
0.0
 40
0.0670036995962657
 50
240.2235290502302121
 51
253.3553106188552135
  0
ARC
  5
2700D
  8
0
 10
4867.6542426421865457
 20
23.5491542838822596
 30
0.0
 40
0.0352903791587053
 50
253.3553106188552135
 51
272.7033127012011846
  0
LINE
  5
2700E
  8
0
 10
4867.6559070848270494
 20
23.5139031776321197
 30
0.0
 11
4868.5812756569275734
 21
23.5123295755321209
 31
0.0
  0
ARC
  5
2700F
  8
0
 10
4868.5814607730189891
 20
23.5377515789698499
 30
0.0
 40
0.0254226774112256
 50
269.5827951442173003
 51
290.1953589266258859
  0
ARC
  5
27010
  8
0
 10
4868.5833538312699602
 20
23.5326051109388388
 30
0.0
 40
0.0199390834496298
 50
290.1953589266263975
 51
315.1019525085397959
  0
ARC
  5
27011
  8
0
 10
4868.5845528142799594
 20
23.5314103873102916
 30
0.0
 40
0.018246474572785
 50
315.1019525085401938
 51
335.3199459181324187
  0
LINE
  5
27012
  8
0
 10
4870.2271167909266296
 20
23.7273519365321306
 30
0.0
 11
4870.2171358521572984
 21
23.7274391790001005
 31
0.0
  0
ARC
  5
27013
  8
0
 10
4870.2172827070344283
 20
23.7373213280137101
 30
0.0
 40
0.0098832401307517
 50
184.6323794562929947
 51
269.1486117694811924
  0
CIRCLE
  5
27014
  8
0
 10
4881.6118321601279604
 20
23.0057899942321207
 30
0.0
 40
0.4525572589385665
  0
CIRCLE
  5
27015
  8
0
 10
4881.6118321601279604
 20
23.0057899942321207
 30
0.0
 40
0.3666685927115413
  0
CIRCLE
  5
27016
  8
0
 10
4881.6118321601279604
 20
23.0057899942321207
 30
0.0
 40
0.4269833053597033
  0
LINE
  5
27017
  8
0
 10
4881.5913321601283315
 20
23.15130127653212
 30
0.0
 11
4881.6073321601279531
 21
23.15130127653212
 31
0.0
  0
LINE
  5
27018
  8
0
 10
4881.6073321601279531
 20
23.15130127653212
 30
0.0
 11
4881.6073321601279531
 21
23.1353013313321192
 31
0.0
  0
LINE
  5
27019
  8
0
 10
4881.6073321601279531
 20
23.1353013313321192
 30
0.0
 11
4881.5913321601283315
 21
23.1353013313321192
 31
0.0
  0
LINE
  5
2701A
  8
0
 10
4881.5913321601283315
 20
23.1353013313321192
 30
0.0
 11
4881.5913321601283315
 21
23.15130127653212
 31
0.0
  0
LINE
  5
2701B
  8
0
 10
4881.6073321601279531
 20
23.15130127653212
 30
0.0
 11
4881.6163321601279677
 21
23.1603012456321302
 31
0.0
  0
LINE
  5
2701C
  8
0
 10
4881.6073321601279531
 20
23.1353013313321192
 30
0.0
 11
4881.6163321601279677
 21
23.1263013621321285
 31
0.0
  0
LINE
  5
2701D
  8
0
 10
4881.5913321601283315
 20
23.15130127653212
 30
0.0
 11
4881.5823321601283169
 21
23.1603012456321302
 31
0.0
  0
LINE
  5
2701E
  8
0
 10
4881.5913321601283315
 20
23.1353013313321192
 30
0.0
 11
4881.5823321601283169
 21
23.1263013621321285
 31
0.0
  0
LINE
  5
2701F
  8
0
 10
4881.5913321601283315
 20
23.1603012456321302
 30
0.0
 11
4881.6073321601279531
 21
23.1603012456321302
 31
0.0
  0
LINE
  5
27020
  8
0
 10
4881.6073321601279531
 20
23.1263013621321285
 30
0.0
 11
4881.5913321601283315
 21
23.1263013621321285
 31
0.0
  0
LINE
  5
27021
  8
0
 10
4881.5663321601277858
 20
23.15130127653212
 30
0.0
 11
4881.5823321601283169
 21
23.15130127653212
 31
0.0
  0
LINE
  5
27022
  8
0
 10
4881.5823321601283169
 20
23.15130127653212
 30
0.0
 11
4881.5823321601283169
 21
23.1353013313321192
 31
0.0
  0
LINE
  5
27023
  8
0
 10
4881.5823321601283169
 20
23.1353013313321192
 30
0.0
 11
4881.5663321601277858
 21
23.1353013313321192
 31
0.0
  0
LINE
  5
27024
  8
0
 10
4881.5663321601277858
 20
23.1353013313321192
 30
0.0
 11
4881.5663321601277858
 21
23.15130127653212
 31
0.0
  0
LINE
  5
27025
  8
0
 10
4881.5823321601283169
 20
23.15130127653212
 30
0.0
 11
4881.5913321601283315
 21
23.1603012456321302
 31
0.0
  0
LINE
  5
27026
  8
0
 10
4881.5823321601283169
 20
23.1353013313321192
 30
0.0
 11
4881.5913321601283315
 21
23.1263013621321285
 31
0.0
  0
LINE
  5
27027
  8
0
 10
4881.5663321601277858
 20
23.15130127653212
 30
0.0
 11
4881.5573321601268617
 21
23.1603012456321302
 31
0.0
  0
LINE
  5
27028
  8
0
 10
4881.5663321601277858
 20
23.1353013313321192
 30
0.0
 11
4881.5573321601268617
 21
23.1263013621321285
 31
0.0
  0
LINE
  5
27029
  8
0
 10
4881.5663321601277858
 20
23.1603012456321302
 30
0.0
 11
4881.5823321601283169
 21
23.1603012456321302
 31
0.0
  0
LINE
  5
2702A
  8
0
 10
4881.5823321601283169
 20
23.1263013621321285
 30
0.0
 11
4881.5663321601277858
 21
23.1263013621321285
 31
0.0
  0
LINE
  5
2702B
  8
0
 10
4881.541332160129059
 20
23.15130127653212
 30
0.0
 11
4881.5573321601268617
 21
23.15130127653212
 31
0.0
  0
LINE
  5
2702C
  8
0
 10
4881.5573321601268617
 20
23.15130127653212
 30
0.0
 11
4881.5573321601268617
 21
23.1353013313321192
 31
0.0
  0
LINE
  5
2702D
  8
0
 10
4881.5573321601268617
 20
23.1353013313321192
 30
0.0
 11
4881.541332160129059
 21
23.1353013313321192
 31
0.0
  0
LINE
  5
2702E
  8
0
 10
4881.541332160129059
 20
23.1353013313321192
 30
0.0
 11
4881.541332160129059
 21
23.15130127653212
 31
0.0
  0
LINE
  5
2702F
  8
0
 10
4881.5573321601268617
 20
23.15130127653212
 30
0.0
 11
4881.5663321601277858
 21
23.1603012456321302
 31
0.0
  0
LINE
  5
27030
  8
0
 10
4881.5573321601268617
 20
23.1353013313321192
 30
0.0
 11
4881.5663321601277858
 21
23.1263013621321285
 31
0.0
  0
LINE
  5
27031
  8
0
 10
4881.541332160129059
 20
23.15130127653212
 30
0.0
 11
4881.532332160128135
 21
23.1603012456321302
 31
0.0
  0
LINE
  5
27032
  8
0
 10
4881.541332160129059
 20
23.1353013313321192
 30
0.0
 11
4881.532332160128135
 21
23.1263013621321285
 31
0.0
  0
LINE
  5
27033
  8
0
 10
4881.541332160129059
 20
23.1603012456321302
 30
0.0
 11
4881.5573321601268617
 21
23.1603012456321302
 31
0.0
  0
LINE
  5
27034
  8
0
 10
4881.5573321601268617
 20
23.1263013621321285
 30
0.0
 11
4881.541332160129059
 21
23.1263013621321285
 31
0.0
  0
LINE
  5
27035
  8
0
 10
4881.5163321601276039
 20
23.15130127653212
 30
0.0
 11
4881.532332160128135
 21
23.15130127653212
 31
0.0
  0
LINE
  5
27036
  8
0
 10
4881.532332160128135
 20
23.15130127653212
 30
0.0
 11
4881.532332160128135
 21
23.1353013313321192
 31
0.0
  0
LINE
  5
27037
  8
0
 10
4881.532332160128135
 20
23.1353013313321192
 30
0.0
 11
4881.5163321601276039
 21
23.1353013313321192
 31
0.0
  0
LINE
  5
27038
  8
0
 10
4881.5163321601276039
 20
23.1353013313321192
 30
0.0
 11
4881.5163321601276039
 21
23.15130127653212
 31
0.0
  0
LINE
  5
27039
  8
0
 10
4881.532332160128135
 20
23.15130127653212
 30
0.0
 11
4881.541332160129059
 21
23.1603012456321302
 31
0.0
  0
LINE
  5
2703A
  8
0
 10
4881.532332160128135
 20
23.1353013313321192
 30
0.0
 11
4881.541332160129059
 21
23.1263013621321285
 31
0.0
  0
LINE
  5
2703B
  8
0
 10
4881.5163321601276039
 20
23.15130127653212
 30
0.0
 11
4881.5073321601266798
 21
23.1603012456321302
 31
0.0
  0
LINE
  5
2703C
  8
0
 10
4881.5163321601276039
 20
23.1353013313321192
 30
0.0
 11
4881.5073321601266798
 21
23.1263013621321285
 31
0.0
  0
LINE
  5
2703D
  8
0
 10
4881.5163321601276039
 20
23.1603012456321302
 30
0.0
 11
4881.532332160128135
 21
23.1603012456321302
 31
0.0
  0
LINE
  5
2703E
  8
0
 10
4881.532332160128135
 20
23.1263013621321285
 30
0.0
 11
4881.5163321601276039
 21
23.1263013621321285
 31
0.0
  0
LINE
  5
2703F
  8
0
 10
4881.4913321601279677
 20
23.15130127653212
 30
0.0
 11
4881.5073321601266798
 21
23.15130127653212
 31
0.0
  0
LINE
  5
27040
  8
0
 10
4881.5073321601266798
 20
23.15130127653212
 30
0.0
 11
4881.5073321601266798
 21
23.1353013313321192
 31
0.0
  0
LINE
  5
27041
  8
0
 10
4881.5073321601266798
 20
23.1353013313321192
 30
0.0
 11
4881.4913321601279677
 21
23.1353013313321192
 31
0.0
  0
LINE
  5
27042
  8
0
 10
4881.4913321601279677
 20
23.1353013313321192
 30
0.0
 11
4881.4913321601279677
 21
23.15130127653212
 31
0.0
  0
LINE
  5
27043
  8
0
 10
4881.5073321601266798
 20
23.15130127653212
 30
0.0
 11
4881.5163321601276039
 21
23.1603012456321302
 31
0.0
  0
LINE
  5
27044
  8
0
 10
4881.5073321601266798
 20
23.1353013313321192
 30
0.0
 11
4881.5163321601276039
 21
23.1263013621321285
 31
0.0
  0
LINE
  5
27045
  8
0
 10
4881.4913321601279677
 20
23.15130127653212
 30
0.0
 11
4881.4823321601279531
 21
23.1603012456321302
 31
0.0
  0
LINE
  5
27046
  8
0
 10
4881.4913321601279677
 20
23.1353013313321192
 30
0.0
 11
4881.4823321601279531
 21
23.1263013621321285
 31
0.0
  0
LINE
  5
27047
  8
0
 10
4881.4913321601279677
 20
23.1603012456321302
 30
0.0
 11
4881.5073321601266798
 21
23.1603012456321302
 31
0.0
  0
LINE
  5
27048
  8
0
 10
4881.5073321601266798
 20
23.1263013621321285
 30
0.0
 11
4881.4913321601279677
 21
23.1263013621321285
 31
0.0
  0
LINE
  5
27049
  8
0
 10
4881.4663321601292409
 20
23.15130127653212
 30
0.0
 11
4881.4823321601279531
 21
23.15130127653212
 31
0.0
  0
LINE
  5
2704A
  8
0
 10
4881.4823321601279531
 20
23.15130127653212
 30
0.0
 11
4881.4823321601279531
 21
23.1353013313321192
 31
0.0
  0
LINE
  5
2704B
  8
0
 10
4881.4823321601279531
 20
23.1353013313321192
 30
0.0
 11
4881.4663321601292409
 21
23.1353013313321192
 31
0.0
  0
LINE
  5
2704C
  8
0
 10
4881.4663321601292409
 20
23.1353013313321192
 30
0.0
 11
4881.4663321601292409
 21
23.15130127653212
 31
0.0
  0
LINE
  5
2704D
  8
0
 10
4881.4823321601279531
 20
23.15130127653212
 30
0.0
 11
4881.4913321601279677
 21
23.1603012456321302
 31
0.0
  0
LINE
  5
2704E
  8
0
 10
4881.4823321601279531
 20
23.1353013313321192
 30
0.0
 11
4881.4913321601279677
 21
23.1263013621321285
 31
0.0
  0
LINE
  5
2704F
  8
0
 10
4881.4663321601292409
 20
23.15130127653212
 30
0.0
 11
4881.4573321601283169
 21
23.1603012456321302
 31
0.0
  0
LINE
  5
27050
  8
0
 10
4881.4663321601292409
 20
23.1353013313321192
 30
0.0
 11
4881.4573321601283169
 21
23.1263013621321285
 31
0.0
  0
LINE
  5
27051
  8
0
 10
4881.4663321601292409
 20
23.1603012456321302
 30
0.0
 11
4881.4823321601279531
 21
23.1603012456321302
 31
0.0
  0
LINE
  5
27052
  8
0
 10
4881.4823321601279531
 20
23.1263013621321285
 30
0.0
 11
4881.4663321601292409
 21
23.1263013621321285
 31
0.0
  0
LINE
  5
27053
  8
0
 10
4881.6163321601279677
 20
23.15130127653212
 30
0.0
 11
4881.6323321601266798
 21
23.15130127653212
 31
0.0
  0
LINE
  5
27054
  8
0
 10
4881.6323321601266798
 20
23.15130127653212
 30
0.0
 11
4881.6323321601266798
 21
23.1353013313321192
 31
0.0
  0
LINE
  5
27055
  8
0
 10
4881.6323321601266798
 20
23.1353013313321192
 30
0.0
 11
4881.6163321601279677
 21
23.1353013313321192
 31
0.0
  0
LINE
  5
27056
  8
0
 10
4881.6163321601279677
 20
23.1353013313321192
 30
0.0
 11
4881.6163321601279677
 21
23.15130127653212
 31
0.0
  0
LINE
  5
27057
  8
0
 10
4881.6323321601266798
 20
23.15130127653212
 30
0.0
 11
4881.6413321601266944
 21
23.1603012456321302
 31
0.0
  0
LINE
  5
27058
  8
0
 10
4881.6323321601266798
 20
23.1353013313321192
 30
0.0
 11
4881.6413321601266944
 21
23.1263013621321285
 31
0.0
  0
LINE
  5
27059
  8
0
 10
4881.6163321601279677
 20
23.15130127653212
 30
0.0
 11
4881.6073321601279531
 21
23.1603012456321302
 31
0.0
  0
LINE
  5
2705A
  8
0
 10
4881.6163321601279677
 20
23.1353013313321192
 30
0.0
 11
4881.6073321601279531
 21
23.1263013621321285
 31
0.0
  0
LINE
  5
2705B
  8
0
 10
4881.6163321601279677
 20
23.1603012456321302
 30
0.0
 11
4881.6323321601266798
 21
23.1603012456321302
 31
0.0
  0
LINE
  5
2705C
  8
0
 10
4881.6323321601266798
 20
23.1263013621321285
 30
0.0
 11
4881.6163321601279677
 21
23.1263013621321285
 31
0.0
  0
LINE
  5
2705D
  8
0
 10
4881.6413321601266944
 20
23.15130127653212
 30
0.0
 11
4881.657332160128135
 21
23.15130127653212
 31
0.0
  0
LINE
  5
2705E
  8
0
 10
4881.657332160128135
 20
23.15130127653212
 30
0.0
 11
4881.657332160128135
 21
23.1353013313321192
 31
0.0
  0
LINE
  5
2705F
  8
0
 10
4881.657332160128135
 20
23.1353013313321192
 30
0.0
 11
4881.6413321601266944
 21
23.1353013313321192
 31
0.0
  0
LINE
  5
27060
  8
0
 10
4881.6413321601266944
 20
23.1353013313321192
 30
0.0
 11
4881.6413321601266944
 21
23.15130127653212
 31
0.0
  0
LINE
  5
27061
  8
0
 10
4881.657332160128135
 20
23.15130127653212
 30
0.0
 11
4881.6663321601281496
 21
23.1603012456321302
 31
0.0
  0
LINE
  5
27062
  8
0
 10
4881.657332160128135
 20
23.1353013313321192
 30
0.0
 11
4881.6663321601281496
 21
23.1263013621321285
 31
0.0
  0
LINE
  5
27063
  8
0
 10
4881.6413321601266944
 20
23.15130127653212
 30
0.0
 11
4881.6323321601266798
 21
23.1603012456321302
 31
0.0
  0
LINE
  5
27064
  8
0
 10
4881.6413321601266944
 20
23.1353013313321192
 30
0.0
 11
4881.6323321601266798
 21
23.1263013621321285
 31
0.0
  0
LINE
  5
27065
  8
0
 10
4881.6413321601266944
 20
23.1603012456321302
 30
0.0
 11
4881.657332160128135
 21
23.1603012456321302
 31
0.0
  0
LINE
  5
27066
  8
0
 10
4881.657332160128135
 20
23.1263013621321285
 30
0.0
 11
4881.6413321601266944
 21
23.1263013621321285
 31
0.0
  0
LINE
  5
27067
  8
0
 10
4881.6663321601281496
 20
23.15130127653212
 30
0.0
 11
4881.6823321601277712
 21
23.15130127653212
 31
0.0
  0
LINE
  5
27068
  8
0
 10
4881.6823321601277712
 20
23.15130127653212
 30
0.0
 11
4881.6823321601277712
 21
23.1353013313321192
 31
0.0
  0
LINE
  5
27069
  8
0
 10
4881.6823321601277712
 20
23.1353013313321192
 30
0.0
 11
4881.6663321601281496
 21
23.1353013313321192
 31
0.0
  0
LINE
  5
2706A
  8
0
 10
4881.6663321601281496
 20
23.1353013313321192
 30
0.0
 11
4881.6663321601281496
 21
23.15130127653212
 31
0.0
  0
LINE
  5
2706B
  8
0
 10
4881.6823321601277712
 20
23.15130127653212
 30
0.0
 11
4881.6913321601268763
 21
23.1603012456321302
 31
0.0
  0
LINE
  5
2706C
  8
0
 10
4881.6823321601277712
 20
23.1353013313321192
 30
0.0
 11
4881.6913321601268763
 21
23.1263013621321285
 31
0.0
  0
LINE
  5
2706D
  8
0
 10
4881.6663321601281496
 20
23.15130127653212
 30
0.0
 11
4881.657332160128135
 21
23.1603012456321302
 31
0.0
  0
LINE
  5
2706E
  8
0
 10
4881.6663321601281496
 20
23.1353013313321192
 30
0.0
 11
4881.657332160128135
 21
23.1263013621321285
 31
0.0
  0
LINE
  5
2706F
  8
0
 10
4881.6663321601281496
 20
23.1603012456321302
 30
0.0
 11
4881.6823321601277712
 21
23.1603012456321302
 31
0.0
  0
LINE
  5
27070
  8
0
 10
4881.6823321601277712
 20
23.1263013621321285
 30
0.0
 11
4881.6663321601281496
 21
23.1263013621321285
 31
0.0
  0
LINE
  5
27071
  8
0
 10
4881.6913321601268763
 20
23.15130127653212
 30
0.0
 11
4881.7073321601292264
 21
23.15130127653212
 31
0.0
  0
LINE
  5
27072
  8
0
 10
4881.7073321601292264
 20
23.15130127653212
 30
0.0
 11
4881.7073321601292264
 21
23.1353013313321192
 31
0.0
  0
LINE
  5
27073
  8
0
 10
4881.7073321601292264
 20
23.1353013313321192
 30
0.0
 11
4881.6913321601268763
 21
23.1353013313321192
 31
0.0
  0
LINE
  5
27074
  8
0
 10
4881.6913321601268763
 20
23.1353013313321192
 30
0.0
 11
4881.6913321601268763
 21
23.15130127653212
 31
0.0
  0
LINE
  5
27075
  8
0
 10
4881.7073321601292264
 20
23.15130127653212
 30
0.0
 11
4881.7163321601283315
 21
23.1603012456321302
 31
0.0
  0
LINE
  5
27076
  8
0
 10
4881.7073321601292264
 20
23.1353013313321192
 30
0.0
 11
4881.7163321601283315
 21
23.1263013621321285
 31
0.0
  0
LINE
  5
27077
  8
0
 10
4881.6913321601268763
 20
23.15130127653212
 30
0.0
 11
4881.6823321601277712
 21
23.1603012456321302
 31
0.0
  0
LINE
  5
27078
  8
0
 10
4881.6913321601268763
 20
23.1353013313321192
 30
0.0
 11
4881.6823321601277712
 21
23.1263013621321285
 31
0.0
  0
LINE
  5
27079
  8
0
 10
4881.6913321601268763
 20
23.1603012456321302
 30
0.0
 11
4881.7073321601292264
 21
23.1603012456321302
 31
0.0
  0
LINE
  5
2707A
  8
0
 10
4881.7073321601292264
 20
23.1263013621321285
 30
0.0
 11
4881.6913321601268763
 21
23.1263013621321285
 31
0.0
  0
LINE
  5
2707B
  8
0
 10
4881.7163321601283315
 20
23.15130127653212
 30
0.0
 11
4881.7323321601279531
 21
23.15130127653212
 31
0.0
  0
LINE
  5
2707C
  8
0
 10
4881.7323321601279531
 20
23.15130127653212
 30
0.0
 11
4881.7323321601279531
 21
23.1353013313321192
 31
0.0
  0
LINE
  5
2707D
  8
0
 10
4881.7323321601279531
 20
23.1353013313321192
 30
0.0
 11
4881.7163321601283315
 21
23.1353013313321192
 31
0.0
  0
LINE
  5
2707E
  8
0
 10
4881.7163321601283315
 20
23.1353013313321192
 30
0.0
 11
4881.7163321601283315
 21
23.15130127653212
 31
0.0
  0
LINE
  5
2707F
  8
0
 10
4881.7323321601279531
 20
23.15130127653212
 30
0.0
 11
4881.7413321601279677
 21
23.1603012456321302
 31
0.0
  0
LINE
  5
27080
  8
0
 10
4881.7323321601279531
 20
23.1353013313321192
 30
0.0
 11
4881.7413321601279677
 21
23.1263013621321285
 31
0.0
  0
LINE
  5
27081
  8
0
 10
4881.7163321601283315
 20
23.15130127653212
 30
0.0
 11
4881.7073321601292264
 21
23.1603012456321302
 31
0.0
  0
LINE
  5
27082
  8
0
 10
4881.7163321601283315
 20
23.1353013313321192
 30
0.0
 11
4881.7073321601292264
 21
23.1263013621321285
 31
0.0
  0
LINE
  5
27083
  8
0
 10
4881.7163321601283315
 20
23.1603012456321302
 30
0.0
 11
4881.7323321601279531
 21
23.1603012456321302
 31
0.0
  0
LINE
  5
27084
  8
0
 10
4881.7323321601279531
 20
23.1263013621321285
 30
0.0
 11
4881.7163321601283315
 21
23.1263013621321285
 31
0.0
  0
LINE
  5
27085
  8
0
 10
4881.7413321601279677
 20
23.15130127653212
 30
0.0
 11
4881.7573321601275893
 21
23.15130127653212
 31
0.0
  0
LINE
  5
27086
  8
0
 10
4881.7573321601275893
 20
23.15130127653212
 30
0.0
 11
4881.7573321601275893
 21
23.1353013313321192
 31
0.0
  0
LINE
  5
27087
  8
0
 10
4881.7573321601275893
 20
23.1353013313321192
 30
0.0
 11
4881.7413321601279677
 21
23.1353013313321192
 31
0.0
  0
LINE
  5
27088
  8
0
 10
4881.7413321601279677
 20
23.1353013313321192
 30
0.0
 11
4881.7413321601279677
 21
23.15130127653212
 31
0.0
  0
LINE
  5
27089
  8
0
 10
4881.7573321601275893
 20
23.15130127653212
 30
0.0
 11
4881.7663321601276039
 21
23.1603012456321302
 31
0.0
  0
LINE
  5
2708A
  8
0
 10
4881.7573321601275893
 20
23.1353013313321192
 30
0.0
 11
4881.7663321601276039
 21
23.1263013621321285
 31
0.0
  0
LINE
  5
2708B
  8
0
 10
4881.7413321601279677
 20
23.15130127653212
 30
0.0
 11
4881.7323321601279531
 21
23.1603012456321302
 31
0.0
  0
LINE
  5
2708C
  8
0
 10
4881.7413321601279677
 20
23.1353013313321192
 30
0.0
 11
4881.7323321601279531
 21
23.1263013621321285
 31
0.0
  0
LINE
  5
2708D
  8
0
 10
4881.7413321601279677
 20
23.1603012456321302
 30
0.0
 11
4881.7573321601275893
 21
23.1603012456321302
 31
0.0
  0
LINE
  5
2708E
  8
0
 10
4881.7573321601275893
 20
23.1263013621321285
 30
0.0
 11
4881.7413321601279677
 21
23.1263013621321285
 31
0.0
  0
LINE
  5
2708F
  8
0
 10
4881.7663321601276039
 20
23.15130127653212
 30
0.0
 11
4881.7768275553944477
 21
23.15130127653212
 31
0.0
  0
LINE
  5
27090
  8
0
 10
4881.782332160128135
 20
23.1448101754752606
 30
0.0
 11
4881.782332160128135
 21
23.1353013313321192
 31
0.0
  0
LINE
  5
27091
  8
0
 10
4881.782332160128135
 20
23.1353013313321192
 30
0.0
 11
4881.7663321601276039
 21
23.1353013313321192
 31
0.0
  0
LINE
  5
27092
  8
0
 10
4881.7663321601276039
 20
23.1353013313321192
 30
0.0
 11
4881.7663321601276039
 21
23.15130127653212
 31
0.0
  0
LINE
  5
27093
  8
0
 10
4881.782332160128135
 20
23.1353013313321192
 30
0.0
 11
4881.7913321601281496
 21
23.1263013621321285
 31
0.0
  0
LINE
  5
27094
  8
0
 10
4881.7663321601276039
 20
23.15130127653212
 30
0.0
 11
4881.7573321601275893
 21
23.1603012456321302
 31
0.0
  0
LINE
  5
27095
  8
0
 10
4881.7663321601276039
 20
23.1353013313321192
 30
0.0
 11
4881.7573321601275893
 21
23.1263013621321285
 31
0.0
  0
LINE
  5
27096
  8
0
 10
4881.7663321601276039
 20
23.1603012456321302
 30
0.0
 11
4881.768431965308082
 21
23.1603012456321302
 31
0.0
  0
LINE
  5
27097
  8
0
 10
4881.782332160128135
 20
23.1263013621321285
 30
0.0
 11
4881.7663321601276039
 21
23.1263013621321285
 31
0.0
  0
LINE
  5
27098
  8
0
 10
4881.4468367648623826
 20
23.15130127653212
 30
0.0
 11
4881.4573321601283169
 21
23.15130127653212
 31
0.0
  0
LINE
  5
27099
  8
0
 10
4881.4573321601283169
 20
23.15130127653212
 30
0.0
 11
4881.4573321601283169
 21
23.1353013313321192
 31
0.0
  0
LINE
  5
2709A
  8
0
 10
4881.4573321601283169
 20
23.1353013313321192
 30
0.0
 11
4881.4413321601277858
 21
23.1353013313321192
 31
0.0
  0
LINE
  5
2709B
  8
0
 10
4881.4413321601277858
 20
23.1353013313321192
 30
0.0
 11
4881.4413321601277858
 21
23.1448101754752606
 31
0.0
  0
LINE
  5
2709C
  8
0
 10
4881.4573321601283169
 20
23.15130127653212
 30
0.0
 11
4881.4663321601292409
 21
23.1603012456321302
 31
0.0
  0
LINE
  5
2709D
  8
0
 10
4881.4573321601283169
 20
23.1353013313321192
 30
0.0
 11
4881.4663321601292409
 21
23.1263013621321285
 31
0.0
  0
LINE
  5
2709E
  8
0
 10
4881.4413321601277858
 20
23.1353013313321192
 30
0.0
 11
4881.4323321601277712
 21
23.1263013621321285
 31
0.0
  0
LINE
  5
2709F
  8
0
 10
4881.4552323549469293
 20
23.1603012456321302
 30
0.0
 11
4881.4573321601283169
 21
23.1603012456321302
 31
0.0
  0
LINE
  5
270A0
  8
0
 10
4881.4573321601283169
 20
23.1263013621321285
 30
0.0
 11
4881.4413321601277858
 21
23.1263013621321285
 31
0.0
  0
LINE
  5
270A1
  8
0
 10
4881.5913321601283315
 20
23.1013014479321193
 30
0.0
 11
4881.6073321601279531
 21
23.1013014479321193
 31
0.0
  0
LINE
  5
270A2
  8
0
 10
4881.6073321601279531
 20
23.1013014479321193
 30
0.0
 11
4881.6073321601279531
 21
23.0853015027321185
 31
0.0
  0
LINE
  5
270A3
  8
0
 10
4881.6073321601279531
 20
23.0853015027321185
 30
0.0
 11
4881.5913321601283315
 21
23.0853015027321185
 31
0.0
  0
LINE
  5
270A4
  8
0
 10
4881.5913321601283315
 20
23.0853015027321185
 30
0.0
 11
4881.5913321601283315
 21
23.1013014479321193
 31
0.0
  0
LINE
  5
270A5
  8
0
 10
4881.6073321601279531
 20
23.1013014479321193
 30
0.0
 11
4881.6163321601279677
 21
23.1103014170321295
 31
0.0
  0
LINE
  5
270A6
  8
0
 10
4881.6073321601279531
 20
23.0853015027321185
 30
0.0
 11
4881.6163321601279677
 21
23.0763015335321207
 31
0.0
  0
LINE
  5
270A7
  8
0
 10
4881.5913321601283315
 20
23.1013014479321193
 30
0.0
 11
4881.5823321601283169
 21
23.1103014170321295
 31
0.0
  0
LINE
  5
270A8
  8
0
 10
4881.5913321601283315
 20
23.0853015027321185
 30
0.0
 11
4881.5823321601283169
 21
23.0763015335321207
 31
0.0
  0
LINE
  5
270A9
  8
0
 10
4881.5913321601283315
 20
23.1103014170321295
 30
0.0
 11
4881.6073321601279531
 21
23.1103014170321295
 31
0.0
  0
LINE
  5
270AA
  8
0
 10
4881.6073321601279531
 20
23.0763015335321207
 30
0.0
 11
4881.5913321601283315
 21
23.0763015335321207
 31
0.0
  0
LINE
  5
270AB
  8
0
 10
4881.5663321601277858
 20
23.1013014479321193
 30
0.0
 11
4881.5823321601283169
 21
23.1013014479321193
 31
0.0
  0
LINE
  5
270AC
  8
0
 10
4881.5823321601283169
 20
23.1013014479321193
 30
0.0
 11
4881.5823321601283169
 21
23.0853015027321185
 31
0.0
  0
LINE
  5
270AD
  8
0
 10
4881.5823321601283169
 20
23.0853015027321185
 30
0.0
 11
4881.5663321601277858
 21
23.0853015027321185
 31
0.0
  0
LINE
  5
270AE
  8
0
 10
4881.5663321601277858
 20
23.0853015027321185
 30
0.0
 11
4881.5663321601277858
 21
23.1013014479321193
 31
0.0
  0
LINE
  5
270AF
  8
0
 10
4881.5823321601283169
 20
23.1013014479321193
 30
0.0
 11
4881.5913321601283315
 21
23.1103014170321295
 31
0.0
  0
LINE
  5
270B0
  8
0
 10
4881.5823321601283169
 20
23.0853015027321185
 30
0.0
 11
4881.5913321601283315
 21
23.0763015335321207
 31
0.0
  0
LINE
  5
270B1
  8
0
 10
4881.5663321601277858
 20
23.1013014479321193
 30
0.0
 11
4881.5573321601268617
 21
23.1103014170321295
 31
0.0
  0
LINE
  5
270B2
  8
0
 10
4881.5663321601277858
 20
23.0853015027321185
 30
0.0
 11
4881.5573321601268617
 21
23.0763015335321207
 31
0.0
  0
LINE
  5
270B3
  8
0
 10
4881.5663321601277858
 20
23.1103014170321295
 30
0.0
 11
4881.5823321601283169
 21
23.1103014170321295
 31
0.0
  0
LINE
  5
270B4
  8
0
 10
4881.5823321601283169
 20
23.0763015335321207
 30
0.0
 11
4881.5663321601277858
 21
23.0763015335321207
 31
0.0
  0
LINE
  5
270B5
  8
0
 10
4881.541332160129059
 20
23.1013014479321193
 30
0.0
 11
4881.5573321601268617
 21
23.1013014479321193
 31
0.0
  0
LINE
  5
270B6
  8
0
 10
4881.5573321601268617
 20
23.1013014479321193
 30
0.0
 11
4881.5573321601268617
 21
23.0853015027321185
 31
0.0
  0
LINE
  5
270B7
  8
0
 10
4881.5573321601268617
 20
23.0853015027321185
 30
0.0
 11
4881.541332160129059
 21
23.0853015027321185
 31
0.0
  0
LINE
  5
270B8
  8
0
 10
4881.541332160129059
 20
23.0853015027321185
 30
0.0
 11
4881.541332160129059
 21
23.1013014479321193
 31
0.0
  0
LINE
  5
270B9
  8
0
 10
4881.5573321601268617
 20
23.1013014479321193
 30
0.0
 11
4881.5663321601277858
 21
23.1103014170321295
 31
0.0
  0
LINE
  5
270BA
  8
0
 10
4881.5573321601268617
 20
23.0853015027321185
 30
0.0
 11
4881.5663321601277858
 21
23.0763015335321207
 31
0.0
  0
LINE
  5
270BB
  8
0
 10
4881.541332160129059
 20
23.1013014479321193
 30
0.0
 11
4881.532332160128135
 21
23.1103014170321295
 31
0.0
  0
LINE
  5
270BC
  8
0
 10
4881.541332160129059
 20
23.0853015027321185
 30
0.0
 11
4881.532332160128135
 21
23.0763015335321207
 31
0.0
  0
LINE
  5
270BD
  8
0
 10
4881.541332160129059
 20
23.1103014170321295
 30
0.0
 11
4881.5573321601268617
 21
23.1103014170321295
 31
0.0
  0
LINE
  5
270BE
  8
0
 10
4881.5573321601268617
 20
23.0763015335321207
 30
0.0
 11
4881.541332160129059
 21
23.0763015335321207
 31
0.0
  0
LINE
  5
270BF
  8
0
 10
4881.5163321601276039
 20
23.1013014479321193
 30
0.0
 11
4881.532332160128135
 21
23.1013014479321193
 31
0.0
  0
LINE
  5
270C0
  8
0
 10
4881.532332160128135
 20
23.1013014479321193
 30
0.0
 11
4881.532332160128135
 21
23.0853015027321185
 31
0.0
  0
LINE
  5
270C1
  8
0
 10
4881.532332160128135
 20
23.0853015027321185
 30
0.0
 11
4881.5163321601276039
 21
23.0853015027321185
 31
0.0
  0
LINE
  5
270C2
  8
0
 10
4881.5163321601276039
 20
23.0853015027321185
 30
0.0
 11
4881.5163321601276039
 21
23.1013014479321193
 31
0.0
  0
LINE
  5
270C3
  8
0
 10
4881.532332160128135
 20
23.1013014479321193
 30
0.0
 11
4881.541332160129059
 21
23.1103014170321295
 31
0.0
  0
LINE
  5
270C4
  8
0
 10
4881.532332160128135
 20
23.0853015027321185
 30
0.0
 11
4881.541332160129059
 21
23.0763015335321207
 31
0.0
  0
LINE
  5
270C5
  8
0
 10
4881.5163321601276039
 20
23.1013014479321193
 30
0.0
 11
4881.5073321601266798
 21
23.1103014170321295
 31
0.0
  0
LINE
  5
270C6
  8
0
 10
4881.5163321601276039
 20
23.0853015027321185
 30
0.0
 11
4881.5073321601266798
 21
23.0763015335321207
 31
0.0
  0
LINE
  5
270C7
  8
0
 10
4881.5163321601276039
 20
23.1103014170321295
 30
0.0
 11
4881.532332160128135
 21
23.1103014170321295
 31
0.0
  0
LINE
  5
270C8
  8
0
 10
4881.532332160128135
 20
23.0763015335321207
 30
0.0
 11
4881.5163321601276039
 21
23.0763015335321207
 31
0.0
  0
LINE
  5
270C9
  8
0
 10
4881.4913321601279677
 20
23.1013014479321193
 30
0.0
 11
4881.5073321601266798
 21
23.1013014479321193
 31
0.0
  0
LINE
  5
270CA
  8
0
 10
4881.5073321601266798
 20
23.1013014479321193
 30
0.0
 11
4881.5073321601266798
 21
23.0853015027321185
 31
0.0
  0
LINE
  5
270CB
  8
0
 10
4881.5073321601266798
 20
23.0853015027321185
 30
0.0
 11
4881.4913321601279677
 21
23.0853015027321185
 31
0.0
  0
LINE
  5
270CC
  8
0
 10
4881.4913321601279677
 20
23.0853015027321185
 30
0.0
 11
4881.4913321601279677
 21
23.1013014479321193
 31
0.0
  0
LINE
  5
270CD
  8
0
 10
4881.5073321601266798
 20
23.1013014479321193
 30
0.0
 11
4881.5163321601276039
 21
23.1103014170321295
 31
0.0
  0
LINE
  5
270CE
  8
0
 10
4881.5073321601266798
 20
23.0853015027321185
 30
0.0
 11
4881.5163321601276039
 21
23.0763015335321207
 31
0.0
  0
LINE
  5
270CF
  8
0
 10
4881.4913321601279677
 20
23.1013014479321193
 30
0.0
 11
4881.4823321601279531
 21
23.1103014170321295
 31
0.0
  0
LINE
  5
270D0
  8
0
 10
4881.4913321601279677
 20
23.0853015027321185
 30
0.0
 11
4881.4823321601279531
 21
23.0763015335321207
 31
0.0
  0
LINE
  5
270D1
  8
0
 10
4881.4913321601279677
 20
23.1103014170321295
 30
0.0
 11
4881.5073321601266798
 21
23.1103014170321295
 31
0.0
  0
LINE
  5
270D2
  8
0
 10
4881.5073321601266798
 20
23.0763015335321207
 30
0.0
 11
4881.4913321601279677
 21
23.0763015335321207
 31
0.0
  0
LINE
  5
270D3
  8
0
 10
4881.4663321601292409
 20
23.1013014479321193
 30
0.0
 11
4881.4823321601279531
 21
23.1013014479321193
 31
0.0
  0
LINE
  5
270D4
  8
0
 10
4881.4823321601279531
 20
23.1013014479321193
 30
0.0
 11
4881.4823321601279531
 21
23.0853015027321185
 31
0.0
  0
LINE
  5
270D5
  8
0
 10
4881.4823321601279531
 20
23.0853015027321185
 30
0.0
 11
4881.4663321601292409
 21
23.0853015027321185
 31
0.0
  0
LINE
  5
270D6
  8
0
 10
4881.4663321601292409
 20
23.0853015027321185
 30
0.0
 11
4881.4663321601292409
 21
23.1013014479321193
 31
0.0
  0
LINE
  5
270D7
  8
0
 10
4881.4823321601279531
 20
23.1013014479321193
 30
0.0
 11
4881.4913321601279677
 21
23.1103014170321295
 31
0.0
  0
LINE
  5
270D8
  8
0
 10
4881.4823321601279531
 20
23.0853015027321185
 30
0.0
 11
4881.4913321601279677
 21
23.0763015335321207
 31
0.0
  0
LINE
  5
270D9
  8
0
 10
4881.4663321601292409
 20
23.1013014479321193
 30
0.0
 11
4881.4573321601283169
 21
23.1103014170321295
 31
0.0
  0
LINE
  5
270DA
  8
0
 10
4881.4663321601292409
 20
23.0853015027321185
 30
0.0
 11
4881.4573321601283169
 21
23.0763015335321207
 31
0.0
  0
LINE
  5
270DB
  8
0
 10
4881.4663321601292409
 20
23.1103014170321295
 30
0.0
 11
4881.4823321601279531
 21
23.1103014170321295
 31
0.0
  0
LINE
  5
270DC
  8
0
 10
4881.4823321601279531
 20
23.0763015335321207
 30
0.0
 11
4881.4663321601292409
 21
23.0763015335321207
 31
0.0
  0
LINE
  5
270DD
  8
0
 10
4881.6163321601279677
 20
23.1013014479321193
 30
0.0
 11
4881.6323321601266798
 21
23.1013014479321193
 31
0.0
  0
LINE
  5
270DE
  8
0
 10
4881.6323321601266798
 20
23.1013014479321193
 30
0.0
 11
4881.6323321601266798
 21
23.0853015027321185
 31
0.0
  0
LINE
  5
270DF
  8
0
 10
4881.6323321601266798
 20
23.0853015027321185
 30
0.0
 11
4881.6163321601279677
 21
23.0853015027321185
 31
0.0
  0
LINE
  5
270E0
  8
0
 10
4881.6163321601279677
 20
23.0853015027321185
 30
0.0
 11
4881.6163321601279677
 21
23.1013014479321193
 31
0.0
  0
LINE
  5
270E1
  8
0
 10
4881.6323321601266798
 20
23.1013014479321193
 30
0.0
 11
4881.6413321601266944
 21
23.1103014170321295
 31
0.0
  0
LINE
  5
270E2
  8
0
 10
4881.6323321601266798
 20
23.0853015027321185
 30
0.0
 11
4881.6413321601266944
 21
23.0763015335321207
 31
0.0
  0
LINE
  5
270E3
  8
0
 10
4881.6163321601279677
 20
23.1013014479321193
 30
0.0
 11
4881.6073321601279531
 21
23.1103014170321295
 31
0.0
  0
LINE
  5
270E4
  8
0
 10
4881.6163321601279677
 20
23.0853015027321185
 30
0.0
 11
4881.6073321601279531
 21
23.0763015335321207
 31
0.0
  0
LINE
  5
270E5
  8
0
 10
4881.6163321601279677
 20
23.1103014170321295
 30
0.0
 11
4881.6323321601266798
 21
23.1103014170321295
 31
0.0
  0
LINE
  5
270E6
  8
0
 10
4881.6323321601266798
 20
23.0763015335321207
 30
0.0
 11
4881.6163321601279677
 21
23.0763015335321207
 31
0.0
  0
LINE
  5
270E7
  8
0
 10
4881.6413321601266944
 20
23.1013014479321193
 30
0.0
 11
4881.657332160128135
 21
23.1013014479321193
 31
0.0
  0
LINE
  5
270E8
  8
0
 10
4881.657332160128135
 20
23.1013014479321193
 30
0.0
 11
4881.657332160128135
 21
23.0853015027321185
 31
0.0
  0
LINE
  5
270E9
  8
0
 10
4881.657332160128135
 20
23.0853015027321185
 30
0.0
 11
4881.6413321601266944
 21
23.0853015027321185
 31
0.0
  0
LINE
  5
270EA
  8
0
 10
4881.6413321601266944
 20
23.0853015027321185
 30
0.0
 11
4881.6413321601266944
 21
23.1013014479321193
 31
0.0
  0
LINE
  5
270EB
  8
0
 10
4881.657332160128135
 20
23.1013014479321193
 30
0.0
 11
4881.6663321601281496
 21
23.1103014170321295
 31
0.0
  0
LINE
  5
270EC
  8
0
 10
4881.657332160128135
 20
23.0853015027321185
 30
0.0
 11
4881.6663321601281496
 21
23.0763015335321207
 31
0.0
  0
LINE
  5
270ED
  8
0
 10
4881.6413321601266944
 20
23.1013014479321193
 30
0.0
 11
4881.6323321601266798
 21
23.1103014170321295
 31
0.0
  0
LINE
  5
270EE
  8
0
 10
4881.6413321601266944
 20
23.0853015027321185
 30
0.0
 11
4881.6323321601266798
 21
23.0763015335321207
 31
0.0
  0
LINE
  5
270EF
  8
0
 10
4881.6413321601266944
 20
23.1103014170321295
 30
0.0
 11
4881.657332160128135
 21
23.1103014170321295
 31
0.0
  0
LINE
  5
270F0
  8
0
 10
4881.657332160128135
 20
23.0763015335321207
 30
0.0
 11
4881.6413321601266944
 21
23.0763015335321207
 31
0.0
  0
LINE
  5
270F1
  8
0
 10
4881.6663321601281496
 20
23.1013014479321193
 30
0.0
 11
4881.6823321601277712
 21
23.1013014479321193
 31
0.0
  0
LINE
  5
270F2
  8
0
 10
4881.6823321601277712
 20
23.1013014479321193
 30
0.0
 11
4881.6823321601277712
 21
23.0853015027321185
 31
0.0
  0
LINE
  5
270F3
  8
0
 10
4881.6823321601277712
 20
23.0853015027321185
 30
0.0
 11
4881.6663321601281496
 21
23.0853015027321185
 31
0.0
  0
LINE
  5
270F4
  8
0
 10
4881.6663321601281496
 20
23.0853015027321185
 30
0.0
 11
4881.6663321601281496
 21
23.1013014479321193
 31
0.0
  0
LINE
  5
270F5
  8
0
 10
4881.6823321601277712
 20
23.1013014479321193
 30
0.0
 11
4881.6913321601268763
 21
23.1103014170321295
 31
0.0
  0
LINE
  5
270F6
  8
0
 10
4881.6823321601277712
 20
23.0853015027321185
 30
0.0
 11
4881.6913321601268763
 21
23.0763015335321207
 31
0.0
  0
LINE
  5
270F7
  8
0
 10
4881.6663321601281496
 20
23.1013014479321193
 30
0.0
 11
4881.657332160128135
 21
23.1103014170321295
 31
0.0
  0
LINE
  5
270F8
  8
0
 10
4881.6663321601281496
 20
23.0853015027321185
 30
0.0
 11
4881.657332160128135
 21
23.0763015335321207
 31
0.0
  0
LINE
  5
270F9
  8
0
 10
4881.6663321601281496
 20
23.1103014170321295
 30
0.0
 11
4881.6823321601277712
 21
23.1103014170321295
 31
0.0
  0
LINE
  5
270FA
  8
0
 10
4881.6823321601277712
 20
23.0763015335321207
 30
0.0
 11
4881.6663321601281496
 21
23.0763015335321207
 31
0.0
  0
LINE
  5
270FB
  8
0
 10
4881.6913321601268763
 20
23.1013014479321193
 30
0.0
 11
4881.7073321601292264
 21
23.1013014479321193
 31
0.0
  0
LINE
  5
270FC
  8
0
 10
4881.7073321601292264
 20
23.1013014479321193
 30
0.0
 11
4881.7073321601292264
 21
23.0853015027321185
 31
0.0
  0
LINE
  5
270FD
  8
0
 10
4881.7073321601292264
 20
23.0853015027321185
 30
0.0
 11
4881.6913321601268763
 21
23.0853015027321185
 31
0.0
  0
LINE
  5
270FE
  8
0
 10
4881.6913321601268763
 20
23.0853015027321185
 30
0.0
 11
4881.6913321601268763
 21
23.1013014479321193
 31
0.0
  0
LINE
  5
270FF
  8
0
 10
4881.7073321601292264
 20
23.1013014479321193
 30
0.0
 11
4881.7163321601283315
 21
23.1103014170321295
 31
0.0
  0
LINE
  5
27100
  8
0
 10
4881.7073321601292264
 20
23.0853015027321185
 30
0.0
 11
4881.7163321601283315
 21
23.0763015335321207
 31
0.0
  0
LINE
  5
27101
  8
0
 10
4881.6913321601268763
 20
23.1013014479321193
 30
0.0
 11
4881.6823321601277712
 21
23.1103014170321295
 31
0.0
  0
LINE
  5
27102
  8
0
 10
4881.6913321601268763
 20
23.0853015027321185
 30
0.0
 11
4881.6823321601277712
 21
23.0763015335321207
 31
0.0
  0
LINE
  5
27103
  8
0
 10
4881.6913321601268763
 20
23.1103014170321295
 30
0.0
 11
4881.7073321601292264
 21
23.1103014170321295
 31
0.0
  0
LINE
  5
27104
  8
0
 10
4881.7073321601292264
 20
23.0763015335321207
 30
0.0
 11
4881.6913321601268763
 21
23.0763015335321207
 31
0.0
  0
LINE
  5
27105
  8
0
 10
4881.7163321601283315
 20
23.1013014479321193
 30
0.0
 11
4881.7323321601279531
 21
23.1013014479321193
 31
0.0
  0
LINE
  5
27106
  8
0
 10
4881.7323321601279531
 20
23.1013014479321193
 30
0.0
 11
4881.7323321601279531
 21
23.0853015027321185
 31
0.0
  0
LINE
  5
27107
  8
0
 10
4881.7323321601279531
 20
23.0853015027321185
 30
0.0
 11
4881.7163321601283315
 21
23.0853015027321185
 31
0.0
  0
LINE
  5
27108
  8
0
 10
4881.7163321601283315
 20
23.0853015027321185
 30
0.0
 11
4881.7163321601283315
 21
23.1013014479321193
 31
0.0
  0
LINE
  5
27109
  8
0
 10
4881.7323321601279531
 20
23.1013014479321193
 30
0.0
 11
4881.7413321601279677
 21
23.1103014170321295
 31
0.0
  0
LINE
  5
2710A
  8
0
 10
4881.7323321601279531
 20
23.0853015027321185
 30
0.0
 11
4881.7413321601279677
 21
23.0763015335321207
 31
0.0
  0
LINE
  5
2710B
  8
0
 10
4881.7163321601283315
 20
23.1013014479321193
 30
0.0
 11
4881.7073321601292264
 21
23.1103014170321295
 31
0.0
  0
LINE
  5
2710C
  8
0
 10
4881.7163321601283315
 20
23.0853015027321185
 30
0.0
 11
4881.7073321601292264
 21
23.0763015335321207
 31
0.0
  0
LINE
  5
2710D
  8
0
 10
4881.7163321601283315
 20
23.1103014170321295
 30
0.0
 11
4881.7323321601279531
 21
23.1103014170321295
 31
0.0
  0
LINE
  5
2710E
  8
0
 10
4881.7323321601279531
 20
23.0763015335321207
 30
0.0
 11
4881.7163321601283315
 21
23.0763015335321207
 31
0.0
  0
LINE
  5
2710F
  8
0
 10
4881.7413321601279677
 20
23.1013014479321193
 30
0.0
 11
4881.7573321601275893
 21
23.1013014479321193
 31
0.0
  0
LINE
  5
27110
  8
0
 10
4881.7573321601275893
 20
23.1013014479321193
 30
0.0
 11
4881.7573321601275893
 21
23.0853015027321185
 31
0.0
  0
LINE
  5
27111
  8
0
 10
4881.7573321601275893
 20
23.0853015027321185
 30
0.0
 11
4881.7413321601279677
 21
23.0853015027321185
 31
0.0
  0
LINE
  5
27112
  8
0
 10
4881.7413321601279677
 20
23.0853015027321185
 30
0.0
 11
4881.7413321601279677
 21
23.1013014479321193
 31
0.0
  0
LINE
  5
27113
  8
0
 10
4881.7573321601275893
 20
23.1013014479321193
 30
0.0
 11
4881.7663321601276039
 21
23.1103014170321295
 31
0.0
  0
LINE
  5
27114
  8
0
 10
4881.7573321601275893
 20
23.0853015027321185
 30
0.0
 11
4881.7663321601276039
 21
23.0763015335321207
 31
0.0
  0
LINE
  5
27115
  8
0
 10
4881.7413321601279677
 20
23.1013014479321193
 30
0.0
 11
4881.7323321601279531
 21
23.1103014170321295
 31
0.0
  0
LINE
  5
27116
  8
0
 10
4881.7413321601279677
 20
23.0853015027321185
 30
0.0
 11
4881.7323321601279531
 21
23.0763015335321207
 31
0.0
  0
LINE
  5
27117
  8
0
 10
4881.7413321601279677
 20
23.1103014170321295
 30
0.0
 11
4881.7573321601275893
 21
23.1103014170321295
 31
0.0
  0
LINE
  5
27118
  8
0
 10
4881.7573321601275893
 20
23.0763015335321207
 30
0.0
 11
4881.7413321601279677
 21
23.0763015335321207
 31
0.0
  0
LINE
  5
27119
  8
0
 10
4881.7663321601276039
 20
23.1013014479321193
 30
0.0
 11
4881.782332160128135
 21
23.1013014479321193
 31
0.0
  0
LINE
  5
2711A
  8
0
 10
4881.782332160128135
 20
23.1013014479321193
 30
0.0
 11
4881.782332160128135
 21
23.0853015027321185
 31
0.0
  0
LINE
  5
2711B
  8
0
 10
4881.782332160128135
 20
23.0853015027321185
 30
0.0
 11
4881.7663321601276039
 21
23.0853015027321185
 31
0.0
  0
LINE
  5
2711C
  8
0
 10
4881.7663321601276039
 20
23.0853015027321185
 30
0.0
 11
4881.7663321601276039
 21
23.1013014479321193
 31
0.0
  0
LINE
  5
2711D
  8
0
 10
4881.782332160128135
 20
23.1013014479321193
 30
0.0
 11
4881.7913321601281496
 21
23.1103014170321295
 31
0.0
  0
LINE
  5
2711E
  8
0
 10
4881.782332160128135
 20
23.0853015027321185
 30
0.0
 11
4881.7913321601281496
 21
23.0763015335321207
 31
0.0
  0
LINE
  5
2711F
  8
0
 10
4881.7663321601276039
 20
23.1013014479321193
 30
0.0
 11
4881.7573321601275893
 21
23.1103014170321295
 31
0.0
  0
LINE
  5
27120
  8
0
 10
4881.7663321601276039
 20
23.0853015027321185
 30
0.0
 11
4881.7573321601275893
 21
23.0763015335321207
 31
0.0
  0
LINE
  5
27121
  8
0
 10
4881.7663321601276039
 20
23.1103014170321295
 30
0.0
 11
4881.782332160128135
 21
23.1103014170321295
 31
0.0
  0
LINE
  5
27122
  8
0
 10
4881.782332160128135
 20
23.0763015335321207
 30
0.0
 11
4881.7663321601276039
 21
23.0763015335321207
 31
0.0
  0
LINE
  5
27123
  8
0
 10
4881.4413321601277858
 20
23.1013014479321193
 30
0.0
 11
4881.4573321601283169
 21
23.1013014479321193
 31
0.0
  0
LINE
  5
27124
  8
0
 10
4881.4573321601283169
 20
23.1013014479321193
 30
0.0
 11
4881.4573321601283169
 21
23.0853015027321185
 31
0.0
  0
LINE
  5
27125
  8
0
 10
4881.4573321601283169
 20
23.0853015027321185
 30
0.0
 11
4881.4413321601277858
 21
23.0853015027321185
 31
0.0
  0
LINE
  5
27126
  8
0
 10
4881.4413321601277858
 20
23.0853015027321185
 30
0.0
 11
4881.4413321601277858
 21
23.1013014479321193
 31
0.0
  0
LINE
  5
27127
  8
0
 10
4881.4573321601283169
 20
23.1013014479321193
 30
0.0
 11
4881.4663321601292409
 21
23.1103014170321295
 31
0.0
  0
LINE
  5
27128
  8
0
 10
4881.4573321601283169
 20
23.0853015027321185
 30
0.0
 11
4881.4663321601292409
 21
23.0763015335321207
 31
0.0
  0
LINE
  5
27129
  8
0
 10
4881.4413321601277858
 20
23.1013014479321193
 30
0.0
 11
4881.4323321601277712
 21
23.1103014170321295
 31
0.0
  0
LINE
  5
2712A
  8
0
 10
4881.4413321601277858
 20
23.0853015027321185
 30
0.0
 11
4881.4323321601277712
 21
23.0763015335321207
 31
0.0
  0
LINE
  5
2712B
  8
0
 10
4881.4413321601277858
 20
23.1103014170321295
 30
0.0
 11
4881.4573321601283169
 21
23.1103014170321295
 31
0.0
  0
LINE
  5
2712C
  8
0
 10
4881.4573321601283169
 20
23.0763015335321207
 30
0.0
 11
4881.4413321601277858
 21
23.0763015335321207
 31
0.0
  0
LINE
  5
2712D
  8
0
 10
4881.5913321601283315
 20
23.0513016192321203
 30
0.0
 11
4881.6073321601279531
 21
23.0513016192321203
 31
0.0
  0
LINE
  5
2712E
  8
0
 10
4881.6073321601279531
 20
23.0513016192321203
 30
0.0
 11
4881.6073321601279531
 21
23.0353016740321195
 31
0.0
  0
LINE
  5
2712F
  8
0
 10
4881.6073321601279531
 20
23.0353016740321195
 30
0.0
 11
4881.5913321601283315
 21
23.0353016740321195
 31
0.0
  0
LINE
  5
27130
  8
0
 10
4881.5913321601283315
 20
23.0353016740321195
 30
0.0
 11
4881.5913321601283315
 21
23.0513016192321203
 31
0.0
  0
LINE
  5
27131
  8
0
 10
4881.6073321601279531
 20
23.0513016192321203
 30
0.0
 11
4881.6163321601279677
 21
23.0603015883321305
 31
0.0
  0
LINE
  5
27132
  8
0
 10
4881.6073321601279531
 20
23.0353016740321195
 30
0.0
 11
4881.6163321601279677
 21
23.0263017048321217
 31
0.0
  0
LINE
  5
27133
  8
0
 10
4881.5913321601283315
 20
23.0513016192321203
 30
0.0
 11
4881.5823321601283169
 21
23.0603015883321305
 31
0.0
  0
LINE
  5
27134
  8
0
 10
4881.5913321601283315
 20
23.0353016740321195
 30
0.0
 11
4881.5823321601283169
 21
23.0263017048321217
 31
0.0
  0
LINE
  5
27135
  8
0
 10
4881.5913321601283315
 20
23.0603015883321305
 30
0.0
 11
4881.6073321601279531
 21
23.0603015883321305
 31
0.0
  0
LINE
  5
27136
  8
0
 10
4881.6073321601279531
 20
23.0263017048321217
 30
0.0
 11
4881.5913321601283315
 21
23.0263017048321217
 31
0.0
  0
LINE
  5
27137
  8
0
 10
4881.5663321601277858
 20
23.0513016192321203
 30
0.0
 11
4881.5823321601283169
 21
23.0513016192321203
 31
0.0
  0
LINE
  5
27138
  8
0
 10
4881.5823321601283169
 20
23.0513016192321203
 30
0.0
 11
4881.5823321601283169
 21
23.0353016740321195
 31
0.0
  0
LINE
  5
27139
  8
0
 10
4881.5823321601283169
 20
23.0353016740321195
 30
0.0
 11
4881.5663321601277858
 21
23.0353016740321195
 31
0.0
  0
LINE
  5
2713A
  8
0
 10
4881.5663321601277858
 20
23.0353016740321195
 30
0.0
 11
4881.5663321601277858
 21
23.0513016192321203
 31
0.0
  0
LINE
  5
2713B
  8
0
 10
4881.5823321601283169
 20
23.0513016192321203
 30
0.0
 11
4881.5913321601283315
 21
23.0603015883321305
 31
0.0
  0
LINE
  5
2713C
  8
0
 10
4881.5823321601283169
 20
23.0353016740321195
 30
0.0
 11
4881.5913321601283315
 21
23.0263017048321217
 31
0.0
  0
LINE
  5
2713D
  8
0
 10
4881.5663321601277858
 20
23.0513016192321203
 30
0.0
 11
4881.5573321601268617
 21
23.0603015883321305
 31
0.0
  0
LINE
  5
2713E
  8
0
 10
4881.5663321601277858
 20
23.0353016740321195
 30
0.0
 11
4881.5573321601268617
 21
23.0263017048321217
 31
0.0
  0
LINE
  5
2713F
  8
0
 10
4881.5663321601277858
 20
23.0603015883321305
 30
0.0
 11
4881.5823321601283169
 21
23.0603015883321305
 31
0.0
  0
LINE
  5
27140
  8
0
 10
4881.5823321601283169
 20
23.0263017048321217
 30
0.0
 11
4881.5663321601277858
 21
23.0263017048321217
 31
0.0
  0
LINE
  5
27141
  8
0
 10
4881.541332160129059
 20
23.0513016192321203
 30
0.0
 11
4881.5573321601268617
 21
23.0513016192321203
 31
0.0
  0
LINE
  5
27142
  8
0
 10
4881.5573321601268617
 20
23.0513016192321203
 30
0.0
 11
4881.5573321601268617
 21
23.0353016740321195
 31
0.0
  0
LINE
  5
27143
  8
0
 10
4881.5573321601268617
 20
23.0353016740321195
 30
0.0
 11
4881.541332160129059
 21
23.0353016740321195
 31
0.0
  0
LINE
  5
27144
  8
0
 10
4881.541332160129059
 20
23.0353016740321195
 30
0.0
 11
4881.541332160129059
 21
23.0513016192321203
 31
0.0
  0
LINE
  5
27145
  8
0
 10
4881.5573321601268617
 20
23.0513016192321203
 30
0.0
 11
4881.5663321601277858
 21
23.0603015883321305
 31
0.0
  0
LINE
  5
27146
  8
0
 10
4881.5573321601268617
 20
23.0353016740321195
 30
0.0
 11
4881.5663321601277858
 21
23.0263017048321217
 31
0.0
  0
LINE
  5
27147
  8
0
 10
4881.541332160129059
 20
23.0513016192321203
 30
0.0
 11
4881.532332160128135
 21
23.0603015883321305
 31
0.0
  0
LINE
  5
27148
  8
0
 10
4881.541332160129059
 20
23.0353016740321195
 30
0.0
 11
4881.532332160128135
 21
23.0263017048321217
 31
0.0
  0
LINE
  5
27149
  8
0
 10
4881.541332160129059
 20
23.0603015883321305
 30
0.0
 11
4881.5573321601268617
 21
23.0603015883321305
 31
0.0
  0
LINE
  5
2714A
  8
0
 10
4881.5573321601268617
 20
23.0263017048321217
 30
0.0
 11
4881.541332160129059
 21
23.0263017048321217
 31
0.0
  0
LINE
  5
2714B
  8
0
 10
4881.5163321601276039
 20
23.0513016192321203
 30
0.0
 11
4881.532332160128135
 21
23.0513016192321203
 31
0.0
  0
LINE
  5
2714C
  8
0
 10
4881.532332160128135
 20
23.0513016192321203
 30
0.0
 11
4881.532332160128135
 21
23.0353016740321195
 31
0.0
  0
LINE
  5
2714D
  8
0
 10
4881.532332160128135
 20
23.0353016740321195
 30
0.0
 11
4881.5163321601276039
 21
23.0353016740321195
 31
0.0
  0
LINE
  5
2714E
  8
0
 10
4881.5163321601276039
 20
23.0353016740321195
 30
0.0
 11
4881.5163321601276039
 21
23.0513016192321203
 31
0.0
  0
LINE
  5
2714F
  8
0
 10
4881.532332160128135
 20
23.0513016192321203
 30
0.0
 11
4881.541332160129059
 21
23.0603015883321305
 31
0.0
  0
LINE
  5
27150
  8
0
 10
4881.532332160128135
 20
23.0353016740321195
 30
0.0
 11
4881.541332160129059
 21
23.0263017048321217
 31
0.0
  0
LINE
  5
27151
  8
0
 10
4881.5163321601276039
 20
23.0513016192321203
 30
0.0
 11
4881.5073321601266798
 21
23.0603015883321305
 31
0.0
  0
LINE
  5
27152
  8
0
 10
4881.5163321601276039
 20
23.0353016740321195
 30
0.0
 11
4881.5073321601266798
 21
23.0263017048321217
 31
0.0
  0
LINE
  5
27153
  8
0
 10
4881.5163321601276039
 20
23.0603015883321305
 30
0.0
 11
4881.532332160128135
 21
23.0603015883321305
 31
0.0
  0
LINE
  5
27154
  8
0
 10
4881.532332160128135
 20
23.0263017048321217
 30
0.0
 11
4881.5163321601276039
 21
23.0263017048321217
 31
0.0
  0
LINE
  5
27155
  8
0
 10
4881.4913321601279677
 20
23.0513016192321203
 30
0.0
 11
4881.5073321601266798
 21
23.0513016192321203
 31
0.0
  0
LINE
  5
27156
  8
0
 10
4881.5073321601266798
 20
23.0513016192321203
 30
0.0
 11
4881.5073321601266798
 21
23.0353016740321195
 31
0.0
  0
LINE
  5
27157
  8
0
 10
4881.5073321601266798
 20
23.0353016740321195
 30
0.0
 11
4881.4913321601279677
 21
23.0353016740321195
 31
0.0
  0
LINE
  5
27158
  8
0
 10
4881.4913321601279677
 20
23.0353016740321195
 30
0.0
 11
4881.4913321601279677
 21
23.0513016192321203
 31
0.0
  0
LINE
  5
27159
  8
0
 10
4881.5073321601266798
 20
23.0513016192321203
 30
0.0
 11
4881.5163321601276039
 21
23.0603015883321305
 31
0.0
  0
LINE
  5
2715A
  8
0
 10
4881.5073321601266798
 20
23.0353016740321195
 30
0.0
 11
4881.5163321601276039
 21
23.0263017048321217
 31
0.0
  0
LINE
  5
2715B
  8
0
 10
4881.4913321601279677
 20
23.0513016192321203
 30
0.0
 11
4881.4823321601279531
 21
23.0603015883321305
 31
0.0
  0
LINE
  5
2715C
  8
0
 10
4881.4913321601279677
 20
23.0353016740321195
 30
0.0
 11
4881.4823321601279531
 21
23.0263017048321217
 31
0.0
  0
LINE
  5
2715D
  8
0
 10
4881.4913321601279677
 20
23.0603015883321305
 30
0.0
 11
4881.5073321601266798
 21
23.0603015883321305
 31
0.0
  0
LINE
  5
2715E
  8
0
 10
4881.5073321601266798
 20
23.0263017048321217
 30
0.0
 11
4881.4913321601279677
 21
23.0263017048321217
 31
0.0
  0
LINE
  5
2715F
  8
0
 10
4881.4663321601292409
 20
23.0513016192321203
 30
0.0
 11
4881.4823321601279531
 21
23.0513016192321203
 31
0.0
  0
LINE
  5
27160
  8
0
 10
4881.4823321601279531
 20
23.0513016192321203
 30
0.0
 11
4881.4823321601279531
 21
23.0353016740321195
 31
0.0
  0
LINE
  5
27161
  8
0
 10
4881.4823321601279531
 20
23.0353016740321195
 30
0.0
 11
4881.4663321601292409
 21
23.0353016740321195
 31
0.0
  0
LINE
  5
27162
  8
0
 10
4881.4663321601292409
 20
23.0353016740321195
 30
0.0
 11
4881.4663321601292409
 21
23.0513016192321203
 31
0.0
  0
LINE
  5
27163
  8
0
 10
4881.4823321601279531
 20
23.0513016192321203
 30
0.0
 11
4881.4913321601279677
 21
23.0603015883321305
 31
0.0
  0
LINE
  5
27164
  8
0
 10
4881.4823321601279531
 20
23.0353016740321195
 30
0.0
 11
4881.4913321601279677
 21
23.0263017048321217
 31
0.0
  0
LINE
  5
27165
  8
0
 10
4881.4663321601292409
 20
23.0513016192321203
 30
0.0
 11
4881.4573321601283169
 21
23.0603015883321305
 31
0.0
  0
LINE
  5
27166
  8
0
 10
4881.4663321601292409
 20
23.0353016740321195
 30
0.0
 11
4881.4573321601283169
 21
23.0263017048321217
 31
0.0
  0
LINE
  5
27167
  8
0
 10
4881.4663321601292409
 20
23.0603015883321305
 30
0.0
 11
4881.4823321601279531
 21
23.0603015883321305
 31
0.0
  0
LINE
  5
27168
  8
0
 10
4881.4823321601279531
 20
23.0263017048321217
 30
0.0
 11
4881.4663321601292409
 21
23.0263017048321217
 31
0.0
  0
LINE
  5
27169
  8
0
 10
4881.6163321601279677
 20
23.0513016192321203
 30
0.0
 11
4881.6323321601266798
 21
23.0513016192321203
 31
0.0
  0
LINE
  5
2716A
  8
0
 10
4881.6323321601266798
 20
23.0513016192321203
 30
0.0
 11
4881.6323321601266798
 21
23.0353016740321195
 31
0.0
  0
LINE
  5
2716B
  8
0
 10
4881.6323321601266798
 20
23.0353016740321195
 30
0.0
 11
4881.6163321601279677
 21
23.0353016740321195
 31
0.0
  0
LINE
  5
2716C
  8
0
 10
4881.6163321601279677
 20
23.0353016740321195
 30
0.0
 11
4881.6163321601279677
 21
23.0513016192321203
 31
0.0
  0
LINE
  5
2716D
  8
0
 10
4881.6323321601266798
 20
23.0513016192321203
 30
0.0
 11
4881.6413321601266944
 21
23.0603015883321305
 31
0.0
  0
LINE
  5
2716E
  8
0
 10
4881.6323321601266798
 20
23.0353016740321195
 30
0.0
 11
4881.6413321601266944
 21
23.0263017048321217
 31
0.0
  0
LINE
  5
2716F
  8
0
 10
4881.6163321601279677
 20
23.0513016192321203
 30
0.0
 11
4881.6073321601279531
 21
23.0603015883321305
 31
0.0
  0
LINE
  5
27170
  8
0
 10
4881.6163321601279677
 20
23.0353016740321195
 30
0.0
 11
4881.6073321601279531
 21
23.0263017048321217
 31
0.0
  0
LINE
  5
27171
  8
0
 10
4881.6163321601279677
 20
23.0603015883321305
 30
0.0
 11
4881.6323321601266798
 21
23.0603015883321305
 31
0.0
  0
LINE
  5
27172
  8
0
 10
4881.6323321601266798
 20
23.0263017048321217
 30
0.0
 11
4881.6163321601279677
 21
23.0263017048321217
 31
0.0
  0
LINE
  5
27173
  8
0
 10
4881.6413321601266944
 20
23.0513016192321203
 30
0.0
 11
4881.657332160128135
 21
23.0513016192321203
 31
0.0
  0
LINE
  5
27174
  8
0
 10
4881.657332160128135
 20
23.0513016192321203
 30
0.0
 11
4881.657332160128135
 21
23.0353016740321195
 31
0.0
  0
LINE
  5
27175
  8
0
 10
4881.657332160128135
 20
23.0353016740321195
 30
0.0
 11
4881.6413321601266944
 21
23.0353016740321195
 31
0.0
  0
LINE
  5
27176
  8
0
 10
4881.6413321601266944
 20
23.0353016740321195
 30
0.0
 11
4881.6413321601266944
 21
23.0513016192321203
 31
0.0
  0
LINE
  5
27177
  8
0
 10
4881.657332160128135
 20
23.0513016192321203
 30
0.0
 11
4881.6663321601281496
 21
23.0603015883321305
 31
0.0
  0
LINE
  5
27178
  8
0
 10
4881.657332160128135
 20
23.0353016740321195
 30
0.0
 11
4881.6663321601281496
 21
23.0263017048321217
 31
0.0
  0
LINE
  5
27179
  8
0
 10
4881.6413321601266944
 20
23.0513016192321203
 30
0.0
 11
4881.6323321601266798
 21
23.0603015883321305
 31
0.0
  0
LINE
  5
2717A
  8
0
 10
4881.6413321601266944
 20
23.0353016740321195
 30
0.0
 11
4881.6323321601266798
 21
23.0263017048321217
 31
0.0
  0
LINE
  5
2717B
  8
0
 10
4881.6413321601266944
 20
23.0603015883321305
 30
0.0
 11
4881.657332160128135
 21
23.0603015883321305
 31
0.0
  0
LINE
  5
2717C
  8
0
 10
4881.657332160128135
 20
23.0263017048321217
 30
0.0
 11
4881.6413321601266944
 21
23.0263017048321217
 31
0.0
  0
LINE
  5
2717D
  8
0
 10
4881.6663321601281496
 20
23.0513016192321203
 30
0.0
 11
4881.6823321601277712
 21
23.0513016192321203
 31
0.0
  0
LINE
  5
2717E
  8
0
 10
4881.6823321601277712
 20
23.0513016192321203
 30
0.0
 11
4881.6823321601277712
 21
23.0353016740321195
 31
0.0
  0
LINE
  5
2717F
  8
0
 10
4881.6823321601277712
 20
23.0353016740321195
 30
0.0
 11
4881.6663321601281496
 21
23.0353016740321195
 31
0.0
  0
LINE
  5
27180
  8
0
 10
4881.6663321601281496
 20
23.0353016740321195
 30
0.0
 11
4881.6663321601281496
 21
23.0513016192321203
 31
0.0
  0
LINE
  5
27181
  8
0
 10
4881.6823321601277712
 20
23.0513016192321203
 30
0.0
 11
4881.6913321601268763
 21
23.0603015883321305
 31
0.0
  0
LINE
  5
27182
  8
0
 10
4881.6823321601277712
 20
23.0353016740321195
 30
0.0
 11
4881.6913321601268763
 21
23.0263017048321217
 31
0.0
  0
LINE
  5
27183
  8
0
 10
4881.6663321601281496
 20
23.0513016192321203
 30
0.0
 11
4881.657332160128135
 21
23.0603015883321305
 31
0.0
  0
LINE
  5
27184
  8
0
 10
4881.6663321601281496
 20
23.0353016740321195
 30
0.0
 11
4881.657332160128135
 21
23.0263017048321217
 31
0.0
  0
LINE
  5
27185
  8
0
 10
4881.6663321601281496
 20
23.0603015883321305
 30
0.0
 11
4881.6823321601277712
 21
23.0603015883321305
 31
0.0
  0
LINE
  5
27186
  8
0
 10
4881.6823321601277712
 20
23.0263017048321217
 30
0.0
 11
4881.6663321601281496
 21
23.0263017048321217
 31
0.0
  0
LINE
  5
27187
  8
0
 10
4881.6913321601268763
 20
23.0513016192321203
 30
0.0
 11
4881.7073321601292264
 21
23.0513016192321203
 31
0.0
  0
LINE
  5
27188
  8
0
 10
4881.7073321601292264
 20
23.0513016192321203
 30
0.0
 11
4881.7073321601292264
 21
23.0353016740321195
 31
0.0
  0
LINE
  5
27189
  8
0
 10
4881.7073321601292264
 20
23.0353016740321195
 30
0.0
 11
4881.6913321601268763
 21
23.0353016740321195
 31
0.0
  0
LINE
  5
2718A
  8
0
 10
4881.6913321601268763
 20
23.0353016740321195
 30
0.0
 11
4881.6913321601268763
 21
23.0513016192321203
 31
0.0
  0
LINE
  5
2718B
  8
0
 10
4881.7073321601292264
 20
23.0513016192321203
 30
0.0
 11
4881.7163321601283315
 21
23.0603015883321305
 31
0.0
  0
LINE
  5
2718C
  8
0
 10
4881.7073321601292264
 20
23.0353016740321195
 30
0.0
 11
4881.7163321601283315
 21
23.0263017048321217
 31
0.0
  0
LINE
  5
2718D
  8
0
 10
4881.6913321601268763
 20
23.0513016192321203
 30
0.0
 11
4881.6823321601277712
 21
23.0603015883321305
 31
0.0
  0
LINE
  5
2718E
  8
0
 10
4881.6913321601268763
 20
23.0353016740321195
 30
0.0
 11
4881.6823321601277712
 21
23.0263017048321217
 31
0.0
  0
LINE
  5
2718F
  8
0
 10
4881.6913321601268763
 20
23.0603015883321305
 30
0.0
 11
4881.7073321601292264
 21
23.0603015883321305
 31
0.0
  0
LINE
  5
27190
  8
0
 10
4881.7073321601292264
 20
23.0263017048321217
 30
0.0
 11
4881.6913321601268763
 21
23.0263017048321217
 31
0.0
  0
LINE
  5
27191
  8
0
 10
4881.7163321601283315
 20
23.0513016192321203
 30
0.0
 11
4881.7323321601279531
 21
23.0513016192321203
 31
0.0
  0
LINE
  5
27192
  8
0
 10
4881.7323321601279531
 20
23.0513016192321203
 30
0.0
 11
4881.7323321601279531
 21
23.0353016740321195
 31
0.0
  0
LINE
  5
27193
  8
0
 10
4881.7323321601279531
 20
23.0353016740321195
 30
0.0
 11
4881.7163321601283315
 21
23.0353016740321195
 31
0.0
  0
LINE
  5
27194
  8
0
 10
4881.7163321601283315
 20
23.0353016740321195
 30
0.0
 11
4881.7163321601283315
 21
23.0513016192321203
 31
0.0
  0
LINE
  5
27195
  8
0
 10
4881.7323321601279531
 20
23.0513016192321203
 30
0.0
 11
4881.7413321601279677
 21
23.0603015883321305
 31
0.0
  0
LINE
  5
27196
  8
0
 10
4881.7323321601279531
 20
23.0353016740321195
 30
0.0
 11
4881.7413321601279677
 21
23.0263017048321217
 31
0.0
  0
LINE
  5
27197
  8
0
 10
4881.7163321601283315
 20
23.0513016192321203
 30
0.0
 11
4881.7073321601292264
 21
23.0603015883321305
 31
0.0
  0
LINE
  5
27198
  8
0
 10
4881.7163321601283315
 20
23.0353016740321195
 30
0.0
 11
4881.7073321601292264
 21
23.0263017048321217
 31
0.0
  0
LINE
  5
27199
  8
0
 10
4881.7163321601283315
 20
23.0603015883321305
 30
0.0
 11
4881.7323321601279531
 21
23.0603015883321305
 31
0.0
  0
LINE
  5
2719A
  8
0
 10
4881.7323321601279531
 20
23.0263017048321217
 30
0.0
 11
4881.7163321601283315
 21
23.0263017048321217
 31
0.0
  0
LINE
  5
2719B
  8
0
 10
4881.7413321601279677
 20
23.0513016192321203
 30
0.0
 11
4881.7573321601275893
 21
23.0513016192321203
 31
0.0
  0
LINE
  5
2719C
  8
0
 10
4881.7573321601275893
 20
23.0513016192321203
 30
0.0
 11
4881.7573321601275893
 21
23.0353016740321195
 31
0.0
  0
LINE
  5
2719D
  8
0
 10
4881.7573321601275893
 20
23.0353016740321195
 30
0.0
 11
4881.7413321601279677
 21
23.0353016740321195
 31
0.0
  0
LINE
  5
2719E
  8
0
 10
4881.7413321601279677
 20
23.0353016740321195
 30
0.0
 11
4881.7413321601279677
 21
23.0513016192321203
 31
0.0
  0
LINE
  5
2719F
  8
0
 10
4881.7573321601275893
 20
23.0513016192321203
 30
0.0
 11
4881.7663321601276039
 21
23.0603015883321305
 31
0.0
  0
LINE
  5
271A0
  8
0
 10
4881.7573321601275893
 20
23.0353016740321195
 30
0.0
 11
4881.7663321601276039
 21
23.0263017048321217
 31
0.0
  0
LINE
  5
271A1
  8
0
 10
4881.7413321601279677
 20
23.0513016192321203
 30
0.0
 11
4881.7323321601279531
 21
23.0603015883321305
 31
0.0
  0
LINE
  5
271A2
  8
0
 10
4881.7413321601279677
 20
23.0353016740321195
 30
0.0
 11
4881.7323321601279531
 21
23.0263017048321217
 31
0.0
  0
LINE
  5
271A3
  8
0
 10
4881.7413321601279677
 20
23.0603015883321305
 30
0.0
 11
4881.7573321601275893
 21
23.0603015883321305
 31
0.0
  0
LINE
  5
271A4
  8
0
 10
4881.7573321601275893
 20
23.0263017048321217
 30
0.0
 11
4881.7413321601279677
 21
23.0263017048321217
 31
0.0
  0
LINE
  5
271A5
  8
0
 10
4881.7663321601276039
 20
23.0513016192321203
 30
0.0
 11
4881.782332160128135
 21
23.0513016192321203
 31
0.0
  0
LINE
  5
271A6
  8
0
 10
4881.782332160128135
 20
23.0513016192321203
 30
0.0
 11
4881.782332160128135
 21
23.0353016740321195
 31
0.0
  0
LINE
  5
271A7
  8
0
 10
4881.782332160128135
 20
23.0353016740321195
 30
0.0
 11
4881.7663321601276039
 21
23.0353016740321195
 31
0.0
  0
LINE
  5
271A8
  8
0
 10
4881.7663321601276039
 20
23.0353016740321195
 30
0.0
 11
4881.7663321601276039
 21
23.0513016192321203
 31
0.0
  0
LINE
  5
271A9
  8
0
 10
4881.782332160128135
 20
23.0513016192321203
 30
0.0
 11
4881.7913321601281496
 21
23.0603015883321305
 31
0.0
  0
LINE
  5
271AA
  8
0
 10
4881.782332160128135
 20
23.0353016740321195
 30
0.0
 11
4881.7913321601281496
 21
23.0263017048321217
 31
0.0
  0
LINE
  5
271AB
  8
0
 10
4881.7663321601276039
 20
23.0513016192321203
 30
0.0
 11
4881.7573321601275893
 21
23.0603015883321305
 31
0.0
  0
LINE
  5
271AC
  8
0
 10
4881.7663321601276039
 20
23.0353016740321195
 30
0.0
 11
4881.7573321601275893
 21
23.0263017048321217
 31
0.0
  0
LINE
  5
271AD
  8
0
 10
4881.7663321601276039
 20
23.0603015883321305
 30
0.0
 11
4881.782332160128135
 21
23.0603015883321305
 31
0.0
  0
LINE
  5
271AE
  8
0
 10
4881.782332160128135
 20
23.0263017048321217
 30
0.0
 11
4881.7663321601276039
 21
23.0263017048321217
 31
0.0
  0
LINE
  5
271AF
  8
0
 10
4881.4413321601277858
 20
23.0513016192321203
 30
0.0
 11
4881.4573321601283169
 21
23.0513016192321203
 31
0.0
  0
LINE
  5
271B0
  8
0
 10
4881.4573321601283169
 20
23.0513016192321203
 30
0.0
 11
4881.4573321601283169
 21
23.0353016740321195
 31
0.0
  0
LINE
  5
271B1
  8
0
 10
4881.4573321601283169
 20
23.0353016740321195
 30
0.0
 11
4881.4413321601277858
 21
23.0353016740321195
 31
0.0
  0
LINE
  5
271B2
  8
0
 10
4881.4413321601277858
 20
23.0353016740321195
 30
0.0
 11
4881.4413321601277858
 21
23.0513016192321203
 31
0.0
  0
LINE
  5
271B3
  8
0
 10
4881.4573321601283169
 20
23.0513016192321203
 30
0.0
 11
4881.4663321601292409
 21
23.0603015883321305
 31
0.0
  0
LINE
  5
271B4
  8
0
 10
4881.4573321601283169
 20
23.0353016740321195
 30
0.0
 11
4881.4663321601292409
 21
23.0263017048321217
 31
0.0
  0
LINE
  5
271B5
  8
0
 10
4881.4413321601277858
 20
23.0513016192321203
 30
0.0
 11
4881.4323321601277712
 21
23.0603015883321305
 31
0.0
  0
LINE
  5
271B6
  8
0
 10
4881.4413321601277858
 20
23.0353016740321195
 30
0.0
 11
4881.4323321601277712
 21
23.0263017048321217
 31
0.0
  0
LINE
  5
271B7
  8
0
 10
4881.4413321601277858
 20
23.0603015883321305
 30
0.0
 11
4881.4573321601283169
 21
23.0603015883321305
 31
0.0
  0
LINE
  5
271B8
  8
0
 10
4881.4573321601283169
 20
23.0263017048321217
 30
0.0
 11
4881.4413321601277858
 21
23.0263017048321217
 31
0.0
  0
LINE
  5
271B9
  8
0
 10
4881.5913321601283315
 20
23.0013017906321195
 30
0.0
 11
4881.6073321601279531
 21
23.0013017906321195
 31
0.0
  0
LINE
  5
271BA
  8
0
 10
4881.6073321601279531
 20
23.0013017906321195
 30
0.0
 11
4881.6073321601279531
 21
22.9853018454321187
 31
0.0
  0
LINE
  5
271BB
  8
0
 10
4881.6073321601279531
 20
22.9853018454321187
 30
0.0
 11
4881.5913321601283315
 21
22.9853018454321187
 31
0.0
  0
LINE
  5
271BC
  8
0
 10
4881.5913321601283315
 20
22.9853018454321187
 30
0.0
 11
4881.5913321601283315
 21
23.0013017906321195
 31
0.0
  0
LINE
  5
271BD
  8
0
 10
4881.6073321601279531
 20
23.0013017906321195
 30
0.0
 11
4881.6163321601279677
 21
23.0103017597321191
 31
0.0
  0
LINE
  5
271BE
  8
0
 10
4881.6073321601279531
 20
22.9853018454321187
 30
0.0
 11
4881.6163321601279677
 21
22.9763018762321209
 31
0.0
  0
LINE
  5
271BF
  8
0
 10
4881.5913321601283315
 20
23.0013017906321195
 30
0.0
 11
4881.5823321601283169
 21
23.0103017597321191
 31
0.0
  0
LINE
  5
271C0
  8
0
 10
4881.5913321601283315
 20
22.9853018454321187
 30
0.0
 11
4881.5823321601283169
 21
22.9763018762321209
 31
0.0
  0
LINE
  5
271C1
  8
0
 10
4881.5913321601283315
 20
23.0103017597321191
 30
0.0
 11
4881.6073321601279531
 21
23.0103017597321191
 31
0.0
  0
LINE
  5
271C2
  8
0
 10
4881.6073321601279531
 20
22.9763018762321209
 30
0.0
 11
4881.5913321601283315
 21
22.9763018762321209
 31
0.0
  0
LINE
  5
271C3
  8
0
 10
4881.5663321601277858
 20
23.0013017906321195
 30
0.0
 11
4881.5823321601283169
 21
23.0013017906321195
 31
0.0
  0
LINE
  5
271C4
  8
0
 10
4881.5823321601283169
 20
23.0013017906321195
 30
0.0
 11
4881.5823321601283169
 21
22.9853018454321187
 31
0.0
  0
LINE
  5
271C5
  8
0
 10
4881.5823321601283169
 20
22.9853018454321187
 30
0.0
 11
4881.5663321601277858
 21
22.9853018454321187
 31
0.0
  0
LINE
  5
271C6
  8
0
 10
4881.5663321601277858
 20
22.9853018454321187
 30
0.0
 11
4881.5663321601277858
 21
23.0013017906321195
 31
0.0
  0
LINE
  5
271C7
  8
0
 10
4881.5823321601283169
 20
23.0013017906321195
 30
0.0
 11
4881.5913321601283315
 21
23.0103017597321191
 31
0.0
  0
LINE
  5
271C8
  8
0
 10
4881.5823321601283169
 20
22.9853018454321187
 30
0.0
 11
4881.5913321601283315
 21
22.9763018762321209
 31
0.0
  0
LINE
  5
271C9
  8
0
 10
4881.5663321601277858
 20
23.0013017906321195
 30
0.0
 11
4881.5573321601268617
 21
23.0103017597321191
 31
0.0
  0
LINE
  5
271CA
  8
0
 10
4881.5663321601277858
 20
22.9853018454321187
 30
0.0
 11
4881.5573321601268617
 21
22.9763018762321209
 31
0.0
  0
LINE
  5
271CB
  8
0
 10
4881.5663321601277858
 20
23.0103017597321191
 30
0.0
 11
4881.5823321601283169
 21
23.0103017597321191
 31
0.0
  0
LINE
  5
271CC
  8
0
 10
4881.5823321601283169
 20
22.9763018762321209
 30
0.0
 11
4881.5663321601277858
 21
22.9763018762321209
 31
0.0
  0
LINE
  5
271CD
  8
0
 10
4881.541332160129059
 20
23.0013017906321195
 30
0.0
 11
4881.5573321601268617
 21
23.0013017906321195
 31
0.0
  0
LINE
  5
271CE
  8
0
 10
4881.5573321601268617
 20
23.0013017906321195
 30
0.0
 11
4881.5573321601268617
 21
22.9853018454321187
 31
0.0
  0
LINE
  5
271CF
  8
0
 10
4881.5573321601268617
 20
22.9853018454321187
 30
0.0
 11
4881.541332160129059
 21
22.9853018454321187
 31
0.0
  0
LINE
  5
271D0
  8
0
 10
4881.541332160129059
 20
22.9853018454321187
 30
0.0
 11
4881.541332160129059
 21
23.0013017906321195
 31
0.0
  0
LINE
  5
271D1
  8
0
 10
4881.5573321601268617
 20
23.0013017906321195
 30
0.0
 11
4881.5663321601277858
 21
23.0103017597321191
 31
0.0
  0
LINE
  5
271D2
  8
0
 10
4881.5573321601268617
 20
22.9853018454321187
 30
0.0
 11
4881.5663321601277858
 21
22.9763018762321209
 31
0.0
  0
LINE
  5
271D3
  8
0
 10
4881.541332160129059
 20
23.0013017906321195
 30
0.0
 11
4881.532332160128135
 21
23.0103017597321191
 31
0.0
  0
LINE
  5
271D4
  8
0
 10
4881.541332160129059
 20
22.9853018454321187
 30
0.0
 11
4881.532332160128135
 21
22.9763018762321209
 31
0.0
  0
LINE
  5
271D5
  8
0
 10
4881.541332160129059
 20
23.0103017597321191
 30
0.0
 11
4881.5573321601268617
 21
23.0103017597321191
 31
0.0
  0
LINE
  5
271D6
  8
0
 10
4881.5573321601268617
 20
22.9763018762321209
 30
0.0
 11
4881.541332160129059
 21
22.9763018762321209
 31
0.0
  0
LINE
  5
271D7
  8
0
 10
4881.5163321601276039
 20
23.0013017906321195
 30
0.0
 11
4881.532332160128135
 21
23.0013017906321195
 31
0.0
  0
LINE
  5
271D8
  8
0
 10
4881.532332160128135
 20
23.0013017906321195
 30
0.0
 11
4881.532332160128135
 21
22.9853018454321187
 31
0.0
  0
LINE
  5
271D9
  8
0
 10
4881.532332160128135
 20
22.9853018454321187
 30
0.0
 11
4881.5163321601276039
 21
22.9853018454321187
 31
0.0
  0
LINE
  5
271DA
  8
0
 10
4881.5163321601276039
 20
22.9853018454321187
 30
0.0
 11
4881.5163321601276039
 21
23.0013017906321195
 31
0.0
  0
LINE
  5
271DB
  8
0
 10
4881.532332160128135
 20
23.0013017906321195
 30
0.0
 11
4881.541332160129059
 21
23.0103017597321191
 31
0.0
  0
LINE
  5
271DC
  8
0
 10
4881.532332160128135
 20
22.9853018454321187
 30
0.0
 11
4881.541332160129059
 21
22.9763018762321209
 31
0.0
  0
LINE
  5
271DD
  8
0
 10
4881.5163321601276039
 20
23.0013017906321195
 30
0.0
 11
4881.5073321601266798
 21
23.0103017597321191
 31
0.0
  0
LINE
  5
271DE
  8
0
 10
4881.5163321601276039
 20
22.9853018454321187
 30
0.0
 11
4881.5073321601266798
 21
22.9763018762321209
 31
0.0
  0
LINE
  5
271DF
  8
0
 10
4881.5163321601276039
 20
23.0103017597321191
 30
0.0
 11
4881.532332160128135
 21
23.0103017597321191
 31
0.0
  0
LINE
  5
271E0
  8
0
 10
4881.532332160128135
 20
22.9763018762321209
 30
0.0
 11
4881.5163321601276039
 21
22.9763018762321209
 31
0.0
  0
LINE
  5
271E1
  8
0
 10
4881.4913321601279677
 20
23.0013017906321195
 30
0.0
 11
4881.5073321601266798
 21
23.0013017906321195
 31
0.0
  0
LINE
  5
271E2
  8
0
 10
4881.5073321601266798
 20
23.0013017906321195
 30
0.0
 11
4881.5073321601266798
 21
22.9853018454321187
 31
0.0
  0
LINE
  5
271E3
  8
0
 10
4881.5073321601266798
 20
22.9853018454321187
 30
0.0
 11
4881.4913321601279677
 21
22.9853018454321187
 31
0.0
  0
LINE
  5
271E4
  8
0
 10
4881.4913321601279677
 20
22.9853018454321187
 30
0.0
 11
4881.4913321601279677
 21
23.0013017906321195
 31
0.0
  0
LINE
  5
271E5
  8
0
 10
4881.5073321601266798
 20
23.0013017906321195
 30
0.0
 11
4881.5163321601276039
 21
23.0103017597321191
 31
0.0
  0
LINE
  5
271E6
  8
0
 10
4881.5073321601266798
 20
22.9853018454321187
 30
0.0
 11
4881.5163321601276039
 21
22.9763018762321209
 31
0.0
  0
LINE
  5
271E7
  8
0
 10
4881.4913321601279677
 20
23.0013017906321195
 30
0.0
 11
4881.4823321601279531
 21
23.0103017597321191
 31
0.0
  0
LINE
  5
271E8
  8
0
 10
4881.4913321601279677
 20
22.9853018454321187
 30
0.0
 11
4881.4823321601279531
 21
22.9763018762321209
 31
0.0
  0
LINE
  5
271E9
  8
0
 10
4881.4913321601279677
 20
23.0103017597321191
 30
0.0
 11
4881.5073321601266798
 21
23.0103017597321191
 31
0.0
  0
LINE
  5
271EA
  8
0
 10
4881.5073321601266798
 20
22.9763018762321209
 30
0.0
 11
4881.4913321601279677
 21
22.9763018762321209
 31
0.0
  0
LINE
  5
271EB
  8
0
 10
4881.4663321601292409
 20
23.0013017906321195
 30
0.0
 11
4881.4823321601279531
 21
23.0013017906321195
 31
0.0
  0
LINE
  5
271EC
  8
0
 10
4881.4823321601279531
 20
23.0013017906321195
 30
0.0
 11
4881.4823321601279531
 21
22.9853018454321187
 31
0.0
  0
LINE
  5
271ED
  8
0
 10
4881.4823321601279531
 20
22.9853018454321187
 30
0.0
 11
4881.4663321601292409
 21
22.9853018454321187
 31
0.0
  0
LINE
  5
271EE
  8
0
 10
4881.4663321601292409
 20
22.9853018454321187
 30
0.0
 11
4881.4663321601292409
 21
23.0013017906321195
 31
0.0
  0
LINE
  5
271EF
  8
0
 10
4881.4823321601279531
 20
23.0013017906321195
 30
0.0
 11
4881.4913321601279677
 21
23.0103017597321191
 31
0.0
  0
LINE
  5
271F0
  8
0
 10
4881.4823321601279531
 20
22.9853018454321187
 30
0.0
 11
4881.4913321601279677
 21
22.9763018762321209
 31
0.0
  0
LINE
  5
271F1
  8
0
 10
4881.4663321601292409
 20
23.0013017906321195
 30
0.0
 11
4881.4573321601283169
 21
23.0103017597321191
 31
0.0
  0
LINE
  5
271F2
  8
0
 10
4881.4663321601292409
 20
22.9853018454321187
 30
0.0
 11
4881.4573321601283169
 21
22.9763018762321209
 31
0.0
  0
LINE
  5
271F3
  8
0
 10
4881.4663321601292409
 20
23.0103017597321191
 30
0.0
 11
4881.4823321601279531
 21
23.0103017597321191
 31
0.0
  0
LINE
  5
271F4
  8
0
 10
4881.4823321601279531
 20
22.9763018762321209
 30
0.0
 11
4881.4663321601292409
 21
22.9763018762321209
 31
0.0
  0
LINE
  5
271F5
  8
0
 10
4881.6163321601279677
 20
23.0013017906321195
 30
0.0
 11
4881.6323321601266798
 21
23.0013017906321195
 31
0.0
  0
LINE
  5
271F6
  8
0
 10
4881.6323321601266798
 20
23.0013017906321195
 30
0.0
 11
4881.6323321601266798
 21
22.9853018454321187
 31
0.0
  0
LINE
  5
271F7
  8
0
 10
4881.6323321601266798
 20
22.9853018454321187
 30
0.0
 11
4881.6163321601279677
 21
22.9853018454321187
 31
0.0
  0
LINE
  5
271F8
  8
0
 10
4881.6163321601279677
 20
22.9853018454321187
 30
0.0
 11
4881.6163321601279677
 21
23.0013017906321195
 31
0.0
  0
LINE
  5
271F9
  8
0
 10
4881.6323321601266798
 20
23.0013017906321195
 30
0.0
 11
4881.6413321601266944
 21
23.0103017597321191
 31
0.0
  0
LINE
  5
271FA
  8
0
 10
4881.6323321601266798
 20
22.9853018454321187
 30
0.0
 11
4881.6413321601266944
 21
22.9763018762321209
 31
0.0
  0
LINE
  5
271FB
  8
0
 10
4881.6163321601279677
 20
23.0013017906321195
 30
0.0
 11
4881.6073321601279531
 21
23.0103017597321191
 31
0.0
  0
LINE
  5
271FC
  8
0
 10
4881.6163321601279677
 20
22.9853018454321187
 30
0.0
 11
4881.6073321601279531
 21
22.9763018762321209
 31
0.0
  0
LINE
  5
271FD
  8
0
 10
4881.6163321601279677
 20
23.0103017597321191
 30
0.0
 11
4881.6323321601266798
 21
23.0103017597321191
 31
0.0
  0
LINE
  5
271FE
  8
0
 10
4881.6323321601266798
 20
22.9763018762321209
 30
0.0
 11
4881.6163321601279677
 21
22.9763018762321209
 31
0.0
  0
LINE
  5
271FF
  8
0
 10
4881.6413321601266944
 20
23.0013017906321195
 30
0.0
 11
4881.657332160128135
 21
23.0013017906321195
 31
0.0
  0
LINE
  5
27200
  8
0
 10
4881.657332160128135
 20
23.0013017906321195
 30
0.0
 11
4881.657332160128135
 21
22.9853018454321187
 31
0.0
  0
LINE
  5
27201
  8
0
 10
4881.657332160128135
 20
22.9853018454321187
 30
0.0
 11
4881.6413321601266944
 21
22.9853018454321187
 31
0.0
  0
LINE
  5
27202
  8
0
 10
4881.6413321601266944
 20
22.9853018454321187
 30
0.0
 11
4881.6413321601266944
 21
23.0013017906321195
 31
0.0
  0
LINE
  5
27203
  8
0
 10
4881.657332160128135
 20
23.0013017906321195
 30
0.0
 11
4881.6663321601281496
 21
23.0103017597321191
 31
0.0
  0
LINE
  5
27204
  8
0
 10
4881.657332160128135
 20
22.9853018454321187
 30
0.0
 11
4881.6663321601281496
 21
22.9763018762321209
 31
0.0
  0
LINE
  5
27205
  8
0
 10
4881.6413321601266944
 20
23.0013017906321195
 30
0.0
 11
4881.6323321601266798
 21
23.0103017597321191
 31
0.0
  0
LINE
  5
27206
  8
0
 10
4881.6413321601266944
 20
22.9853018454321187
 30
0.0
 11
4881.6323321601266798
 21
22.9763018762321209
 31
0.0
  0
LINE
  5
27207
  8
0
 10
4881.6413321601266944
 20
23.0103017597321191
 30
0.0
 11
4881.657332160128135
 21
23.0103017597321191
 31
0.0
  0
LINE
  5
27208
  8
0
 10
4881.657332160128135
 20
22.9763018762321209
 30
0.0
 11
4881.6413321601266944
 21
22.9763018762321209
 31
0.0
  0
LINE
  5
27209
  8
0
 10
4881.6663321601281496
 20
23.0013017906321195
 30
0.0
 11
4881.6823321601277712
 21
23.0013017906321195
 31
0.0
  0
LINE
  5
2720A
  8
0
 10
4881.6823321601277712
 20
23.0013017906321195
 30
0.0
 11
4881.6823321601277712
 21
22.9853018454321187
 31
0.0
  0
LINE
  5
2720B
  8
0
 10
4881.6823321601277712
 20
22.9853018454321187
 30
0.0
 11
4881.6663321601281496
 21
22.9853018454321187
 31
0.0
  0
LINE
  5
2720C
  8
0
 10
4881.6663321601281496
 20
22.9853018454321187
 30
0.0
 11
4881.6663321601281496
 21
23.0013017906321195
 31
0.0
  0
LINE
  5
2720D
  8
0
 10
4881.6823321601277712
 20
23.0013017906321195
 30
0.0
 11
4881.6913321601268763
 21
23.0103017597321191
 31
0.0
  0
LINE
  5
2720E
  8
0
 10
4881.6823321601277712
 20
22.9853018454321187
 30
0.0
 11
4881.6913321601268763
 21
22.9763018762321209
 31
0.0
  0
LINE
  5
2720F
  8
0
 10
4881.6663321601281496
 20
23.0013017906321195
 30
0.0
 11
4881.657332160128135
 21
23.0103017597321191
 31
0.0
  0
LINE
  5
27210
  8
0
 10
4881.6663321601281496
 20
22.9853018454321187
 30
0.0
 11
4881.657332160128135
 21
22.9763018762321209
 31
0.0
  0
LINE
  5
27211
  8
0
 10
4881.6663321601281496
 20
23.0103017597321191
 30
0.0
 11
4881.6823321601277712
 21
23.0103017597321191
 31
0.0
  0
LINE
  5
27212
  8
0
 10
4881.6823321601277712
 20
22.9763018762321209
 30
0.0
 11
4881.6663321601281496
 21
22.9763018762321209
 31
0.0
  0
LINE
  5
27213
  8
0
 10
4881.6913321601268763
 20
23.0013017906321195
 30
0.0
 11
4881.7073321601292264
 21
23.0013017906321195
 31
0.0
  0
LINE
  5
27214
  8
0
 10
4881.7073321601292264
 20
23.0013017906321195
 30
0.0
 11
4881.7073321601292264
 21
22.9853018454321187
 31
0.0
  0
LINE
  5
27215
  8
0
 10
4881.7073321601292264
 20
22.9853018454321187
 30
0.0
 11
4881.6913321601268763
 21
22.9853018454321187
 31
0.0
  0
LINE
  5
27216
  8
0
 10
4881.6913321601268763
 20
22.9853018454321187
 30
0.0
 11
4881.6913321601268763
 21
23.0013017906321195
 31
0.0
  0
LINE
  5
27217
  8
0
 10
4881.7073321601292264
 20
23.0013017906321195
 30
0.0
 11
4881.7163321601283315
 21
23.0103017597321191
 31
0.0
  0
LINE
  5
27218
  8
0
 10
4881.7073321601292264
 20
22.9853018454321187
 30
0.0
 11
4881.7163321601283315
 21
22.9763018762321209
 31
0.0
  0
LINE
  5
27219
  8
0
 10
4881.6913321601268763
 20
23.0013017906321195
 30
0.0
 11
4881.6823321601277712
 21
23.0103017597321191
 31
0.0
  0
LINE
  5
2721A
  8
0
 10
4881.6913321601268763
 20
22.9853018454321187
 30
0.0
 11
4881.6823321601277712
 21
22.9763018762321209
 31
0.0
  0
LINE
  5
2721B
  8
0
 10
4881.6913321601268763
 20
23.0103017597321191
 30
0.0
 11
4881.7073321601292264
 21
23.0103017597321191
 31
0.0
  0
LINE
  5
2721C
  8
0
 10
4881.7073321601292264
 20
22.9763018762321209
 30
0.0
 11
4881.6913321601268763
 21
22.9763018762321209
 31
0.0
  0
LINE
  5
2721D
  8
0
 10
4881.7163321601283315
 20
23.0013017906321195
 30
0.0
 11
4881.7323321601279531
 21
23.0013017906321195
 31
0.0
  0
LINE
  5
2721E
  8
0
 10
4881.7323321601279531
 20
23.0013017906321195
 30
0.0
 11
4881.7323321601279531
 21
22.9853018454321187
 31
0.0
  0
LINE
  5
2721F
  8
0
 10
4881.7323321601279531
 20
22.9853018454321187
 30
0.0
 11
4881.7163321601283315
 21
22.9853018454321187
 31
0.0
  0
LINE
  5
27220
  8
0
 10
4881.7163321601283315
 20
22.9853018454321187
 30
0.0
 11
4881.7163321601283315
 21
23.0013017906321195
 31
0.0
  0
LINE
  5
27221
  8
0
 10
4881.7323321601279531
 20
23.0013017906321195
 30
0.0
 11
4881.7413321601279677
 21
23.0103017597321191
 31
0.0
  0
LINE
  5
27222
  8
0
 10
4881.7323321601279531
 20
22.9853018454321187
 30
0.0
 11
4881.7413321601279677
 21
22.9763018762321209
 31
0.0
  0
LINE
  5
27223
  8
0
 10
4881.7163321601283315
 20
23.0013017906321195
 30
0.0
 11
4881.7073321601292264
 21
23.0103017597321191
 31
0.0
  0
LINE
  5
27224
  8
0
 10
4881.7163321601283315
 20
22.9853018454321187
 30
0.0
 11
4881.7073321601292264
 21
22.9763018762321209
 31
0.0
  0
LINE
  5
27225
  8
0
 10
4881.7163321601283315
 20
23.0103017597321191
 30
0.0
 11
4881.7323321601279531
 21
23.0103017597321191
 31
0.0
  0
LINE
  5
27226
  8
0
 10
4881.7323321601279531
 20
22.9763018762321209
 30
0.0
 11
4881.7163321601283315
 21
22.9763018762321209
 31
0.0
  0
LINE
  5
27227
  8
0
 10
4881.7413321601279677
 20
23.0013017906321195
 30
0.0
 11
4881.7573321601275893
 21
23.0013017906321195
 31
0.0
  0
LINE
  5
27228
  8
0
 10
4881.7573321601275893
 20
23.0013017906321195
 30
0.0
 11
4881.7573321601275893
 21
22.9853018454321187
 31
0.0
  0
LINE
  5
27229
  8
0
 10
4881.7573321601275893
 20
22.9853018454321187
 30
0.0
 11
4881.7413321601279677
 21
22.9853018454321187
 31
0.0
  0
LINE
  5
2722A
  8
0
 10
4881.7413321601279677
 20
22.9853018454321187
 30
0.0
 11
4881.7413321601279677
 21
23.0013017906321195
 31
0.0
  0
LINE
  5
2722B
  8
0
 10
4881.7573321601275893
 20
23.0013017906321195
 30
0.0
 11
4881.7663321601276039
 21
23.0103017597321191
 31
0.0
  0
LINE
  5
2722C
  8
0
 10
4881.7573321601275893
 20
22.9853018454321187
 30
0.0
 11
4881.7663321601276039
 21
22.9763018762321209
 31
0.0
  0
LINE
  5
2722D
  8
0
 10
4881.7413321601279677
 20
23.0013017906321195
 30
0.0
 11
4881.7323321601279531
 21
23.0103017597321191
 31
0.0
  0
LINE
  5
2722E
  8
0
 10
4881.7413321601279677
 20
22.9853018454321187
 30
0.0
 11
4881.7323321601279531
 21
22.9763018762321209
 31
0.0
  0
LINE
  5
2722F
  8
0
 10
4881.7413321601279677
 20
23.0103017597321191
 30
0.0
 11
4881.7573321601275893
 21
23.0103017597321191
 31
0.0
  0
LINE
  5
27230
  8
0
 10
4881.7573321601275893
 20
22.9763018762321209
 30
0.0
 11
4881.7413321601279677
 21
22.9763018762321209
 31
0.0
  0
LINE
  5
27231
  8
0
 10
4881.7663321601276039
 20
23.0013017906321195
 30
0.0
 11
4881.782332160128135
 21
23.0013017906321195
 31
0.0
  0
LINE
  5
27232
  8
0
 10
4881.782332160128135
 20
23.0013017906321195
 30
0.0
 11
4881.782332160128135
 21
22.9853018454321187
 31
0.0
  0
LINE
  5
27233
  8
0
 10
4881.782332160128135
 20
22.9853018454321187
 30
0.0
 11
4881.7663321601276039
 21
22.9853018454321187
 31
0.0
  0
LINE
  5
27234
  8
0
 10
4881.7663321601276039
 20
22.9853018454321187
 30
0.0
 11
4881.7663321601276039
 21
23.0013017906321195
 31
0.0
  0
LINE
  5
27235
  8
0
 10
4881.782332160128135
 20
23.0013017906321195
 30
0.0
 11
4881.7913321601281496
 21
23.0103017597321191
 31
0.0
  0
LINE
  5
27236
  8
0
 10
4881.782332160128135
 20
22.9853018454321187
 30
0.0
 11
4881.7913321601281496
 21
22.9763018762321209
 31
0.0
  0
LINE
  5
27237
  8
0
 10
4881.7663321601276039
 20
23.0013017906321195
 30
0.0
 11
4881.7573321601275893
 21
23.0103017597321191
 31
0.0
  0
LINE
  5
27238
  8
0
 10
4881.7663321601276039
 20
22.9853018454321187
 30
0.0
 11
4881.7573321601275893
 21
22.9763018762321209
 31
0.0
  0
LINE
  5
27239
  8
0
 10
4881.7663321601276039
 20
23.0103017597321191
 30
0.0
 11
4881.782332160128135
 21
23.0103017597321191
 31
0.0
  0
LINE
  5
2723A
  8
0
 10
4881.782332160128135
 20
22.9763018762321209
 30
0.0
 11
4881.7663321601276039
 21
22.9763018762321209
 31
0.0
  0
LINE
  5
2723B
  8
0
 10
4881.4413321601277858
 20
23.0013017906321195
 30
0.0
 11
4881.4573321601283169
 21
23.0013017906321195
 31
0.0
  0
LINE
  5
2723C
  8
0
 10
4881.4573321601283169
 20
23.0013017906321195
 30
0.0
 11
4881.4573321601283169
 21
22.9853018454321187
 31
0.0
  0
LINE
  5
2723D
  8
0
 10
4881.4573321601283169
 20
22.9853018454321187
 30
0.0
 11
4881.4413321601277858
 21
22.9853018454321187
 31
0.0
  0
LINE
  5
2723E
  8
0
 10
4881.4413321601277858
 20
22.9853018454321187
 30
0.0
 11
4881.4413321601277858
 21
23.0013017906321195
 31
0.0
  0
LINE
  5
2723F
  8
0
 10
4881.4573321601283169
 20
23.0013017906321195
 30
0.0
 11
4881.4663321601292409
 21
23.0103017597321191
 31
0.0
  0
LINE
  5
27240
  8
0
 10
4881.4573321601283169
 20
22.9853018454321187
 30
0.0
 11
4881.4663321601292409
 21
22.9763018762321209
 31
0.0
  0
LINE
  5
27241
  8
0
 10
4881.4413321601277858
 20
23.0013017906321195
 30
0.0
 11
4881.4323321601277712
 21
23.0103017597321191
 31
0.0
  0
LINE
  5
27242
  8
0
 10
4881.4413321601277858
 20
22.9853018454321187
 30
0.0
 11
4881.4323321601277712
 21
22.9763018762321209
 31
0.0
  0
LINE
  5
27243
  8
0
 10
4881.4413321601277858
 20
23.0103017597321191
 30
0.0
 11
4881.4573321601283169
 21
23.0103017597321191
 31
0.0
  0
LINE
  5
27244
  8
0
 10
4881.4573321601283169
 20
22.9763018762321209
 30
0.0
 11
4881.4413321601277858
 21
22.9763018762321209
 31
0.0
  0
LINE
  5
27245
  8
0
 10
4881.5913321601283315
 20
22.9513019619321312
 30
0.0
 11
4881.6073321601279531
 21
22.9513019619321312
 31
0.0
  0
LINE
  5
27246
  8
0
 10
4881.6073321601279531
 20
22.9513019619321312
 30
0.0
 11
4881.6073321601279531
 21
22.9353020167321198
 31
0.0
  0
LINE
  5
27247
  8
0
 10
4881.6073321601279531
 20
22.9353020167321198
 30
0.0
 11
4881.5913321601283315
 21
22.9353020167321198
 31
0.0
  0
LINE
  5
27248
  8
0
 10
4881.5913321601283315
 20
22.9353020167321198
 30
0.0
 11
4881.5913321601283315
 21
22.9513019619321312
 31
0.0
  0
LINE
  5
27249
  8
0
 10
4881.6073321601279531
 20
22.9513019619321312
 30
0.0
 11
4881.6163321601279677
 21
22.9603019310321308
 31
0.0
  0
LINE
  5
2724A
  8
0
 10
4881.6073321601279531
 20
22.9353020167321198
 30
0.0
 11
4881.6163321601279677
 21
22.9263020475321184
 31
0.0
  0
LINE
  5
2724B
  8
0
 10
4881.5913321601283315
 20
22.9513019619321312
 30
0.0
 11
4881.5823321601283169
 21
22.9603019310321308
 31
0.0
  0
LINE
  5
2724C
  8
0
 10
4881.5913321601283315
 20
22.9353020167321198
 30
0.0
 11
4881.5823321601283169
 21
22.9263020475321184
 31
0.0
  0
LINE
  5
2724D
  8
0
 10
4881.5913321601283315
 20
22.9603019310321308
 30
0.0
 11
4881.6073321601279531
 21
22.9603019310321308
 31
0.0
  0
LINE
  5
2724E
  8
0
 10
4881.6073321601279531
 20
22.9263020475321184
 30
0.0
 11
4881.5913321601283315
 21
22.9263020475321184
 31
0.0
  0
LINE
  5
2724F
  8
0
 10
4881.5663321601277858
 20
22.9513019619321312
 30
0.0
 11
4881.5823321601283169
 21
22.9513019619321312
 31
0.0
  0
LINE
  5
27250
  8
0
 10
4881.5823321601283169
 20
22.9513019619321312
 30
0.0
 11
4881.5823321601283169
 21
22.9353020167321198
 31
0.0
  0
LINE
  5
27251
  8
0
 10
4881.5823321601283169
 20
22.9353020167321198
 30
0.0
 11
4881.5663321601277858
 21
22.9353020167321198
 31
0.0
  0
LINE
  5
27252
  8
0
 10
4881.5663321601277858
 20
22.9353020167321198
 30
0.0
 11
4881.5663321601277858
 21
22.9513019619321312
 31
0.0
  0
LINE
  5
27253
  8
0
 10
4881.5823321601283169
 20
22.9513019619321312
 30
0.0
 11
4881.5913321601283315
 21
22.9603019310321308
 31
0.0
  0
LINE
  5
27254
  8
0
 10
4881.5823321601283169
 20
22.9353020167321198
 30
0.0
 11
4881.5913321601283315
 21
22.9263020475321184
 31
0.0
  0
LINE
  5
27255
  8
0
 10
4881.5663321601277858
 20
22.9513019619321312
 30
0.0
 11
4881.5573321601268617
 21
22.9603019310321308
 31
0.0
  0
LINE
  5
27256
  8
0
 10
4881.5663321601277858
 20
22.9353020167321198
 30
0.0
 11
4881.5573321601268617
 21
22.9263020475321184
 31
0.0
  0
LINE
  5
27257
  8
0
 10
4881.5663321601277858
 20
22.9603019310321308
 30
0.0
 11
4881.5823321601283169
 21
22.9603019310321308
 31
0.0
  0
LINE
  5
27258
  8
0
 10
4881.5823321601283169
 20
22.9263020475321184
 30
0.0
 11
4881.5663321601277858
 21
22.9263020475321184
 31
0.0
  0
LINE
  5
27259
  8
0
 10
4881.541332160129059
 20
22.9513019619321312
 30
0.0
 11
4881.5573321601268617
 21
22.9513019619321312
 31
0.0
  0
LINE
  5
2725A
  8
0
 10
4881.5573321601268617
 20
22.9513019619321312
 30
0.0
 11
4881.5573321601268617
 21
22.9353020167321198
 31
0.0
  0
LINE
  5
2725B
  8
0
 10
4881.5573321601268617
 20
22.9353020167321198
 30
0.0
 11
4881.541332160129059
 21
22.9353020167321198
 31
0.0
  0
LINE
  5
2725C
  8
0
 10
4881.541332160129059
 20
22.9353020167321198
 30
0.0
 11
4881.541332160129059
 21
22.9513019619321312
 31
0.0
  0
LINE
  5
2725D
  8
0
 10
4881.5573321601268617
 20
22.9513019619321312
 30
0.0
 11
4881.5663321601277858
 21
22.9603019310321308
 31
0.0
  0
LINE
  5
2725E
  8
0
 10
4881.5573321601268617
 20
22.9353020167321198
 30
0.0
 11
4881.5663321601277858
 21
22.9263020475321184
 31
0.0
  0
LINE
  5
2725F
  8
0
 10
4881.541332160129059
 20
22.9513019619321312
 30
0.0
 11
4881.532332160128135
 21
22.9603019310321308
 31
0.0
  0
LINE
  5
27260
  8
0
 10
4881.541332160129059
 20
22.9353020167321198
 30
0.0
 11
4881.532332160128135
 21
22.9263020475321184
 31
0.0
  0
LINE
  5
27261
  8
0
 10
4881.541332160129059
 20
22.9603019310321308
 30
0.0
 11
4881.5573321601268617
 21
22.9603019310321308
 31
0.0
  0
LINE
  5
27262
  8
0
 10
4881.5573321601268617
 20
22.9263020475321184
 30
0.0
 11
4881.541332160129059
 21
22.9263020475321184
 31
0.0
  0
LINE
  5
27263
  8
0
 10
4881.5163321601276039
 20
22.9513019619321312
 30
0.0
 11
4881.532332160128135
 21
22.9513019619321312
 31
0.0
  0
LINE
  5
27264
  8
0
 10
4881.532332160128135
 20
22.9513019619321312
 30
0.0
 11
4881.532332160128135
 21
22.9353020167321198
 31
0.0
  0
LINE
  5
27265
  8
0
 10
4881.532332160128135
 20
22.9353020167321198
 30
0.0
 11
4881.5163321601276039
 21
22.9353020167321198
 31
0.0
  0
LINE
  5
27266
  8
0
 10
4881.5163321601276039
 20
22.9353020167321198
 30
0.0
 11
4881.5163321601276039
 21
22.9513019619321312
 31
0.0
  0
LINE
  5
27267
  8
0
 10
4881.532332160128135
 20
22.9513019619321312
 30
0.0
 11
4881.541332160129059
 21
22.9603019310321308
 31
0.0
  0
LINE
  5
27268
  8
0
 10
4881.532332160128135
 20
22.9353020167321198
 30
0.0
 11
4881.541332160129059
 21
22.9263020475321184
 31
0.0
  0
LINE
  5
27269
  8
0
 10
4881.5163321601276039
 20
22.9513019619321312
 30
0.0
 11
4881.5073321601266798
 21
22.9603019310321308
 31
0.0
  0
LINE
  5
2726A
  8
0
 10
4881.5163321601276039
 20
22.9353020167321198
 30
0.0
 11
4881.5073321601266798
 21
22.9263020475321184
 31
0.0
  0
LINE
  5
2726B
  8
0
 10
4881.5163321601276039
 20
22.9603019310321308
 30
0.0
 11
4881.532332160128135
 21
22.9603019310321308
 31
0.0
  0
LINE
  5
2726C
  8
0
 10
4881.532332160128135
 20
22.9263020475321184
 30
0.0
 11
4881.5163321601276039
 21
22.9263020475321184
 31
0.0
  0
LINE
  5
2726D
  8
0
 10
4881.4913321601279677
 20
22.9513019619321312
 30
0.0
 11
4881.5073321601266798
 21
22.9513019619321312
 31
0.0
  0
LINE
  5
2726E
  8
0
 10
4881.5073321601266798
 20
22.9513019619321312
 30
0.0
 11
4881.5073321601266798
 21
22.9353020167321198
 31
0.0
  0
LINE
  5
2726F
  8
0
 10
4881.5073321601266798
 20
22.9353020167321198
 30
0.0
 11
4881.4913321601279677
 21
22.9353020167321198
 31
0.0
  0
LINE
  5
27270
  8
0
 10
4881.4913321601279677
 20
22.9353020167321198
 30
0.0
 11
4881.4913321601279677
 21
22.9513019619321312
 31
0.0
  0
LINE
  5
27271
  8
0
 10
4881.5073321601266798
 20
22.9513019619321312
 30
0.0
 11
4881.5163321601276039
 21
22.9603019310321308
 31
0.0
  0
LINE
  5
27272
  8
0
 10
4881.5073321601266798
 20
22.9353020167321198
 30
0.0
 11
4881.5163321601276039
 21
22.9263020475321184
 31
0.0
  0
LINE
  5
27273
  8
0
 10
4881.4913321601279677
 20
22.9513019619321312
 30
0.0
 11
4881.4823321601279531
 21
22.9603019310321308
 31
0.0
  0
LINE
  5
27274
  8
0
 10
4881.4913321601279677
 20
22.9353020167321198
 30
0.0
 11
4881.4823321601279531
 21
22.9263020475321184
 31
0.0
  0
LINE
  5
27275
  8
0
 10
4881.4913321601279677
 20
22.9603019310321308
 30
0.0
 11
4881.5073321601266798
 21
22.9603019310321308
 31
0.0
  0
LINE
  5
27276
  8
0
 10
4881.5073321601266798
 20
22.9263020475321184
 30
0.0
 11
4881.4913321601279677
 21
22.9263020475321184
 31
0.0
  0
LINE
  5
27277
  8
0
 10
4881.4663321601292409
 20
22.9513019619321312
 30
0.0
 11
4881.4823321601279531
 21
22.9513019619321312
 31
0.0
  0
LINE
  5
27278
  8
0
 10
4881.4823321601279531
 20
22.9513019619321312
 30
0.0
 11
4881.4823321601279531
 21
22.9353020167321198
 31
0.0
  0
LINE
  5
27279
  8
0
 10
4881.4823321601279531
 20
22.9353020167321198
 30
0.0
 11
4881.4663321601292409
 21
22.9353020167321198
 31
0.0
  0
LINE
  5
2727A
  8
0
 10
4881.4663321601292409
 20
22.9353020167321198
 30
0.0
 11
4881.4663321601292409
 21
22.9513019619321312
 31
0.0
  0
LINE
  5
2727B
  8
0
 10
4881.4823321601279531
 20
22.9513019619321312
 30
0.0
 11
4881.4913321601279677
 21
22.9603019310321308
 31
0.0
  0
LINE
  5
2727C
  8
0
 10
4881.4823321601279531
 20
22.9353020167321198
 30
0.0
 11
4881.4913321601279677
 21
22.9263020475321184
 31
0.0
  0
LINE
  5
2727D
  8
0
 10
4881.4663321601292409
 20
22.9513019619321312
 30
0.0
 11
4881.4573321601283169
 21
22.9603019310321308
 31
0.0
  0
LINE
  5
2727E
  8
0
 10
4881.4663321601292409
 20
22.9353020167321198
 30
0.0
 11
4881.4573321601283169
 21
22.9263020475321184
 31
0.0
  0
LINE
  5
2727F
  8
0
 10
4881.4663321601292409
 20
22.9603019310321308
 30
0.0
 11
4881.4823321601279531
 21
22.9603019310321308
 31
0.0
  0
LINE
  5
27280
  8
0
 10
4881.4823321601279531
 20
22.9263020475321184
 30
0.0
 11
4881.4663321601292409
 21
22.9263020475321184
 31
0.0
  0
LINE
  5
27281
  8
0
 10
4881.6163321601279677
 20
22.9513019619321312
 30
0.0
 11
4881.6323321601266798
 21
22.9513019619321312
 31
0.0
  0
LINE
  5
27282
  8
0
 10
4881.6323321601266798
 20
22.9513019619321312
 30
0.0
 11
4881.6323321601266798
 21
22.9353020167321198
 31
0.0
  0
LINE
  5
27283
  8
0
 10
4881.6323321601266798
 20
22.9353020167321198
 30
0.0
 11
4881.6163321601279677
 21
22.9353020167321198
 31
0.0
  0
LINE
  5
27284
  8
0
 10
4881.6163321601279677
 20
22.9353020167321198
 30
0.0
 11
4881.6163321601279677
 21
22.9513019619321312
 31
0.0
  0
LINE
  5
27285
  8
0
 10
4881.6323321601266798
 20
22.9513019619321312
 30
0.0
 11
4881.6413321601266944
 21
22.9603019310321308
 31
0.0
  0
LINE
  5
27286
  8
0
 10
4881.6323321601266798
 20
22.9353020167321198
 30
0.0
 11
4881.6413321601266944
 21
22.9263020475321184
 31
0.0
  0
LINE
  5
27287
  8
0
 10
4881.6163321601279677
 20
22.9513019619321312
 30
0.0
 11
4881.6073321601279531
 21
22.9603019310321308
 31
0.0
  0
LINE
  5
27288
  8
0
 10
4881.6163321601279677
 20
22.9353020167321198
 30
0.0
 11
4881.6073321601279531
 21
22.9263020475321184
 31
0.0
  0
LINE
  5
27289
  8
0
 10
4881.6163321601279677
 20
22.9603019310321308
 30
0.0
 11
4881.6323321601266798
 21
22.9603019310321308
 31
0.0
  0
LINE
  5
2728A
  8
0
 10
4881.6323321601266798
 20
22.9263020475321184
 30
0.0
 11
4881.6163321601279677
 21
22.9263020475321184
 31
0.0
  0
LINE
  5
2728B
  8
0
 10
4881.6413321601266944
 20
22.9513019619321312
 30
0.0
 11
4881.657332160128135
 21
22.9513019619321312
 31
0.0
  0
LINE
  5
2728C
  8
0
 10
4881.657332160128135
 20
22.9513019619321312
 30
0.0
 11
4881.657332160128135
 21
22.9353020167321198
 31
0.0
  0
LINE
  5
2728D
  8
0
 10
4881.657332160128135
 20
22.9353020167321198
 30
0.0
 11
4881.6413321601266944
 21
22.9353020167321198
 31
0.0
  0
LINE
  5
2728E
  8
0
 10
4881.6413321601266944
 20
22.9353020167321198
 30
0.0
 11
4881.6413321601266944
 21
22.9513019619321312
 31
0.0
  0
LINE
  5
2728F
  8
0
 10
4881.657332160128135
 20
22.9513019619321312
 30
0.0
 11
4881.6663321601281496
 21
22.9603019310321308
 31
0.0
  0
LINE
  5
27290
  8
0
 10
4881.657332160128135
 20
22.9353020167321198
 30
0.0
 11
4881.6663321601281496
 21
22.9263020475321184
 31
0.0
  0
LINE
  5
27291
  8
0
 10
4881.6413321601266944
 20
22.9513019619321312
 30
0.0
 11
4881.6323321601266798
 21
22.9603019310321308
 31
0.0
  0
LINE
  5
27292
  8
0
 10
4881.6413321601266944
 20
22.9353020167321198
 30
0.0
 11
4881.6323321601266798
 21
22.9263020475321184
 31
0.0
  0
LINE
  5
27293
  8
0
 10
4881.6413321601266944
 20
22.9603019310321308
 30
0.0
 11
4881.657332160128135
 21
22.9603019310321308
 31
0.0
  0
LINE
  5
27294
  8
0
 10
4881.657332160128135
 20
22.9263020475321184
 30
0.0
 11
4881.6413321601266944
 21
22.9263020475321184
 31
0.0
  0
LINE
  5
27295
  8
0
 10
4881.6663321601281496
 20
22.9513019619321312
 30
0.0
 11
4881.6823321601277712
 21
22.9513019619321312
 31
0.0
  0
LINE
  5
27296
  8
0
 10
4881.6823321601277712
 20
22.9513019619321312
 30
0.0
 11
4881.6823321601277712
 21
22.9353020167321198
 31
0.0
  0
LINE
  5
27297
  8
0
 10
4881.6823321601277712
 20
22.9353020167321198
 30
0.0
 11
4881.6663321601281496
 21
22.9353020167321198
 31
0.0
  0
LINE
  5
27298
  8
0
 10
4881.6663321601281496
 20
22.9353020167321198
 30
0.0
 11
4881.6663321601281496
 21
22.9513019619321312
 31
0.0
  0
LINE
  5
27299
  8
0
 10
4881.6823321601277712
 20
22.9513019619321312
 30
0.0
 11
4881.6913321601268763
 21
22.9603019310321308
 31
0.0
  0
LINE
  5
2729A
  8
0
 10
4881.6823321601277712
 20
22.9353020167321198
 30
0.0
 11
4881.6913321601268763
 21
22.9263020475321184
 31
0.0
  0
LINE
  5
2729B
  8
0
 10
4881.6663321601281496
 20
22.9513019619321312
 30
0.0
 11
4881.657332160128135
 21
22.9603019310321308
 31
0.0
  0
LINE
  5
2729C
  8
0
 10
4881.6663321601281496
 20
22.9353020167321198
 30
0.0
 11
4881.657332160128135
 21
22.9263020475321184
 31
0.0
  0
LINE
  5
2729D
  8
0
 10
4881.6663321601281496
 20
22.9603019310321308
 30
0.0
 11
4881.6823321601277712
 21
22.9603019310321308
 31
0.0
  0
LINE
  5
2729E
  8
0
 10
4881.6823321601277712
 20
22.9263020475321184
 30
0.0
 11
4881.6663321601281496
 21
22.9263020475321184
 31
0.0
  0
LINE
  5
2729F
  8
0
 10
4881.6913321601268763
 20
22.9513019619321312
 30
0.0
 11
4881.7073321601292264
 21
22.9513019619321312
 31
0.0
  0
LINE
  5
272A0
  8
0
 10
4881.7073321601292264
 20
22.9513019619321312
 30
0.0
 11
4881.7073321601292264
 21
22.9353020167321198
 31
0.0
  0
LINE
  5
272A1
  8
0
 10
4881.7073321601292264
 20
22.9353020167321198
 30
0.0
 11
4881.6913321601268763
 21
22.9353020167321198
 31
0.0
  0
LINE
  5
272A2
  8
0
 10
4881.6913321601268763
 20
22.9353020167321198
 30
0.0
 11
4881.6913321601268763
 21
22.9513019619321312
 31
0.0
  0
LINE
  5
272A3
  8
0
 10
4881.7073321601292264
 20
22.9513019619321312
 30
0.0
 11
4881.7163321601283315
 21
22.9603019310321308
 31
0.0
  0
LINE
  5
272A4
  8
0
 10
4881.7073321601292264
 20
22.9353020167321198
 30
0.0
 11
4881.7163321601283315
 21
22.9263020475321184
 31
0.0
  0
LINE
  5
272A5
  8
0
 10
4881.6913321601268763
 20
22.9513019619321312
 30
0.0
 11
4881.6823321601277712
 21
22.9603019310321308
 31
0.0
  0
LINE
  5
272A6
  8
0
 10
4881.6913321601268763
 20
22.9353020167321198
 30
0.0
 11
4881.6823321601277712
 21
22.9263020475321184
 31
0.0
  0
LINE
  5
272A7
  8
0
 10
4881.6913321601268763
 20
22.9603019310321308
 30
0.0
 11
4881.7073321601292264
 21
22.9603019310321308
 31
0.0
  0
LINE
  5
272A8
  8
0
 10
4881.7073321601292264
 20
22.9263020475321184
 30
0.0
 11
4881.6913321601268763
 21
22.9263020475321184
 31
0.0
  0
LINE
  5
272A9
  8
0
 10
4881.7163321601283315
 20
22.9513019619321312
 30
0.0
 11
4881.7323321601279531
 21
22.9513019619321312
 31
0.0
  0
LINE
  5
272AA
  8
0
 10
4881.7323321601279531
 20
22.9513019619321312
 30
0.0
 11
4881.7323321601279531
 21
22.9353020167321198
 31
0.0
  0
LINE
  5
272AB
  8
0
 10
4881.7323321601279531
 20
22.9353020167321198
 30
0.0
 11
4881.7163321601283315
 21
22.9353020167321198
 31
0.0
  0
LINE
  5
272AC
  8
0
 10
4881.7163321601283315
 20
22.9353020167321198
 30
0.0
 11
4881.7163321601283315
 21
22.9513019619321312
 31
0.0
  0
LINE
  5
272AD
  8
0
 10
4881.7323321601279531
 20
22.9513019619321312
 30
0.0
 11
4881.7413321601279677
 21
22.9603019310321308
 31
0.0
  0
LINE
  5
272AE
  8
0
 10
4881.7323321601279531
 20
22.9353020167321198
 30
0.0
 11
4881.7413321601279677
 21
22.9263020475321184
 31
0.0
  0
LINE
  5
272AF
  8
0
 10
4881.7163321601283315
 20
22.9513019619321312
 30
0.0
 11
4881.7073321601292264
 21
22.9603019310321308
 31
0.0
  0
LINE
  5
272B0
  8
0
 10
4881.7163321601283315
 20
22.9353020167321198
 30
0.0
 11
4881.7073321601292264
 21
22.9263020475321184
 31
0.0
  0
LINE
  5
272B1
  8
0
 10
4881.7163321601283315
 20
22.9603019310321308
 30
0.0
 11
4881.7323321601279531
 21
22.9603019310321308
 31
0.0
  0
LINE
  5
272B2
  8
0
 10
4881.7323321601279531
 20
22.9263020475321184
 30
0.0
 11
4881.7163321601283315
 21
22.9263020475321184
 31
0.0
  0
LINE
  5
272B3
  8
0
 10
4881.7413321601279677
 20
22.9513019619321312
 30
0.0
 11
4881.7573321601275893
 21
22.9513019619321312
 31
0.0
  0
LINE
  5
272B4
  8
0
 10
4881.7573321601275893
 20
22.9513019619321312
 30
0.0
 11
4881.7573321601275893
 21
22.9353020167321198
 31
0.0
  0
LINE
  5
272B5
  8
0
 10
4881.7573321601275893
 20
22.9353020167321198
 30
0.0
 11
4881.7413321601279677
 21
22.9353020167321198
 31
0.0
  0
LINE
  5
272B6
  8
0
 10
4881.7413321601279677
 20
22.9353020167321198
 30
0.0
 11
4881.7413321601279677
 21
22.9513019619321312
 31
0.0
  0
LINE
  5
272B7
  8
0
 10
4881.7573321601275893
 20
22.9513019619321312
 30
0.0
 11
4881.7663321601276039
 21
22.9603019310321308
 31
0.0
  0
LINE
  5
272B8
  8
0
 10
4881.7573321601275893
 20
22.9353020167321198
 30
0.0
 11
4881.7663321601276039
 21
22.9263020475321184
 31
0.0
  0
LINE
  5
272B9
  8
0
 10
4881.7413321601279677
 20
22.9513019619321312
 30
0.0
 11
4881.7323321601279531
 21
22.9603019310321308
 31
0.0
  0
LINE
  5
272BA
  8
0
 10
4881.7413321601279677
 20
22.9353020167321198
 30
0.0
 11
4881.7323321601279531
 21
22.9263020475321184
 31
0.0
  0
LINE
  5
272BB
  8
0
 10
4881.7413321601279677
 20
22.9603019310321308
 30
0.0
 11
4881.7573321601275893
 21
22.9603019310321308
 31
0.0
  0
LINE
  5
272BC
  8
0
 10
4881.7573321601275893
 20
22.9263020475321184
 30
0.0
 11
4881.7413321601279677
 21
22.9263020475321184
 31
0.0
  0
LINE
  5
272BD
  8
0
 10
4881.7663321601276039
 20
22.9513019619321312
 30
0.0
 11
4881.782332160128135
 21
22.9513019619321312
 31
0.0
  0
LINE
  5
272BE
  8
0
 10
4881.782332160128135
 20
22.9513019619321312
 30
0.0
 11
4881.782332160128135
 21
22.9353020167321198
 31
0.0
  0
LINE
  5
272BF
  8
0
 10
4881.782332160128135
 20
22.9353020167321198
 30
0.0
 11
4881.7663321601276039
 21
22.9353020167321198
 31
0.0
  0
LINE
  5
272C0
  8
0
 10
4881.7663321601276039
 20
22.9353020167321198
 30
0.0
 11
4881.7663321601276039
 21
22.9513019619321312
 31
0.0
  0
LINE
  5
272C1
  8
0
 10
4881.782332160128135
 20
22.9513019619321312
 30
0.0
 11
4881.7913321601281496
 21
22.9603019310321308
 31
0.0
  0
LINE
  5
272C2
  8
0
 10
4881.782332160128135
 20
22.9353020167321198
 30
0.0
 11
4881.7913321601281496
 21
22.9263020475321184
 31
0.0
  0
LINE
  5
272C3
  8
0
 10
4881.7663321601276039
 20
22.9513019619321312
 30
0.0
 11
4881.7573321601275893
 21
22.9603019310321308
 31
0.0
  0
LINE
  5
272C4
  8
0
 10
4881.7663321601276039
 20
22.9353020167321198
 30
0.0
 11
4881.7573321601275893
 21
22.9263020475321184
 31
0.0
  0
LINE
  5
272C5
  8
0
 10
4881.7663321601276039
 20
22.9603019310321308
 30
0.0
 11
4881.782332160128135
 21
22.9603019310321308
 31
0.0
  0
LINE
  5
272C6
  8
0
 10
4881.782332160128135
 20
22.9263020475321184
 30
0.0
 11
4881.7663321601276039
 21
22.9263020475321184
 31
0.0
  0
LINE
  5
272C7
  8
0
 10
4881.4413321601277858
 20
22.9513019619321312
 30
0.0
 11
4881.4573321601283169
 21
22.9513019619321312
 31
0.0
  0
LINE
  5
272C8
  8
0
 10
4881.4573321601283169
 20
22.9513019619321312
 30
0.0
 11
4881.4573321601283169
 21
22.9353020167321198
 31
0.0
  0
LINE
  5
272C9
  8
0
 10
4881.4573321601283169
 20
22.9353020167321198
 30
0.0
 11
4881.4413321601277858
 21
22.9353020167321198
 31
0.0
  0
LINE
  5
272CA
  8
0
 10
4881.4413321601277858
 20
22.9353020167321198
 30
0.0
 11
4881.4413321601277858
 21
22.9513019619321312
 31
0.0
  0
LINE
  5
272CB
  8
0
 10
4881.4573321601283169
 20
22.9513019619321312
 30
0.0
 11
4881.4663321601292409
 21
22.9603019310321308
 31
0.0
  0
LINE
  5
272CC
  8
0
 10
4881.4573321601283169
 20
22.9353020167321198
 30
0.0
 11
4881.4663321601292409
 21
22.9263020475321184
 31
0.0
  0
LINE
  5
272CD
  8
0
 10
4881.4413321601277858
 20
22.9513019619321312
 30
0.0
 11
4881.4323321601277712
 21
22.9603019310321308
 31
0.0
  0
LINE
  5
272CE
  8
0
 10
4881.4413321601277858
 20
22.9353020167321198
 30
0.0
 11
4881.4323321601277712
 21
22.9263020475321184
 31
0.0
  0
LINE
  5
272CF
  8
0
 10
4881.4413321601277858
 20
22.9603019310321308
 30
0.0
 11
4881.4573321601283169
 21
22.9603019310321308
 31
0.0
  0
LINE
  5
272D0
  8
0
 10
4881.4573321601283169
 20
22.9263020475321184
 30
0.0
 11
4881.4413321601277858
 21
22.9263020475321184
 31
0.0
  0
LINE
  5
272D1
  8
0
 10
4881.5913321601283315
 20
22.9013021333321092
 30
0.0
 11
4881.6073321601279531
 21
22.9013021333321092
 31
0.0
  0
LINE
  5
272D2
  8
0
 10
4881.6073321601279531
 20
22.9013021333321092
 30
0.0
 11
4881.6073321601279531
 21
22.885302188132119
 31
0.0
  0
LINE
  5
272D3
  8
0
 10
4881.6073321601279531
 20
22.885302188132119
 30
0.0
 11
4881.5913321601283315
 21
22.885302188132119
 31
0.0
  0
LINE
  5
272D4
  8
0
 10
4881.5913321601283315
 20
22.885302188132119
 30
0.0
 11
4881.5913321601283315
 21
22.9013021333321092
 31
0.0
  0
LINE
  5
272D5
  8
0
 10
4881.6073321601279531
 20
22.9013021333321092
 30
0.0
 11
4881.6163321601279677
 21
22.9103021024321194
 31
0.0
  0
LINE
  5
272D6
  8
0
 10
4881.6073321601279531
 20
22.885302188132119
 30
0.0
 11
4881.6163321601279677
 21
22.8763022189321212
 31
0.0
  0
LINE
  5
272D7
  8
0
 10
4881.5913321601283315
 20
22.9013021333321092
 30
0.0
 11
4881.5823321601283169
 21
22.9103021024321194
 31
0.0
  0
LINE
  5
272D8
  8
0
 10
4881.5913321601283315
 20
22.885302188132119
 30
0.0
 11
4881.5823321601283169
 21
22.8763022189321212
 31
0.0
  0
LINE
  5
272D9
  8
0
 10
4881.5913321601283315
 20
22.9103021024321194
 30
0.0
 11
4881.6073321601279531
 21
22.9103021024321194
 31
0.0
  0
LINE
  5
272DA
  8
0
 10
4881.6073321601279531
 20
22.8763022189321212
 30
0.0
 11
4881.5913321601283315
 21
22.8763022189321212
 31
0.0
  0
LINE
  5
272DB
  8
0
 10
4881.5663321601277858
 20
22.9013021333321092
 30
0.0
 11
4881.5823321601283169
 21
22.9013021333321092
 31
0.0
  0
LINE
  5
272DC
  8
0
 10
4881.5823321601283169
 20
22.9013021333321092
 30
0.0
 11
4881.5823321601283169
 21
22.885302188132119
 31
0.0
  0
LINE
  5
272DD
  8
0
 10
4881.5823321601283169
 20
22.885302188132119
 30
0.0
 11
4881.5663321601277858
 21
22.885302188132119
 31
0.0
  0
LINE
  5
272DE
  8
0
 10
4881.5663321601277858
 20
22.885302188132119
 30
0.0
 11
4881.5663321601277858
 21
22.9013021333321092
 31
0.0
  0
LINE
  5
272DF
  8
0
 10
4881.5823321601283169
 20
22.9013021333321092
 30
0.0
 11
4881.5913321601283315
 21
22.9103021024321194
 31
0.0
  0
LINE
  5
272E0
  8
0
 10
4881.5823321601283169
 20
22.885302188132119
 30
0.0
 11
4881.5913321601283315
 21
22.8763022189321212
 31
0.0
  0
LINE
  5
272E1
  8
0
 10
4881.5663321601277858
 20
22.9013021333321092
 30
0.0
 11
4881.5573321601268617
 21
22.9103021024321194
 31
0.0
  0
LINE
  5
272E2
  8
0
 10
4881.5663321601277858
 20
22.885302188132119
 30
0.0
 11
4881.5573321601268617
 21
22.8763022189321212
 31
0.0
  0
LINE
  5
272E3
  8
0
 10
4881.5663321601277858
 20
22.9103021024321194
 30
0.0
 11
4881.5823321601283169
 21
22.9103021024321194
 31
0.0
  0
LINE
  5
272E4
  8
0
 10
4881.5823321601283169
 20
22.8763022189321212
 30
0.0
 11
4881.5663321601277858
 21
22.8763022189321212
 31
0.0
  0
LINE
  5
272E5
  8
0
 10
4881.541332160129059
 20
22.9013021333321092
 30
0.0
 11
4881.5573321601268617
 21
22.9013021333321092
 31
0.0
  0
LINE
  5
272E6
  8
0
 10
4881.5573321601268617
 20
22.9013021333321092
 30
0.0
 11
4881.5573321601268617
 21
22.885302188132119
 31
0.0
  0
LINE
  5
272E7
  8
0
 10
4881.5573321601268617
 20
22.885302188132119
 30
0.0
 11
4881.541332160129059
 21
22.885302188132119
 31
0.0
  0
LINE
  5
272E8
  8
0
 10
4881.541332160129059
 20
22.885302188132119
 30
0.0
 11
4881.541332160129059
 21
22.9013021333321092
 31
0.0
  0
LINE
  5
272E9
  8
0
 10
4881.5573321601268617
 20
22.9013021333321092
 30
0.0
 11
4881.5663321601277858
 21
22.9103021024321194
 31
0.0
  0
LINE
  5
272EA
  8
0
 10
4881.5573321601268617
 20
22.885302188132119
 30
0.0
 11
4881.5663321601277858
 21
22.8763022189321212
 31
0.0
  0
LINE
  5
272EB
  8
0
 10
4881.541332160129059
 20
22.9013021333321092
 30
0.0
 11
4881.532332160128135
 21
22.9103021024321194
 31
0.0
  0
LINE
  5
272EC
  8
0
 10
4881.541332160129059
 20
22.885302188132119
 30
0.0
 11
4881.532332160128135
 21
22.8763022189321212
 31
0.0
  0
LINE
  5
272ED
  8
0
 10
4881.541332160129059
 20
22.9103021024321194
 30
0.0
 11
4881.5573321601268617
 21
22.9103021024321194
 31
0.0
  0
LINE
  5
272EE
  8
0
 10
4881.5573321601268617
 20
22.8763022189321212
 30
0.0
 11
4881.541332160129059
 21
22.8763022189321212
 31
0.0
  0
LINE
  5
272EF
  8
0
 10
4881.5163321601276039
 20
22.9013021333321092
 30
0.0
 11
4881.532332160128135
 21
22.9013021333321092
 31
0.0
  0
LINE
  5
272F0
  8
0
 10
4881.532332160128135
 20
22.9013021333321092
 30
0.0
 11
4881.532332160128135
 21
22.885302188132119
 31
0.0
  0
LINE
  5
272F1
  8
0
 10
4881.532332160128135
 20
22.885302188132119
 30
0.0
 11
4881.5163321601276039
 21
22.885302188132119
 31
0.0
  0
LINE
  5
272F2
  8
0
 10
4881.5163321601276039
 20
22.885302188132119
 30
0.0
 11
4881.5163321601276039
 21
22.9013021333321092
 31
0.0
  0
LINE
  5
272F3
  8
0
 10
4881.532332160128135
 20
22.9013021333321092
 30
0.0
 11
4881.541332160129059
 21
22.9103021024321194
 31
0.0
  0
LINE
  5
272F4
  8
0
 10
4881.532332160128135
 20
22.885302188132119
 30
0.0
 11
4881.541332160129059
 21
22.8763022189321212
 31
0.0
  0
LINE
  5
272F5
  8
0
 10
4881.5163321601276039
 20
22.9013021333321092
 30
0.0
 11
4881.5073321601266798
 21
22.9103021024321194
 31
0.0
  0
LINE
  5
272F6
  8
0
 10
4881.5163321601276039
 20
22.885302188132119
 30
0.0
 11
4881.5073321601266798
 21
22.8763022189321212
 31
0.0
  0
LINE
  5
272F7
  8
0
 10
4881.5163321601276039
 20
22.9103021024321194
 30
0.0
 11
4881.532332160128135
 21
22.9103021024321194
 31
0.0
  0
LINE
  5
272F8
  8
0
 10
4881.532332160128135
 20
22.8763022189321212
 30
0.0
 11
4881.5163321601276039
 21
22.8763022189321212
 31
0.0
  0
LINE
  5
272F9
  8
0
 10
4881.4913321601279677
 20
22.9013021333321092
 30
0.0
 11
4881.5073321601266798
 21
22.9013021333321092
 31
0.0
  0
LINE
  5
272FA
  8
0
 10
4881.5073321601266798
 20
22.9013021333321092
 30
0.0
 11
4881.5073321601266798
 21
22.885302188132119
 31
0.0
  0
LINE
  5
272FB
  8
0
 10
4881.5073321601266798
 20
22.885302188132119
 30
0.0
 11
4881.4913321601279677
 21
22.885302188132119
 31
0.0
  0
LINE
  5
272FC
  8
0
 10
4881.4913321601279677
 20
22.885302188132119
 30
0.0
 11
4881.4913321601279677
 21
22.9013021333321092
 31
0.0
  0
LINE
  5
272FD
  8
0
 10
4881.5073321601266798
 20
22.9013021333321092
 30
0.0
 11
4881.5163321601276039
 21
22.9103021024321194
 31
0.0
  0
LINE
  5
272FE
  8
0
 10
4881.5073321601266798
 20
22.885302188132119
 30
0.0
 11
4881.5163321601276039
 21
22.8763022189321212
 31
0.0
  0
LINE
  5
272FF
  8
0
 10
4881.4913321601279677
 20
22.9013021333321092
 30
0.0
 11
4881.4823321601279531
 21
22.9103021024321194
 31
0.0
  0
LINE
  5
27300
  8
0
 10
4881.4913321601279677
 20
22.885302188132119
 30
0.0
 11
4881.4823321601279531
 21
22.8763022189321212
 31
0.0
  0
LINE
  5
27301
  8
0
 10
4881.4913321601279677
 20
22.9103021024321194
 30
0.0
 11
4881.5073321601266798
 21
22.9103021024321194
 31
0.0
  0
LINE
  5
27302
  8
0
 10
4881.5073321601266798
 20
22.8763022189321212
 30
0.0
 11
4881.4913321601279677
 21
22.8763022189321212
 31
0.0
  0
LINE
  5
27303
  8
0
 10
4881.4663321601292409
 20
22.9013021333321092
 30
0.0
 11
4881.4823321601279531
 21
22.9013021333321092
 31
0.0
  0
LINE
  5
27304
  8
0
 10
4881.4823321601279531
 20
22.9013021333321092
 30
0.0
 11
4881.4823321601279531
 21
22.885302188132119
 31
0.0
  0
LINE
  5
27305
  8
0
 10
4881.4823321601279531
 20
22.885302188132119
 30
0.0
 11
4881.4663321601292409
 21
22.885302188132119
 31
0.0
  0
LINE
  5
27306
  8
0
 10
4881.4663321601292409
 20
22.885302188132119
 30
0.0
 11
4881.4663321601292409
 21
22.9013021333321092
 31
0.0
  0
LINE
  5
27307
  8
0
 10
4881.4823321601279531
 20
22.9013021333321092
 30
0.0
 11
4881.4913321601279677
 21
22.9103021024321194
 31
0.0
  0
LINE
  5
27308
  8
0
 10
4881.4823321601279531
 20
22.885302188132119
 30
0.0
 11
4881.4913321601279677
 21
22.8763022189321212
 31
0.0
  0
LINE
  5
27309
  8
0
 10
4881.4663321601292409
 20
22.9013021333321092
 30
0.0
 11
4881.4573321601283169
 21
22.9103021024321194
 31
0.0
  0
LINE
  5
2730A
  8
0
 10
4881.4663321601292409
 20
22.885302188132119
 30
0.0
 11
4881.4573321601283169
 21
22.8763022189321212
 31
0.0
  0
LINE
  5
2730B
  8
0
 10
4881.4663321601292409
 20
22.9103021024321194
 30
0.0
 11
4881.4823321601279531
 21
22.9103021024321194
 31
0.0
  0
LINE
  5
2730C
  8
0
 10
4881.4823321601279531
 20
22.8763022189321212
 30
0.0
 11
4881.4663321601292409
 21
22.8763022189321212
 31
0.0
  0
LINE
  5
2730D
  8
0
 10
4881.6163321601279677
 20
22.9013021333321092
 30
0.0
 11
4881.6323321601266798
 21
22.9013021333321092
 31
0.0
  0
LINE
  5
2730E
  8
0
 10
4881.6323321601266798
 20
22.9013021333321092
 30
0.0
 11
4881.6323321601266798
 21
22.885302188132119
 31
0.0
  0
LINE
  5
2730F
  8
0
 10
4881.6323321601266798
 20
22.885302188132119
 30
0.0
 11
4881.6163321601279677
 21
22.885302188132119
 31
0.0
  0
LINE
  5
27310
  8
0
 10
4881.6163321601279677
 20
22.885302188132119
 30
0.0
 11
4881.6163321601279677
 21
22.9013021333321092
 31
0.0
  0
LINE
  5
27311
  8
0
 10
4881.6323321601266798
 20
22.9013021333321092
 30
0.0
 11
4881.6413321601266944
 21
22.9103021024321194
 31
0.0
  0
LINE
  5
27312
  8
0
 10
4881.6323321601266798
 20
22.885302188132119
 30
0.0
 11
4881.6413321601266944
 21
22.8763022189321212
 31
0.0
  0
LINE
  5
27313
  8
0
 10
4881.6163321601279677
 20
22.9013021333321092
 30
0.0
 11
4881.6073321601279531
 21
22.9103021024321194
 31
0.0
  0
LINE
  5
27314
  8
0
 10
4881.6163321601279677
 20
22.885302188132119
 30
0.0
 11
4881.6073321601279531
 21
22.8763022189321212
 31
0.0
  0
LINE
  5
27315
  8
0
 10
4881.6163321601279677
 20
22.9103021024321194
 30
0.0
 11
4881.6323321601266798
 21
22.9103021024321194
 31
0.0
  0
LINE
  5
27316
  8
0
 10
4881.6323321601266798
 20
22.8763022189321212
 30
0.0
 11
4881.6163321601279677
 21
22.8763022189321212
 31
0.0
  0
LINE
  5
27317
  8
0
 10
4881.6413321601266944
 20
22.9013021333321092
 30
0.0
 11
4881.657332160128135
 21
22.9013021333321092
 31
0.0
  0
LINE
  5
27318
  8
0
 10
4881.657332160128135
 20
22.9013021333321092
 30
0.0
 11
4881.657332160128135
 21
22.885302188132119
 31
0.0
  0
LINE
  5
27319
  8
0
 10
4881.657332160128135
 20
22.885302188132119
 30
0.0
 11
4881.6413321601266944
 21
22.885302188132119
 31
0.0
  0
LINE
  5
2731A
  8
0
 10
4881.6413321601266944
 20
22.885302188132119
 30
0.0
 11
4881.6413321601266944
 21
22.9013021333321092
 31
0.0
  0
LINE
  5
2731B
  8
0
 10
4881.657332160128135
 20
22.9013021333321092
 30
0.0
 11
4881.6663321601281496
 21
22.9103021024321194
 31
0.0
  0
LINE
  5
2731C
  8
0
 10
4881.657332160128135
 20
22.885302188132119
 30
0.0
 11
4881.6663321601281496
 21
22.8763022189321212
 31
0.0
  0
LINE
  5
2731D
  8
0
 10
4881.6413321601266944
 20
22.9013021333321092
 30
0.0
 11
4881.6323321601266798
 21
22.9103021024321194
 31
0.0
  0
LINE
  5
2731E
  8
0
 10
4881.6413321601266944
 20
22.885302188132119
 30
0.0
 11
4881.6323321601266798
 21
22.8763022189321212
 31
0.0
  0
LINE
  5
2731F
  8
0
 10
4881.6413321601266944
 20
22.9103021024321194
 30
0.0
 11
4881.657332160128135
 21
22.9103021024321194
 31
0.0
  0
LINE
  5
27320
  8
0
 10
4881.657332160128135
 20
22.8763022189321212
 30
0.0
 11
4881.6413321601266944
 21
22.8763022189321212
 31
0.0
  0
LINE
  5
27321
  8
0
 10
4881.6663321601281496
 20
22.9013021333321092
 30
0.0
 11
4881.6823321601277712
 21
22.9013021333321092
 31
0.0
  0
LINE
  5
27322
  8
0
 10
4881.6823321601277712
 20
22.9013021333321092
 30
0.0
 11
4881.6823321601277712
 21
22.885302188132119
 31
0.0
  0
LINE
  5
27323
  8
0
 10
4881.6823321601277712
 20
22.885302188132119
 30
0.0
 11
4881.6663321601281496
 21
22.885302188132119
 31
0.0
  0
LINE
  5
27324
  8
0
 10
4881.6663321601281496
 20
22.885302188132119
 30
0.0
 11
4881.6663321601281496
 21
22.9013021333321092
 31
0.0
  0
LINE
  5
27325
  8
0
 10
4881.6823321601277712
 20
22.9013021333321092
 30
0.0
 11
4881.6913321601268763
 21
22.9103021024321194
 31
0.0
  0
LINE
  5
27326
  8
0
 10
4881.6823321601277712
 20
22.885302188132119
 30
0.0
 11
4881.6913321601268763
 21
22.8763022189321212
 31
0.0
  0
LINE
  5
27327
  8
0
 10
4881.6663321601281496
 20
22.9013021333321092
 30
0.0
 11
4881.657332160128135
 21
22.9103021024321194
 31
0.0
  0
LINE
  5
27328
  8
0
 10
4881.6663321601281496
 20
22.885302188132119
 30
0.0
 11
4881.657332160128135
 21
22.8763022189321212
 31
0.0
  0
LINE
  5
27329
  8
0
 10
4881.6663321601281496
 20
22.9103021024321194
 30
0.0
 11
4881.6823321601277712
 21
22.9103021024321194
 31
0.0
  0
LINE
  5
2732A
  8
0
 10
4881.6823321601277712
 20
22.8763022189321212
 30
0.0
 11
4881.6663321601281496
 21
22.8763022189321212
 31
0.0
  0
LINE
  5
2732B
  8
0
 10
4881.6913321601268763
 20
22.9013021333321092
 30
0.0
 11
4881.7073321601292264
 21
22.9013021333321092
 31
0.0
  0
LINE
  5
2732C
  8
0
 10
4881.7073321601292264
 20
22.9013021333321092
 30
0.0
 11
4881.7073321601292264
 21
22.885302188132119
 31
0.0
  0
LINE
  5
2732D
  8
0
 10
4881.7073321601292264
 20
22.885302188132119
 30
0.0
 11
4881.6913321601268763
 21
22.885302188132119
 31
0.0
  0
LINE
  5
2732E
  8
0
 10
4881.6913321601268763
 20
22.885302188132119
 30
0.0
 11
4881.6913321601268763
 21
22.9013021333321092
 31
0.0
  0
LINE
  5
2732F
  8
0
 10
4881.7073321601292264
 20
22.9013021333321092
 30
0.0
 11
4881.7163321601283315
 21
22.9103021024321194
 31
0.0
  0
LINE
  5
27330
  8
0
 10
4881.7073321601292264
 20
22.885302188132119
 30
0.0
 11
4881.7163321601283315
 21
22.8763022189321212
 31
0.0
  0
LINE
  5
27331
  8
0
 10
4881.6913321601268763
 20
22.9013021333321092
 30
0.0
 11
4881.6823321601277712
 21
22.9103021024321194
 31
0.0
  0
LINE
  5
27332
  8
0
 10
4881.6913321601268763
 20
22.885302188132119
 30
0.0
 11
4881.6823321601277712
 21
22.8763022189321212
 31
0.0
  0
LINE
  5
27333
  8
0
 10
4881.6913321601268763
 20
22.9103021024321194
 30
0.0
 11
4881.7073321601292264
 21
22.9103021024321194
 31
0.0
  0
LINE
  5
27334
  8
0
 10
4881.7073321601292264
 20
22.8763022189321212
 30
0.0
 11
4881.6913321601268763
 21
22.8763022189321212
 31
0.0
  0
LINE
  5
27335
  8
0
 10
4881.7163321601283315
 20
22.9013021333321092
 30
0.0
 11
4881.7323321601279531
 21
22.9013021333321092
 31
0.0
  0
LINE
  5
27336
  8
0
 10
4881.7323321601279531
 20
22.9013021333321092
 30
0.0
 11
4881.7323321601279531
 21
22.885302188132119
 31
0.0
  0
LINE
  5
27337
  8
0
 10
4881.7323321601279531
 20
22.885302188132119
 30
0.0
 11
4881.7163321601283315
 21
22.885302188132119
 31
0.0
  0
LINE
  5
27338
  8
0
 10
4881.7163321601283315
 20
22.885302188132119
 30
0.0
 11
4881.7163321601283315
 21
22.9013021333321092
 31
0.0
  0
LINE
  5
27339
  8
0
 10
4881.7323321601279531
 20
22.9013021333321092
 30
0.0
 11
4881.7413321601279677
 21
22.9103021024321194
 31
0.0
  0
LINE
  5
2733A
  8
0
 10
4881.7323321601279531
 20
22.885302188132119
 30
0.0
 11
4881.7413321601279677
 21
22.8763022189321212
 31
0.0
  0
LINE
  5
2733B
  8
0
 10
4881.7163321601283315
 20
22.9013021333321092
 30
0.0
 11
4881.7073321601292264
 21
22.9103021024321194
 31
0.0
  0
LINE
  5
2733C
  8
0
 10
4881.7163321601283315
 20
22.885302188132119
 30
0.0
 11
4881.7073321601292264
 21
22.8763022189321212
 31
0.0
  0
LINE
  5
2733D
  8
0
 10
4881.7163321601283315
 20
22.9103021024321194
 30
0.0
 11
4881.7323321601279531
 21
22.9103021024321194
 31
0.0
  0
LINE
  5
2733E
  8
0
 10
4881.7323321601279531
 20
22.8763022189321212
 30
0.0
 11
4881.7163321601283315
 21
22.8763022189321212
 31
0.0
  0
LINE
  5
2733F
  8
0
 10
4881.7413321601279677
 20
22.9013021333321092
 30
0.0
 11
4881.7573321601275893
 21
22.9013021333321092
 31
0.0
  0
LINE
  5
27340
  8
0
 10
4881.7573321601275893
 20
22.9013021333321092
 30
0.0
 11
4881.7573321601275893
 21
22.885302188132119
 31
0.0
  0
LINE
  5
27341
  8
0
 10
4881.7573321601275893
 20
22.885302188132119
 30
0.0
 11
4881.7413321601279677
 21
22.885302188132119
 31
0.0
  0
LINE
  5
27342
  8
0
 10
4881.7413321601279677
 20
22.885302188132119
 30
0.0
 11
4881.7413321601279677
 21
22.9013021333321092
 31
0.0
  0
LINE
  5
27343
  8
0
 10
4881.7573321601275893
 20
22.9013021333321092
 30
0.0
 11
4881.7663321601276039
 21
22.9103021024321194
 31
0.0
  0
LINE
  5
27344
  8
0
 10
4881.7573321601275893
 20
22.885302188132119
 30
0.0
 11
4881.7663321601276039
 21
22.8763022189321212
 31
0.0
  0
LINE
  5
27345
  8
0
 10
4881.7413321601279677
 20
22.9013021333321092
 30
0.0
 11
4881.7323321601279531
 21
22.9103021024321194
 31
0.0
  0
LINE
  5
27346
  8
0
 10
4881.7413321601279677
 20
22.885302188132119
 30
0.0
 11
4881.7323321601279531
 21
22.8763022189321212
 31
0.0
  0
LINE
  5
27347
  8
0
 10
4881.7413321601279677
 20
22.9103021024321194
 30
0.0
 11
4881.7573321601275893
 21
22.9103021024321194
 31
0.0
  0
LINE
  5
27348
  8
0
 10
4881.7573321601275893
 20
22.8763022189321212
 30
0.0
 11
4881.7413321601279677
 21
22.8763022189321212
 31
0.0
  0
LINE
  5
27349
  8
0
 10
4881.7663321601276039
 20
22.9013021333321092
 30
0.0
 11
4881.782332160128135
 21
22.9013021333321092
 31
0.0
  0
LINE
  5
2734A
  8
0
 10
4881.782332160128135
 20
22.9013021333321092
 30
0.0
 11
4881.782332160128135
 21
22.885302188132119
 31
0.0
  0
LINE
  5
2734B
  8
0
 10
4881.782332160128135
 20
22.885302188132119
 30
0.0
 11
4881.7663321601276039
 21
22.885302188132119
 31
0.0
  0
LINE
  5
2734C
  8
0
 10
4881.7663321601276039
 20
22.885302188132119
 30
0.0
 11
4881.7663321601276039
 21
22.9013021333321092
 31
0.0
  0
LINE
  5
2734D
  8
0
 10
4881.782332160128135
 20
22.9013021333321092
 30
0.0
 11
4881.7913321601281496
 21
22.9103021024321194
 31
0.0
  0
LINE
  5
2734E
  8
0
 10
4881.782332160128135
 20
22.885302188132119
 30
0.0
 11
4881.7903634249751121
 21
22.8772709507697307
 31
0.0
  0
LINE
  5
2734F
  8
0
 10
4881.7663321601276039
 20
22.9013021333321092
 30
0.0
 11
4881.7573321601275893
 21
22.9103021024321194
 31
0.0
  0
LINE
  5
27350
  8
0
 10
4881.7663321601276039
 20
22.885302188132119
 30
0.0
 11
4881.7573321601275893
 21
22.8763022189321212
 31
0.0
  0
LINE
  5
27351
  8
0
 10
4881.7663321601276039
 20
22.9103021024321194
 30
0.0
 11
4881.782332160128135
 21
22.9103021024321194
 31
0.0
  0
LINE
  5
27352
  8
0
 10
4881.782332160128135
 20
22.8763022189321212
 30
0.0
 11
4881.7663321601276039
 21
22.8763022189321212
 31
0.0
  0
LINE
  5
27353
  8
0
 10
4881.4413321601277858
 20
22.9013021333321092
 30
0.0
 11
4881.4573321601283169
 21
22.9013021333321092
 31
0.0
  0
LINE
  5
27354
  8
0
 10
4881.4573321601283169
 20
22.9013021333321092
 30
0.0
 11
4881.4573321601283169
 21
22.885302188132119
 31
0.0
  0
LINE
  5
27355
  8
0
 10
4881.4573321601283169
 20
22.885302188132119
 30
0.0
 11
4881.4413321601277858
 21
22.885302188132119
 31
0.0
  0
LINE
  5
27356
  8
0
 10
4881.4413321601277858
 20
22.885302188132119
 30
0.0
 11
4881.4413321601277858
 21
22.9013021333321092
 31
0.0
  0
LINE
  5
27357
  8
0
 10
4881.4573321601283169
 20
22.9013021333321092
 30
0.0
 11
4881.4663321601292409
 21
22.9103021024321194
 31
0.0
  0
LINE
  5
27358
  8
0
 10
4881.4573321601283169
 20
22.885302188132119
 30
0.0
 11
4881.4663321601292409
 21
22.8763022189321212
 31
0.0
  0
LINE
  5
27359
  8
0
 10
4881.4413321601277858
 20
22.9013021333321092
 30
0.0
 11
4881.4323321601277712
 21
22.9103021024321194
 31
0.0
  0
LINE
  5
2735A
  8
0
 10
4881.4413321601277858
 20
22.885302188132119
 30
0.0
 11
4881.4333008952808086
 21
22.8772709507697201
 31
0.0
  0
LINE
  5
2735B
  8
0
 10
4881.4413321601277858
 20
22.9103021024321194
 30
0.0
 11
4881.4573321601283169
 21
22.9103021024321194
 31
0.0
  0
LINE
  5
2735C
  8
0
 10
4881.4573321601283169
 20
22.8763022189321212
 30
0.0
 11
4881.4413321601277858
 21
22.8763022189321212
 31
0.0
  0
LINE
  5
2735D
  8
0
 10
4881.6163321601279677
 20
22.8513023046321209
 30
0.0
 11
4881.6323321601266798
 21
22.8513023046321209
 31
0.0
  0
LINE
  5
2735E
  8
0
 10
4881.6323321601266798
 20
22.8513023046321209
 30
0.0
 11
4881.6323321601266798
 21
22.8353023594321201
 31
0.0
  0
LINE
  5
2735F
  8
0
 10
4881.6323321601266798
 20
22.8353023594321201
 30
0.0
 11
4881.6163321601279677
 21
22.8353023594321201
 31
0.0
  0
LINE
  5
27360
  8
0
 10
4881.6163321601279677
 20
22.8353023594321201
 30
0.0
 11
4881.6163321601279677
 21
22.8513023046321209
 31
0.0
  0
LINE
  5
27361
  8
0
 10
4881.6323321601266798
 20
22.8513023046321209
 30
0.0
 11
4881.6413321601266944
 21
22.8603022737321204
 31
0.0
  0
LINE
  5
27362
  8
0
 10
4881.6323321601266798
 20
22.8353023594321201
 30
0.0
 11
4881.6413321601266944
 21
22.8263023902321187
 31
0.0
  0
LINE
  5
27363
  8
0
 10
4881.6163321601279677
 20
22.8513023046321209
 30
0.0
 11
4881.6073321601279531
 21
22.8603022737321204
 31
0.0
  0
LINE
  5
27364
  8
0
 10
4881.6163321601279677
 20
22.8353023594321201
 30
0.0
 11
4881.6073321601279531
 21
22.8263023902321187
 31
0.0
  0
LINE
  5
27365
  8
0
 10
4881.6163321601279677
 20
22.8603022737321204
 30
0.0
 11
4881.6323321601266798
 21
22.8603022737321204
 31
0.0
  0
LINE
  5
27366
  8
0
 10
4881.6323321601266798
 20
22.8263023902321187
 30
0.0
 11
4881.6163321601279677
 21
22.8263023902321187
 31
0.0
  0
LINE
  5
27367
  8
0
 10
4881.5913321601283315
 20
22.8513023046321209
 30
0.0
 11
4881.6073321601279531
 21
22.8513023046321209
 31
0.0
  0
LINE
  5
27368
  8
0
 10
4881.6073321601279531
 20
22.8513023046321209
 30
0.0
 11
4881.6073321601279531
 21
22.8353023594321201
 31
0.0
  0
LINE
  5
27369
  8
0
 10
4881.6073321601279531
 20
22.8353023594321201
 30
0.0
 11
4881.5913321601283315
 21
22.8353023594321201
 31
0.0
  0
LINE
  5
2736A
  8
0
 10
4881.5913321601283315
 20
22.8353023594321201
 30
0.0
 11
4881.5913321601283315
 21
22.8513023046321209
 31
0.0
  0
LINE
  5
2736B
  8
0
 10
4881.6073321601279531
 20
22.8513023046321209
 30
0.0
 11
4881.6163321601279677
 21
22.8603022737321204
 31
0.0
  0
LINE
  5
2736C
  8
0
 10
4881.6073321601279531
 20
22.8353023594321201
 30
0.0
 11
4881.6163321601279677
 21
22.8263023902321187
 31
0.0
  0
LINE
  5
2736D
  8
0
 10
4881.5913321601283315
 20
22.8513023046321209
 30
0.0
 11
4881.5823321601283169
 21
22.8603022737321204
 31
0.0
  0
LINE
  5
2736E
  8
0
 10
4881.5913321601283315
 20
22.8353023594321201
 30
0.0
 11
4881.5823321601283169
 21
22.8263023902321187
 31
0.0
  0
LINE
  5
2736F
  8
0
 10
4881.5913321601283315
 20
22.8603022737321204
 30
0.0
 11
4881.6073321601279531
 21
22.8603022737321204
 31
0.0
  0
LINE
  5
27370
  8
0
 10
4881.6073321601279531
 20
22.8263023902321187
 30
0.0
 11
4881.5913321601283315
 21
22.8263023902321187
 31
0.0
  0
LINE
  5
27371
  8
0
 10
4881.5663321601277858
 20
22.8513023046321209
 30
0.0
 11
4881.5823321601283169
 21
22.8513023046321209
 31
0.0
  0
LINE
  5
27372
  8
0
 10
4881.5823321601283169
 20
22.8513023046321209
 30
0.0
 11
4881.5823321601283169
 21
22.8353023594321201
 31
0.0
  0
LINE
  5
27373
  8
0
 10
4881.5823321601283169
 20
22.8353023594321201
 30
0.0
 11
4881.5663321601277858
 21
22.8353023594321201
 31
0.0
  0
LINE
  5
27374
  8
0
 10
4881.5663321601277858
 20
22.8353023594321201
 30
0.0
 11
4881.5663321601277858
 21
22.8513023046321209
 31
0.0
  0
LINE
  5
27375
  8
0
 10
4881.5823321601283169
 20
22.8513023046321209
 30
0.0
 11
4881.5913321601283315
 21
22.8603022737321204
 31
0.0
  0
LINE
  5
27376
  8
0
 10
4881.5823321601283169
 20
22.8353023594321201
 30
0.0
 11
4881.5913321601283315
 21
22.8263023902321187
 31
0.0
  0
LINE
  5
27377
  8
0
 10
4881.5663321601277858
 20
22.8513023046321209
 30
0.0
 11
4881.5573321601268617
 21
22.8603022737321204
 31
0.0
  0
LINE
  5
27378
  8
0
 10
4881.5663321601277858
 20
22.8353023594321201
 30
0.0
 11
4881.5573321601268617
 21
22.8263023902321187
 31
0.0
  0
LINE
  5
27379
  8
0
 10
4881.5663321601277858
 20
22.8603022737321204
 30
0.0
 11
4881.5823321601283169
 21
22.8603022737321204
 31
0.0
  0
LINE
  5
2737A
  8
0
 10
4881.5823321601283169
 20
22.8263023902321187
 30
0.0
 11
4881.5663321601277858
 21
22.8263023902321187
 31
0.0
  0
LINE
  5
2737B
  8
0
 10
4881.541332160129059
 20
22.8513023046321209
 30
0.0
 11
4881.5573321601268617
 21
22.8513023046321209
 31
0.0
  0
LINE
  5
2737C
  8
0
 10
4881.5573321601268617
 20
22.8513023046321209
 30
0.0
 11
4881.5573321601268617
 21
22.8353023594321201
 31
0.0
  0
LINE
  5
2737D
  8
0
 10
4881.5573321601268617
 20
22.8353023594321201
 30
0.0
 11
4881.541332160129059
 21
22.8353023594321201
 31
0.0
  0
LINE
  5
2737E
  8
0
 10
4881.541332160129059
 20
22.8353023594321201
 30
0.0
 11
4881.541332160129059
 21
22.8513023046321209
 31
0.0
  0
LINE
  5
2737F
  8
0
 10
4881.5573321601268617
 20
22.8513023046321209
 30
0.0
 11
4881.5663321601277858
 21
22.8603022737321204
 31
0.0
  0
LINE
  5
27380
  8
0
 10
4881.5573321601268617
 20
22.8353023594321201
 30
0.0
 11
4881.5663321601277858
 21
22.8263023902321187
 31
0.0
  0
LINE
  5
27381
  8
0
 10
4881.541332160129059
 20
22.8513023046321209
 30
0.0
 11
4881.532332160128135
 21
22.8603022737321204
 31
0.0
  0
LINE
  5
27382
  8
0
 10
4881.541332160129059
 20
22.8353023594321201
 30
0.0
 11
4881.532332160128135
 21
22.8263023902321187
 31
0.0
  0
LINE
  5
27383
  8
0
 10
4881.541332160129059
 20
22.8603022737321204
 30
0.0
 11
4881.5573321601268617
 21
22.8603022737321204
 31
0.0
  0
LINE
  5
27384
  8
0
 10
4881.5573321601268617
 20
22.8263023902321187
 30
0.0
 11
4881.541332160129059
 21
22.8263023902321187
 31
0.0
  0
LINE
  5
27385
  8
0
 10
4881.5163321601276039
 20
22.8513023046321209
 30
0.0
 11
4881.532332160128135
 21
22.8513023046321209
 31
0.0
  0
LINE
  5
27386
  8
0
 10
4881.532332160128135
 20
22.8513023046321209
 30
0.0
 11
4881.532332160128135
 21
22.8353023594321201
 31
0.0
  0
LINE
  5
27387
  8
0
 10
4881.532332160128135
 20
22.8353023594321201
 30
0.0
 11
4881.5163321601276039
 21
22.8353023594321201
 31
0.0
  0
LINE
  5
27388
  8
0
 10
4881.5163321601276039
 20
22.8353023594321201
 30
0.0
 11
4881.5163321601276039
 21
22.8513023046321209
 31
0.0
  0
LINE
  5
27389
  8
0
 10
4881.532332160128135
 20
22.8513023046321209
 30
0.0
 11
4881.541332160129059
 21
22.8603022737321204
 31
0.0
  0
LINE
  5
2738A
  8
0
 10
4881.532332160128135
 20
22.8353023594321201
 30
0.0
 11
4881.541332160129059
 21
22.8263023902321187
 31
0.0
  0
LINE
  5
2738B
  8
0
 10
4881.5163321601276039
 20
22.8513023046321209
 30
0.0
 11
4881.5073321601266798
 21
22.8603022737321204
 31
0.0
  0
LINE
  5
2738C
  8
0
 10
4881.5163321601276039
 20
22.8353023594321201
 30
0.0
 11
4881.5073321601266798
 21
22.8263023902321187
 31
0.0
  0
LINE
  5
2738D
  8
0
 10
4881.5163321601276039
 20
22.8603022737321204
 30
0.0
 11
4881.532332160128135
 21
22.8603022737321204
 31
0.0
  0
LINE
  5
2738E
  8
0
 10
4881.532332160128135
 20
22.8263023902321187
 30
0.0
 11
4881.5163321601276039
 21
22.8263023902321187
 31
0.0
  0
LINE
  5
2738F
  8
0
 10
4881.4913321601279677
 20
22.8513023046321209
 30
0.0
 11
4881.5073321601266798
 21
22.8513023046321209
 31
0.0
  0
LINE
  5
27390
  8
0
 10
4881.5073321601266798
 20
22.8513023046321209
 30
0.0
 11
4881.5073321601266798
 21
22.8353023594321201
 31
0.0
  0
LINE
  5
27391
  8
0
 10
4881.5073321601266798
 20
22.8353023594321201
 30
0.0
 11
4881.4913321601279677
 21
22.8353023594321201
 31
0.0
  0
LINE
  5
27392
  8
0
 10
4881.4913321601279677
 20
22.8353023594321201
 30
0.0
 11
4881.4913321601279677
 21
22.8513023046321209
 31
0.0
  0
LINE
  5
27393
  8
0
 10
4881.5073321601266798
 20
22.8513023046321209
 30
0.0
 11
4881.5163321601276039
 21
22.8603022737321204
 31
0.0
  0
LINE
  5
27394
  8
0
 10
4881.5073321601266798
 20
22.8353023594321201
 30
0.0
 11
4881.5163321601276039
 21
22.8263023902321187
 31
0.0
  0
LINE
  5
27395
  8
0
 10
4881.4913321601279677
 20
22.8513023046321209
 30
0.0
 11
4881.4823321601279531
 21
22.8603022737321204
 31
0.0
  0
LINE
  5
27396
  8
0
 10
4881.4913321601279677
 20
22.8353023594321201
 30
0.0
 11
4881.4833007239667495
 21
22.82727095075591
 31
0.0
  0
LINE
  5
27397
  8
0
 10
4881.4913321601279677
 20
22.8603022737321204
 30
0.0
 11
4881.5073321601266798
 21
22.8603022737321204
 31
0.0
  0
LINE
  5
27398
  8
0
 10
4881.5073321601266798
 20
22.8263023902321187
 30
0.0
 11
4881.4913321601279677
 21
22.8263023902321187
 31
0.0
  0
LINE
  5
27399
  8
0
 10
4881.6413321601266944
 20
22.8513023046321209
 30
0.0
 11
4881.657332160128135
 21
22.8513023046321209
 31
0.0
  0
LINE
  5
2739A
  8
0
 10
4881.657332160128135
 20
22.8513023046321209
 30
0.0
 11
4881.657332160128135
 21
22.8353023594321201
 31
0.0
  0
LINE
  5
2739B
  8
0
 10
4881.657332160128135
 20
22.8353023594321201
 30
0.0
 11
4881.6413321601266944
 21
22.8353023594321201
 31
0.0
  0
LINE
  5
2739C
  8
0
 10
4881.6413321601266944
 20
22.8353023594321201
 30
0.0
 11
4881.6413321601266944
 21
22.8513023046321209
 31
0.0
  0
LINE
  5
2739D
  8
0
 10
4881.657332160128135
 20
22.8513023046321209
 30
0.0
 11
4881.6663321601281496
 21
22.8603022737321204
 31
0.0
  0
LINE
  5
2739E
  8
0
 10
4881.657332160128135
 20
22.8353023594321201
 30
0.0
 11
4881.6663321601281496
 21
22.8263023902321187
 31
0.0
  0
LINE
  5
2739F
  8
0
 10
4881.6413321601266944
 20
22.8513023046321209
 30
0.0
 11
4881.6323321601266798
 21
22.8603022737321204
 31
0.0
  0
LINE
  5
273A0
  8
0
 10
4881.6413321601266944
 20
22.8353023594321201
 30
0.0
 11
4881.6323321601266798
 21
22.8263023902321187
 31
0.0
  0
LINE
  5
273A1
  8
0
 10
4881.6413321601266944
 20
22.8603022737321204
 30
0.0
 11
4881.657332160128135
 21
22.8603022737321204
 31
0.0
  0
LINE
  5
273A2
  8
0
 10
4881.657332160128135
 20
22.8263023902321187
 30
0.0
 11
4881.6413321601266944
 21
22.8263023902321187
 31
0.0
  0
LINE
  5
273A3
  8
0
 10
4881.6663321601281496
 20
22.8513023046321209
 30
0.0
 11
4881.6823321601277712
 21
22.8513023046321209
 31
0.0
  0
LINE
  5
273A4
  8
0
 10
4881.6823321601277712
 20
22.8513023046321209
 30
0.0
 11
4881.6823321601277712
 21
22.8353023594321201
 31
0.0
  0
LINE
  5
273A5
  8
0
 10
4881.6823321601277712
 20
22.8353023594321201
 30
0.0
 11
4881.6663321601281496
 21
22.8353023594321201
 31
0.0
  0
LINE
  5
273A6
  8
0
 10
4881.6663321601281496
 20
22.8353023594321201
 30
0.0
 11
4881.6663321601281496
 21
22.8513023046321209
 31
0.0
  0
LINE
  5
273A7
  8
0
 10
4881.6823321601277712
 20
22.8513023046321209
 30
0.0
 11
4881.6913321601268763
 21
22.8603022737321204
 31
0.0
  0
LINE
  5
273A8
  8
0
 10
4881.6823321601277712
 20
22.8353023594321201
 30
0.0
 11
4881.6913321601268763
 21
22.8263023902321187
 31
0.0
  0
LINE
  5
273A9
  8
0
 10
4881.6663321601281496
 20
22.8513023046321209
 30
0.0
 11
4881.657332160128135
 21
22.8603022737321204
 31
0.0
  0
LINE
  5
273AA
  8
0
 10
4881.6663321601281496
 20
22.8353023594321201
 30
0.0
 11
4881.657332160128135
 21
22.8263023902321187
 31
0.0
  0
LINE
  5
273AB
  8
0
 10
4881.6663321601281496
 20
22.8603022737321204
 30
0.0
 11
4881.6823321601277712
 21
22.8603022737321204
 31
0.0
  0
LINE
  5
273AC
  8
0
 10
4881.6823321601277712
 20
22.8263023902321187
 30
0.0
 11
4881.6663321601281496
 21
22.8263023902321187
 31
0.0
  0
LINE
  5
273AD
  8
0
 10
4881.6913321601268763
 20
22.8513023046321209
 30
0.0
 11
4881.7073321601292264
 21
22.8513023046321209
 31
0.0
  0
LINE
  5
273AE
  8
0
 10
4881.7073321601292264
 20
22.8513023046321209
 30
0.0
 11
4881.7073321601292264
 21
22.8353023594321201
 31
0.0
  0
LINE
  5
273AF
  8
0
 10
4881.7073321601292264
 20
22.8353023594321201
 30
0.0
 11
4881.6913321601268763
 21
22.8353023594321201
 31
0.0
  0
LINE
  5
273B0
  8
0
 10
4881.6913321601268763
 20
22.8353023594321201
 30
0.0
 11
4881.6913321601268763
 21
22.8513023046321209
 31
0.0
  0
LINE
  5
273B1
  8
0
 10
4881.7073321601292264
 20
22.8513023046321209
 30
0.0
 11
4881.7163321601283315
 21
22.8603022737321204
 31
0.0
  0
LINE
  5
273B2
  8
0
 10
4881.7073321601292264
 20
22.8353023594321201
 30
0.0
 11
4881.7163321601283315
 21
22.8263023902321187
 31
0.0
  0
LINE
  5
273B3
  8
0
 10
4881.6913321601268763
 20
22.8513023046321209
 30
0.0
 11
4881.6823321601277712
 21
22.8603022737321204
 31
0.0
  0
LINE
  5
273B4
  8
0
 10
4881.6913321601268763
 20
22.8353023594321201
 30
0.0
 11
4881.6823321601277712
 21
22.8263023902321187
 31
0.0
  0
LINE
  5
273B5
  8
0
 10
4881.6913321601268763
 20
22.8603022737321204
 30
0.0
 11
4881.7073321601292264
 21
22.8603022737321204
 31
0.0
  0
LINE
  5
273B6
  8
0
 10
4881.7073321601292264
 20
22.8263023902321187
 30
0.0
 11
4881.6913321601268763
 21
22.8263023902321187
 31
0.0
  0
LINE
  5
273B7
  8
0
 10
4881.7163321601283315
 20
22.8513023046321209
 30
0.0
 11
4881.7323321601279531
 21
22.8513023046321209
 31
0.0
  0
LINE
  5
273B8
  8
0
 10
4881.7323321601279531
 20
22.8513023046321209
 30
0.0
 11
4881.7323321601279531
 21
22.8353023594321201
 31
0.0
  0
LINE
  5
273B9
  8
0
 10
4881.7323321601279531
 20
22.8353023594321201
 30
0.0
 11
4881.7163321601283315
 21
22.8353023594321201
 31
0.0
  0
LINE
  5
273BA
  8
0
 10
4881.7163321601283315
 20
22.8353023594321201
 30
0.0
 11
4881.7163321601283315
 21
22.8513023046321209
 31
0.0
  0
LINE
  5
273BB
  8
0
 10
4881.7323321601279531
 20
22.8513023046321209
 30
0.0
 11
4881.7413321601279677
 21
22.8603022737321204
 31
0.0
  0
LINE
  5
273BC
  8
0
 10
4881.7323321601279531
 20
22.8353023594321201
 30
0.0
 11
4881.7403635962891713
 21
22.82727095075591
 31
0.0
  0
LINE
  5
273BD
  8
0
 10
4881.7163321601283315
 20
22.8513023046321209
 30
0.0
 11
4881.7073321601292264
 21
22.8603022737321204
 31
0.0
  0
LINE
  5
273BE
  8
0
 10
4881.7163321601283315
 20
22.8353023594321201
 30
0.0
 11
4881.7073321601292264
 21
22.8263023902321187
 31
0.0
  0
LINE
  5
273BF
  8
0
 10
4881.7163321601283315
 20
22.8603022737321204
 30
0.0
 11
4881.7323321601279531
 21
22.8603022737321204
 31
0.0
  0
LINE
  5
273C0
  8
0
 10
4881.7323321601279531
 20
22.8263023902321187
 30
0.0
 11
4881.7163321601283315
 21
22.8263023902321187
 31
0.0
  0
LINE
  5
273C1
  8
0
 10
4881.7413321601279677
 20
22.8513023046321209
 30
0.0
 11
4881.7573321601275893
 21
22.8513023046321209
 31
0.0
  0
LINE
  5
273C2
  8
0
 10
4881.7573321601275893
 20
22.8513023046321209
 30
0.0
 11
4881.7573321601275893
 21
22.8408068196469287
 31
0.0
  0
LINE
  5
273C3
  8
0
 10
4881.7508412770257564
 20
22.8353023594321201
 30
0.0
 11
4881.7413321601279677
 21
22.8353023594321201
 31
0.0
  0
LINE
  5
273C4
  8
0
 10
4881.7413321601279677
 20
22.8353023594321201
 30
0.0
 11
4881.7413321601279677
 21
22.8513023046321209
 31
0.0
  0
LINE
  5
273C5
  8
0
 10
4881.7573321601275893
 20
22.8513023046321209
 30
0.0
 11
4881.7663321601276039
 21
22.8603022737321204
 31
0.0
  0
LINE
  5
273C6
  8
0
 10
4881.7413321601279677
 20
22.8513023046321209
 30
0.0
 11
4881.7323321601279531
 21
22.8603022737321204
 31
0.0
  0
LINE
  5
273C7
  8
0
 10
4881.7413321601279677
 20
22.8353023594321201
 30
0.0
 11
4881.7323321601279531
 21
22.8263023902321187
 31
0.0
  0
LINE
  5
273C8
  8
0
 10
4881.7413321601279677
 20
22.8603022737321204
 30
0.0
 11
4881.7573321601275893
 21
22.8603022737321204
 31
0.0
  0
LINE
  5
273C9
  8
0
 10
4881.7663321601276039
 20
22.8513023046321209
 30
0.0
 11
4881.7684319652107661
 21
22.8513023046321209
 31
0.0
  0
LINE
  5
273CA
  8
0
 10
4881.7663321601276039
 20
22.8492024924504911
 30
0.0
 11
4881.7663321601276039
 21
22.8513023046321209
 31
0.0
  0
LINE
  5
273CB
  8
0
 10
4881.7663321601276039
 20
22.8513023046321209
 30
0.0
 11
4881.7573321601275893
 21
22.8603022737321204
 31
0.0
  0
LINE
  5
273CC
  8
0
 10
4881.7663321601276039
 20
22.8603022737321204
 30
0.0
 11
4881.7768275553062267
 21
22.8603022737321311
 31
0.0
  0
LINE
  5
273CD
  8
0
 10
4881.4663321601292409
 20
22.8513023046321209
 30
0.0
 11
4881.4823321601279531
 21
22.8513023046321209
 31
0.0
  0
LINE
  5
273CE
  8
0
 10
4881.4823321601279531
 20
22.8513023046321209
 30
0.0
 11
4881.4823321601279531
 21
22.8353023594321201
 31
0.0
  0
LINE
  5
273CF
  8
0
 10
4881.4823321601279531
 20
22.8353023594321201
 30
0.0
 11
4881.4728230432292548
 21
22.8353023594321201
 31
0.0
  0
LINE
  5
273D0
  8
0
 10
4881.4663321601292409
 20
22.8408068196469287
 30
0.0
 11
4881.4663321601292409
 21
22.8513023046321209
 31
0.0
  0
LINE
  5
273D1
  8
0
 10
4881.4823321601279531
 20
22.8513023046321209
 30
0.0
 11
4881.4913321601279677
 21
22.8603022737321204
 31
0.0
  0
LINE
  5
273D2
  8
0
 10
4881.4823321601279531
 20
22.8353023594321201
 30
0.0
 11
4881.4913321601279677
 21
22.8263023902321187
 31
0.0
  0
LINE
  5
273D3
  8
0
 10
4881.4663321601292409
 20
22.8513023046321209
 30
0.0
 11
4881.4573321601283169
 21
22.8603022737321204
 31
0.0
  0
LINE
  5
273D4
  8
0
 10
4881.4663321601292409
 20
22.8603022737321204
 30
0.0
 11
4881.4823321601279531
 21
22.8603022737321204
 31
0.0
  0
LINE
  5
273D5
  8
0
 10
4881.6413321601266944
 20
23.201301105232119
 30
0.0
 11
4881.657332160128135
 21
23.201301105232119
 31
0.0
  0
LINE
  5
273D6
  8
0
 10
4881.657332160128135
 20
23.201301105232119
 30
0.0
 11
4881.657332160128135
 21
23.1853011600321217
 31
0.0
  0
LINE
  5
273D7
  8
0
 10
4881.657332160128135
 20
23.1853011600321217
 30
0.0
 11
4881.6413321601266944
 21
23.1853011600321217
 31
0.0
  0
LINE
  5
273D8
  8
0
 10
4881.6413321601266944
 20
23.1853011600321217
 30
0.0
 11
4881.6413321601266944
 21
23.201301105232119
 31
0.0
  0
LINE
  5
273D9
  8
0
 10
4881.657332160128135
 20
23.201301105232119
 30
0.0
 11
4881.6663321601281496
 21
23.2103010743321185
 31
0.0
  0
LINE
  5
273DA
  8
0
 10
4881.657332160128135
 20
23.1853011600321217
 30
0.0
 11
4881.6663321601281496
 21
23.1763011908321204
 31
0.0
  0
LINE
  5
273DB
  8
0
 10
4881.6413321601266944
 20
23.201301105232119
 30
0.0
 11
4881.6323321601266798
 21
23.2103010743321185
 31
0.0
  0
LINE
  5
273DC
  8
0
 10
4881.6413321601266944
 20
23.1853011600321217
 30
0.0
 11
4881.6323321601266798
 21
23.1763011908321204
 31
0.0
  0
LINE
  5
273DD
  8
0
 10
4881.6413321601266944
 20
23.2103010743321185
 30
0.0
 11
4881.657332160128135
 21
23.2103010743321185
 31
0.0
  0
LINE
  5
273DE
  8
0
 10
4881.657332160128135
 20
23.1763011908321204
 30
0.0
 11
4881.6413321601266944
 21
23.1763011908321204
 31
0.0
  0
LINE
  5
273DF
  8
0
 10
4881.6163321601279677
 20
23.201301105232119
 30
0.0
 11
4881.6323321601266798
 21
23.201301105232119
 31
0.0
  0
LINE
  5
273E0
  8
0
 10
4881.6323321601266798
 20
23.201301105232119
 30
0.0
 11
4881.6323321601266798
 21
23.1853011600321217
 31
0.0
  0
LINE
  5
273E1
  8
0
 10
4881.6323321601266798
 20
23.1853011600321217
 30
0.0
 11
4881.6163321601279677
 21
23.1853011600321217
 31
0.0
  0
LINE
  5
273E2
  8
0
 10
4881.6163321601279677
 20
23.1853011600321217
 30
0.0
 11
4881.6163321601279677
 21
23.201301105232119
 31
0.0
  0
LINE
  5
273E3
  8
0
 10
4881.6323321601266798
 20
23.201301105232119
 30
0.0
 11
4881.6413321601266944
 21
23.2103010743321185
 31
0.0
  0
LINE
  5
273E4
  8
0
 10
4881.6323321601266798
 20
23.1853011600321217
 30
0.0
 11
4881.6413321601266944
 21
23.1763011908321204
 31
0.0
  0
LINE
  5
273E5
  8
0
 10
4881.6163321601279677
 20
23.201301105232119
 30
0.0
 11
4881.6073321601279531
 21
23.2103010743321185
 31
0.0
  0
LINE
  5
273E6
  8
0
 10
4881.6163321601279677
 20
23.1853011600321217
 30
0.0
 11
4881.6073321601279531
 21
23.1763011908321204
 31
0.0
  0
LINE
  5
273E7
  8
0
 10
4881.6163321601279677
 20
23.2103010743321185
 30
0.0
 11
4881.6323321601266798
 21
23.2103010743321185
 31
0.0
  0
LINE
  5
273E8
  8
0
 10
4881.6323321601266798
 20
23.1763011908321204
 30
0.0
 11
4881.6163321601279677
 21
23.1763011908321204
 31
0.0
  0
LINE
  5
273E9
  8
0
 10
4881.5913321601283315
 20
23.201301105232119
 30
0.0
 11
4881.6073321601279531
 21
23.201301105232119
 31
0.0
  0
LINE
  5
273EA
  8
0
 10
4881.6073321601279531
 20
23.201301105232119
 30
0.0
 11
4881.6073321601279531
 21
23.1853011600321217
 31
0.0
  0
LINE
  5
273EB
  8
0
 10
4881.6073321601279531
 20
23.1853011600321217
 30
0.0
 11
4881.5913321601283315
 21
23.1853011600321217
 31
0.0
  0
LINE
  5
273EC
  8
0
 10
4881.5913321601283315
 20
23.1853011600321217
 30
0.0
 11
4881.5913321601283315
 21
23.201301105232119
 31
0.0
  0
LINE
  5
273ED
  8
0
 10
4881.6073321601279531
 20
23.201301105232119
 30
0.0
 11
4881.6163321601279677
 21
23.2103010743321185
 31
0.0
  0
LINE
  5
273EE
  8
0
 10
4881.6073321601279531
 20
23.1853011600321217
 30
0.0
 11
4881.6163321601279677
 21
23.1763011908321204
 31
0.0
  0
LINE
  5
273EF
  8
0
 10
4881.5913321601283315
 20
23.201301105232119
 30
0.0
 11
4881.5823321601283169
 21
23.2103010743321185
 31
0.0
  0
LINE
  5
273F0
  8
0
 10
4881.5913321601283315
 20
23.1853011600321217
 30
0.0
 11
4881.5823321601283169
 21
23.1763011908321204
 31
0.0
  0
LINE
  5
273F1
  8
0
 10
4881.5913321601283315
 20
23.2103010743321185
 30
0.0
 11
4881.6073321601279531
 21
23.2103010743321185
 31
0.0
  0
LINE
  5
273F2
  8
0
 10
4881.6073321601279531
 20
23.1763011908321204
 30
0.0
 11
4881.5913321601283315
 21
23.1763011908321204
 31
0.0
  0
LINE
  5
273F3
  8
0
 10
4881.5663321601277858
 20
23.201301105232119
 30
0.0
 11
4881.5823321601283169
 21
23.201301105232119
 31
0.0
  0
LINE
  5
273F4
  8
0
 10
4881.5823321601283169
 20
23.201301105232119
 30
0.0
 11
4881.5823321601283169
 21
23.1853011600321217
 31
0.0
  0
LINE
  5
273F5
  8
0
 10
4881.5823321601283169
 20
23.1853011600321217
 30
0.0
 11
4881.5663321601277858
 21
23.1853011600321217
 31
0.0
  0
LINE
  5
273F6
  8
0
 10
4881.5663321601277858
 20
23.1853011600321217
 30
0.0
 11
4881.5663321601277858
 21
23.201301105232119
 31
0.0
  0
LINE
  5
273F7
  8
0
 10
4881.5823321601283169
 20
23.201301105232119
 30
0.0
 11
4881.5913321601283315
 21
23.2103010743321185
 31
0.0
  0
LINE
  5
273F8
  8
0
 10
4881.5823321601283169
 20
23.1853011600321217
 30
0.0
 11
4881.5913321601283315
 21
23.1763011908321204
 31
0.0
  0
LINE
  5
273F9
  8
0
 10
4881.5663321601277858
 20
23.201301105232119
 30
0.0
 11
4881.5573321601268617
 21
23.2103010743321185
 31
0.0
  0
LINE
  5
273FA
  8
0
 10
4881.5663321601277858
 20
23.1853011600321217
 30
0.0
 11
4881.5573321601268617
 21
23.1763011908321204
 31
0.0
  0
LINE
  5
273FB
  8
0
 10
4881.5663321601277858
 20
23.2103010743321185
 30
0.0
 11
4881.5823321601283169
 21
23.2103010743321185
 31
0.0
  0
LINE
  5
273FC
  8
0
 10
4881.5823321601283169
 20
23.1763011908321204
 30
0.0
 11
4881.5663321601277858
 21
23.1763011908321204
 31
0.0
  0
LINE
  5
273FD
  8
0
 10
4881.541332160129059
 20
23.201301105232119
 30
0.0
 11
4881.5573321601268617
 21
23.201301105232119
 31
0.0
  0
LINE
  5
273FE
  8
0
 10
4881.5573321601268617
 20
23.201301105232119
 30
0.0
 11
4881.5573321601268617
 21
23.1853011600321217
 31
0.0
  0
LINE
  5
273FF
  8
0
 10
4881.5573321601268617
 20
23.1853011600321217
 30
0.0
 11
4881.541332160129059
 21
23.1853011600321217
 31
0.0
  0
LINE
  5
27400
  8
0
 10
4881.541332160129059
 20
23.1853011600321217
 30
0.0
 11
4881.541332160129059
 21
23.201301105232119
 31
0.0
  0
LINE
  5
27401
  8
0
 10
4881.5573321601268617
 20
23.201301105232119
 30
0.0
 11
4881.5663321601277858
 21
23.2103010743321185
 31
0.0
  0
LINE
  5
27402
  8
0
 10
4881.5573321601268617
 20
23.1853011600321217
 30
0.0
 11
4881.5663321601277858
 21
23.1763011908321204
 31
0.0
  0
LINE
  5
27403
  8
0
 10
4881.541332160129059
 20
23.201301105232119
 30
0.0
 11
4881.532332160128135
 21
23.2103010743321185
 31
0.0
  0
LINE
  5
27404
  8
0
 10
4881.541332160129059
 20
23.1853011600321217
 30
0.0
 11
4881.532332160128135
 21
23.1763011908321204
 31
0.0
  0
LINE
  5
27405
  8
0
 10
4881.541332160129059
 20
23.2103010743321185
 30
0.0
 11
4881.5573321601268617
 21
23.2103010743321185
 31
0.0
  0
LINE
  5
27406
  8
0
 10
4881.5573321601268617
 20
23.1763011908321204
 30
0.0
 11
4881.541332160129059
 21
23.1763011908321204
 31
0.0
  0
LINE
  5
27407
  8
0
 10
4881.5163321601276039
 20
23.201301105232119
 30
0.0
 11
4881.532332160128135
 21
23.201301105232119
 31
0.0
  0
LINE
  5
27408
  8
0
 10
4881.532332160128135
 20
23.201301105232119
 30
0.0
 11
4881.532332160128135
 21
23.1853011600321217
 31
0.0
  0
LINE
  5
27409
  8
0
 10
4881.532332160128135
 20
23.1853011600321217
 30
0.0
 11
4881.5163321601276039
 21
23.1853011600321217
 31
0.0
  0
LINE
  5
2740A
  8
0
 10
4881.5163321601276039
 20
23.1853011600321217
 30
0.0
 11
4881.5163321601276039
 21
23.201301105232119
 31
0.0
  0
LINE
  5
2740B
  8
0
 10
4881.532332160128135
 20
23.201301105232119
 30
0.0
 11
4881.541332160129059
 21
23.2103010743321185
 31
0.0
  0
LINE
  5
2740C
  8
0
 10
4881.532332160128135
 20
23.1853011600321217
 30
0.0
 11
4881.541332160129059
 21
23.1763011908321204
 31
0.0
  0
LINE
  5
2740D
  8
0
 10
4881.5163321601276039
 20
23.201301105232119
 30
0.0
 11
4881.5145333954533271
 21
23.2030998637306709
 31
0.0
  0
LINE
  5
2740E
  8
0
 10
4881.5163321601276039
 20
23.1853011600321217
 30
0.0
 11
4881.5073321601266798
 21
23.1763011908321204
 31
0.0
  0
LINE
  5
2740F
  8
0
 10
4881.5307542839891539
 20
23.2103010743321185
 30
0.0
 11
4881.532332160128135
 21
23.2103010743321185
 31
0.0
  0
LINE
  5
27410
  8
0
 10
4881.532332160128135
 20
23.1763011908321204
 30
0.0
 11
4881.5163321601276039
 21
23.1763011908321204
 31
0.0
  0
LINE
  5
27411
  8
0
 10
4881.6663321601281496
 20
23.201301105232119
 30
0.0
 11
4881.6823321601277712
 21
23.201301105232119
 31
0.0
  0
LINE
  5
27412
  8
0
 10
4881.6823321601277712
 20
23.201301105232119
 30
0.0
 11
4881.6823321601277712
 21
23.1853011600321217
 31
0.0
  0
LINE
  5
27413
  8
0
 10
4881.6823321601277712
 20
23.1853011600321217
 30
0.0
 11
4881.6663321601281496
 21
23.1853011600321217
 31
0.0
  0
LINE
  5
27414
  8
0
 10
4881.6663321601281496
 20
23.1853011600321217
 30
0.0
 11
4881.6663321601281496
 21
23.201301105232119
 31
0.0
  0
LINE
  5
27415
  8
0
 10
4881.6823321601277712
 20
23.201301105232119
 30
0.0
 11
4881.6913321601268763
 21
23.2103010743321185
 31
0.0
  0
LINE
  5
27416
  8
0
 10
4881.6823321601277712
 20
23.1853011600321217
 30
0.0
 11
4881.6913321601268763
 21
23.1763011908321204
 31
0.0
  0
LINE
  5
27417
  8
0
 10
4881.6663321601281496
 20
23.201301105232119
 30
0.0
 11
4881.657332160128135
 21
23.2103010743321185
 31
0.0
  0
LINE
  5
27418
  8
0
 10
4881.6663321601281496
 20
23.1853011600321217
 30
0.0
 11
4881.657332160128135
 21
23.1763011908321204
 31
0.0
  0
LINE
  5
27419
  8
0
 10
4881.6663321601281496
 20
23.2103010743321185
 30
0.0
 11
4881.6823321601277712
 21
23.2103010743321185
 31
0.0
  0
LINE
  5
2741A
  8
0
 10
4881.6823321601277712
 20
23.1763011908321204
 30
0.0
 11
4881.6663321601281496
 21
23.1763011908321204
 31
0.0
  0
LINE
  5
2741B
  8
0
 10
4881.6913321601268763
 20
23.201301105232119
 30
0.0
 11
4881.7073321601292264
 21
23.201301105232119
 31
0.0
  0
LINE
  5
2741C
  8
0
 10
4881.7073321601292264
 20
23.201301105232119
 30
0.0
 11
4881.7073321601292264
 21
23.1853011600321217
 31
0.0
  0
LINE
  5
2741D
  8
0
 10
4881.7073321601292264
 20
23.1853011600321217
 30
0.0
 11
4881.6913321601268763
 21
23.1853011600321217
 31
0.0
  0
LINE
  5
2741E
  8
0
 10
4881.6913321601268763
 20
23.1853011600321217
 30
0.0
 11
4881.6913321601268763
 21
23.201301105232119
 31
0.0
  0
LINE
  5
2741F
  8
0
 10
4881.7073321601292264
 20
23.201301105232119
 30
0.0
 11
4881.7091309248025937
 21
23.2030998637306709
 31
0.0
  0
LINE
  5
27420
  8
0
 10
4881.7073321601292264
 20
23.1853011600321217
 30
0.0
 11
4881.7163321601283315
 21
23.1763011908321204
 31
0.0
  0
LINE
  5
27421
  8
0
 10
4881.6913321601268763
 20
23.201301105232119
 30
0.0
 11
4881.6823321601277712
 21
23.2103010743321185
 31
0.0
  0
LINE
  5
27422
  8
0
 10
4881.6913321601268763
 20
23.1853011600321217
 30
0.0
 11
4881.6823321601277712
 21
23.1763011908321204
 31
0.0
  0
LINE
  5
27423
  8
0
 10
4881.6913321601268763
 20
23.2103010743321185
 30
0.0
 11
4881.6929100362667668
 21
23.2103010743321185
 31
0.0
  0
LINE
  5
27424
  8
0
 10
4881.7073321601292264
 20
23.1763011908321204
 30
0.0
 11
4881.6913321601268763
 21
23.1763011908321204
 31
0.0
  0
LINE
  5
27425
  8
0
 10
4881.7323321601279531
 20
23.18984887608854
 30
0.0
 11
4881.7323321601279531
 21
23.1853011600321217
 31
0.0
  0
LINE
  5
27426
  8
0
 10
4881.7323321601279531
 20
23.1853011600321217
 30
0.0
 11
4881.7163321601283315
 21
23.1853011600321217
 31
0.0
  0
LINE
  5
27427
  8
0
 10
4881.7163321601283315
 20
23.1853011600321217
 30
0.0
 11
4881.7163321601283315
 21
23.1993820824245098
 31
0.0
  0
LINE
  5
27428
  8
0
 10
4881.7323321601279531
 20
23.1853011600321217
 30
0.0
 11
4881.7413321601279677
 21
23.1763011908321204
 31
0.0
  0
LINE
  5
27429
  8
0
 10
4881.7163321601283315
 20
23.1853011600321217
 30
0.0
 11
4881.7073321601292264
 21
23.1763011908321204
 31
0.0
  0
LINE
  5
2742A
  8
0
 10
4881.7323321601279531
 20
23.1763011908321204
 30
0.0
 11
4881.7163321601283315
 21
23.1763011908321204
 31
0.0
  0
LINE
  5
2742B
  8
0
 10
4881.7403635963473789
 20
23.1843325995664706
 30
0.0
 11
4881.7323321601279531
 21
23.1763011908321204
 31
0.0
  0
LINE
  5
2742C
  8
0
 10
4881.7508412771494477
 20
23.176301190832131
 30
0.0
 11
4881.7413321601279677
 21
23.1763011908321204
 31
0.0
  0
LINE
  5
2742D
  8
0
 10
4881.5073321601266798
 20
23.1993820824245098
 30
0.0
 11
4881.5073321601266798
 21
23.1853011600321217
 31
0.0
  0
LINE
  5
2742E
  8
0
 10
4881.5073321601266798
 20
23.1853011600321217
 30
0.0
 11
4881.4913321601279677
 21
23.1853011600321217
 31
0.0
  0
LINE
  5
2742F
  8
0
 10
4881.4913321601279677
 20
23.1853011600321217
 30
0.0
 11
4881.4913321601279677
 21
23.18984887608854
 31
0.0
  0
LINE
  5
27430
  8
0
 10
4881.5073321601266798
 20
23.1853011600321217
 30
0.0
 11
4881.5163321601276039
 21
23.1763011908321204
 31
0.0
  0
LINE
  5
27431
  8
0
 10
4881.4913321601279677
 20
23.1853011600321217
 30
0.0
 11
4881.4823321601279531
 21
23.1763011908321204
 31
0.0
  0
LINE
  5
27432
  8
0
 10
4881.5073321601266798
 20
23.1763011908321204
 30
0.0
 11
4881.4913321601279677
 21
23.1763011908321204
 31
0.0
  0
CIRCLE
  5
27433
  8
0
 10
4881.6118321601279604
 20
23.0058017751821211
 30
0.0
 40
0.2199854207716019
  0
LINE
  5
27434
  8
0
 10
4881.4913321601279677
 20
23.1763011908321204
 30
0.0
 11
4881.4913321601279677
 21
23.1603012456321302
 31
0.0
  0
LINE
  5
27435
  8
0
 10
4881.5073321601266798
 20
23.1603012456321302
 30
0.0
 11
4881.5073321601266798
 21
23.1763011908321204
 31
0.0
  0
LINE
  5
27436
  8
0
 10
4881.5163321601276039
 20
23.1763011908321204
 30
0.0
 11
4881.5163321601276039
 21
23.1603012456321302
 31
0.0
  0
LINE
  5
27437
  8
0
 10
4881.4823321601279531
 20
23.1603012456321302
 30
0.0
 11
4881.4823321601279531
 21
23.1763011908321204
 31
0.0
  0
LINE
  5
27438
  8
0
 10
4881.4663321601292409
 20
23.1603012456321302
 30
0.0
 11
4881.4663321601292409
 21
23.1707967307173099
 31
0.0
  0
LINE
  5
27439
  8
0
 10
4881.4573321601283169
 20
23.1603012456321302
 30
0.0
 11
4881.4573321601283169
 21
23.1624010579137511
 31
0.0
  0
LINE
  5
2743A
  8
0
 10
4881.532332160128135
 20
23.1603012456321302
 30
0.0
 11
4881.532332160128135
 21
23.1763011908321204
 31
0.0
  0
LINE
  5
2743B
  8
0
 10
4881.541332160129059
 20
23.1763011908321204
 30
0.0
 11
4881.541332160129059
 21
23.1603012456321302
 31
0.0
  0
LINE
  5
2743C
  8
0
 10
4881.5573321601268617
 20
23.1763011908321204
 30
0.0
 11
4881.5573321601268617
 21
23.1603012456321302
 31
0.0
  0
LINE
  5
2743D
  8
0
 10
4881.5663321601277858
 20
23.1603012456321302
 30
0.0
 11
4881.5663321601277858
 21
23.1763011908321204
 31
0.0
  0
LINE
  5
2743E
  8
0
 10
4881.5823321601283169
 20
23.1763011908321204
 30
0.0
 11
4881.5823321601283169
 21
23.1603012456321302
 31
0.0
  0
LINE
  5
2743F
  8
0
 10
4881.5913321601283315
 20
23.1603012456321302
 30
0.0
 11
4881.5913321601283315
 21
23.1763011908321204
 31
0.0
  0
LINE
  5
27440
  8
0
 10
4881.6073321601279531
 20
23.1763011908321204
 30
0.0
 11
4881.6073321601279531
 21
23.1603012456321302
 31
0.0
  0
LINE
  5
27441
  8
0
 10
4881.6163321601279677
 20
23.1603012456321302
 30
0.0
 11
4881.6163321601279677
 21
23.1763011908321204
 31
0.0
  0
LINE
  5
27442
  8
0
 10
4881.6323321601266798
 20
23.1763011908321204
 30
0.0
 11
4881.6323321601266798
 21
23.1603012456321302
 31
0.0
  0
LINE
  5
27443
  8
0
 10
4881.6413321601266944
 20
23.1603012456321302
 30
0.0
 11
4881.6413321601266944
 21
23.1763011908321204
 31
0.0
  0
LINE
  5
27444
  8
0
 10
4881.657332160128135
 20
23.1763011908321204
 30
0.0
 11
4881.657332160128135
 21
23.1603012456321302
 31
0.0
  0
LINE
  5
27445
  8
0
 10
4881.6913321601268763
 20
23.1603012456321302
 30
0.0
 11
4881.6913321601268763
 21
23.1763011908321204
 31
0.0
  0
LINE
  5
27446
  8
0
 10
4881.6823321601277712
 20
23.1763011908321204
 30
0.0
 11
4881.6823321601277712
 21
23.1603012456321302
 31
0.0
  0
LINE
  5
27447
  8
0
 10
4881.6663321601281496
 20
23.1603012456321302
 30
0.0
 11
4881.6663321601281496
 21
23.1763011908321204
 31
0.0
  0
LINE
  5
27448
  8
0
 10
4881.7073321601292264
 20
23.1763011908321204
 30
0.0
 11
4881.7073321601292264
 21
23.1603012456321302
 31
0.0
  0
LINE
  5
27449
  8
0
 10
4881.7163321601283315
 20
23.1603012456321302
 30
0.0
 11
4881.7163321601283315
 21
23.1763011908321204
 31
0.0
  0
LINE
  5
2744A
  8
0
 10
4881.7323321601279531
 20
23.1763011908321204
 30
0.0
 11
4881.7323321601279531
 21
23.1603012456321302
 31
0.0
  0
LINE
  5
2744B
  8
0
 10
4881.7413321601279677
 20
23.1603012456321302
 30
0.0
 11
4881.7413321601279677
 21
23.1763011908321204
 31
0.0
  0
LINE
  5
2744C
  8
0
 10
4881.7573321601275893
 20
23.1603012456321302
 30
0.0
 11
4881.7573321601275893
 21
23.1707967307173099
 31
0.0
  0
LINE
  5
2744D
  8
0
 10
4881.7663321601276039
 20
23.1603012456321302
 30
0.0
 11
4881.7663321601276039
 21
23.1624010579137405
 31
0.0
  0
LINE
  5
2744E
  8
0
 10
4881.4663321601292409
 20
23.1263013622321196
 30
0.0
 11
4881.4663321601292409
 21
23.1103014170321295
 31
0.0
  0
LINE
  5
2744F
  8
0
 10
4881.4823321601279531
 20
23.1103014170321295
 30
0.0
 11
4881.4823321601279531
 21
23.1263013622321196
 31
0.0
  0
LINE
  5
27450
  8
0
 10
4881.4913321601279677
 20
23.1263013622321196
 30
0.0
 11
4881.4913321601279677
 21
23.1103014170321295
 31
0.0
  0
LINE
  5
27451
  8
0
 10
4881.4573321601283169
 20
23.1103014170321295
 30
0.0
 11
4881.4573321601283169
 21
23.1263013622321196
 31
0.0
  0
LINE
  5
27452
  8
0
 10
4881.5073321601266798
 20
23.1103014170321295
 30
0.0
 11
4881.5073321601266798
 21
23.1263013622321196
 31
0.0
  0
LINE
  5
27453
  8
0
 10
4881.5163321601276039
 20
23.1263013622321196
 30
0.0
 11
4881.5163321601276039
 21
23.1103014170321295
 31
0.0
  0
LINE
  5
27454
  8
0
 10
4881.532332160128135
 20
23.1263013622321196
 30
0.0
 11
4881.532332160128135
 21
23.1103014170321295
 31
0.0
  0
LINE
  5
27455
  8
0
 10
4881.541332160129059
 20
23.1103014170321295
 30
0.0
 11
4881.541332160129059
 21
23.1263013622321196
 31
0.0
  0
LINE
  5
27456
  8
0
 10
4881.5573321601268617
 20
23.1263013622321196
 30
0.0
 11
4881.5573321601268617
 21
23.1103014170321295
 31
0.0
  0
LINE
  5
27457
  8
0
 10
4881.5663321601277858
 20
23.1103014170321295
 30
0.0
 11
4881.5663321601277858
 21
23.1263013622321196
 31
0.0
  0
LINE
  5
27458
  8
0
 10
4881.5823321601283169
 20
23.1263013622321196
 30
0.0
 11
4881.5823321601283169
 21
23.1103014170321295
 31
0.0
  0
LINE
  5
27459
  8
0
 10
4881.5913321601283315
 20
23.1103014170321295
 30
0.0
 11
4881.5913321601283315
 21
23.1263013622321196
 31
0.0
  0
LINE
  5
2745A
  8
0
 10
4881.6073321601279531
 20
23.1263013622321196
 30
0.0
 11
4881.6073321601279531
 21
23.1103014170321295
 31
0.0
  0
LINE
  5
2745B
  8
0
 10
4881.6163321601279677
 20
23.1103014170321295
 30
0.0
 11
4881.6163321601279677
 21
23.1263013622321196
 31
0.0
  0
LINE
  5
2745C
  8
0
 10
4881.6323321601266798
 20
23.1263013622321196
 30
0.0
 11
4881.6323321601266798
 21
23.1103014170321295
 31
0.0
  0
LINE
  5
2745D
  8
0
 10
4881.6663321601281496
 20
23.1103014170321295
 30
0.0
 11
4881.6663321601281496
 21
23.1263013622321196
 31
0.0
  0
LINE
  5
2745E
  8
0
 10
4881.657332160128135
 20
23.1263013622321196
 30
0.0
 11
4881.657332160128135
 21
23.1103014170321295
 31
0.0
  0
LINE
  5
2745F
  8
0
 10
4881.6413321601266944
 20
23.1103014170321295
 30
0.0
 11
4881.6413321601266944
 21
23.1263013622321196
 31
0.0
  0
LINE
  5
27460
  8
0
 10
4881.6823321601277712
 20
23.1263013622321196
 30
0.0
 11
4881.6823321601277712
 21
23.1103014170321295
 31
0.0
  0
LINE
  5
27461
  8
0
 10
4881.6913321601268763
 20
23.1103014170321295
 30
0.0
 11
4881.6913321601268763
 21
23.1263013622321196
 31
0.0
  0
LINE
  5
27462
  8
0
 10
4881.7073321601292264
 20
23.1263013622321196
 30
0.0
 11
4881.7073321601292264
 21
23.1103014170321295
 31
0.0
  0
LINE
  5
27463
  8
0
 10
4881.7163321601283315
 20
23.1103014170321295
 30
0.0
 11
4881.7163321601283315
 21
23.1263013622321196
 31
0.0
  0
LINE
  5
27464
  8
0
 10
4881.4663321601292409
 20
23.0763015335321207
 30
0.0
 11
4881.4663321601292409
 21
23.0603015883321305
 31
0.0
  0
LINE
  5
27465
  8
0
 10
4881.4823321601279531
 20
23.0603015883321305
 30
0.0
 11
4881.4823321601279531
 21
23.0763015335321207
 31
0.0
  0
LINE
  5
27466
  8
0
 10
4881.4913321601279677
 20
23.0763015335321207
 30
0.0
 11
4881.4913321601279677
 21
23.0603015883321305
 31
0.0
  0
LINE
  5
27467
  8
0
 10
4881.4573321601283169
 20
23.0603015883321305
 30
0.0
 11
4881.4573321601283169
 21
23.0763015335321207
 31
0.0
  0
LINE
  5
27468
  8
0
 10
4881.5073321601266798
 20
23.0603015883321305
 30
0.0
 11
4881.5073321601266798
 21
23.0763015335321207
 31
0.0
  0
LINE
  5
27469
  8
0
 10
4881.5163321601276039
 20
23.0763015335321207
 30
0.0
 11
4881.5163321601276039
 21
23.0603015883321305
 31
0.0
  0
LINE
  5
2746A
  8
0
 10
4881.532332160128135
 20
23.0763015335321207
 30
0.0
 11
4881.532332160128135
 21
23.0603015883321305
 31
0.0
  0
LINE
  5
2746B
  8
0
 10
4881.541332160129059
 20
23.0603015883321305
 30
0.0
 11
4881.541332160129059
 21
23.0763015335321207
 31
0.0
  0
LINE
  5
2746C
  8
0
 10
4881.5573321601268617
 20
23.0763015335321207
 30
0.0
 11
4881.5573321601268617
 21
23.0603015883321305
 31
0.0
  0
LINE
  5
2746D
  8
0
 10
4881.5663321601277858
 20
23.0603015883321305
 30
0.0
 11
4881.5663321601277858
 21
23.0763015335321207
 31
0.0
  0
LINE
  5
2746E
  8
0
 10
4881.5823321601283169
 20
23.0763015335321207
 30
0.0
 11
4881.5823321601283169
 21
23.0603015883321305
 31
0.0
  0
LINE
  5
2746F
  8
0
 10
4881.5913321601283315
 20
23.0603015883321305
 30
0.0
 11
4881.5913321601283315
 21
23.0763015335321207
 31
0.0
  0
LINE
  5
27470
  8
0
 10
4881.6073321601279531
 20
23.0763015335321207
 30
0.0
 11
4881.6073321601279531
 21
23.0603015883321305
 31
0.0
  0
LINE
  5
27471
  8
0
 10
4881.6163321601279677
 20
23.0603015883321305
 30
0.0
 11
4881.6163321601279677
 21
23.0763015335321207
 31
0.0
  0
LINE
  5
27472
  8
0
 10
4881.6323321601266798
 20
23.0763015335321207
 30
0.0
 11
4881.6323321601266798
 21
23.0603015883321305
 31
0.0
  0
LINE
  5
27473
  8
0
 10
4881.6663321601281496
 20
23.0603015883321305
 30
0.0
 11
4881.6663321601281496
 21
23.0763015335321207
 31
0.0
  0
LINE
  5
27474
  8
0
 10
4881.657332160128135
 20
23.0763015335321207
 30
0.0
 11
4881.657332160128135
 21
23.0603015883321305
 31
0.0
  0
LINE
  5
27475
  8
0
 10
4881.6413321601266944
 20
23.0603015883321305
 30
0.0
 11
4881.6413321601266944
 21
23.0763015335321207
 31
0.0
  0
LINE
  5
27476
  8
0
 10
4881.6823321601277712
 20
23.0763015335321207
 30
0.0
 11
4881.6823321601277712
 21
23.0603015883321305
 31
0.0
  0
LINE
  5
27477
  8
0
 10
4881.6913321601268763
 20
23.0603015883321305
 30
0.0
 11
4881.6913321601268763
 21
23.0763015335321207
 31
0.0
  0
LINE
  5
27478
  8
0
 10
4881.7073321601292264
 20
23.0763015335321207
 30
0.0
 11
4881.7073321601292264
 21
23.0603015883321305
 31
0.0
  0
LINE
  5
27479
  8
0
 10
4881.7163321601283315
 20
23.0603015883321305
 30
0.0
 11
4881.7163321601283315
 21
23.0763015335321207
 31
0.0
  0
LINE
  5
2747A
  8
0
 10
4881.4663321601292409
 20
23.0263017049321199
 30
0.0
 11
4881.4663321601292409
 21
23.0103017597321191
 31
0.0
  0
LINE
  5
2747B
  8
0
 10
4881.4823321601279531
 20
23.0103017597321191
 30
0.0
 11
4881.4823321601279531
 21
23.0263017049321199
 31
0.0
  0
LINE
  5
2747C
  8
0
 10
4881.4913321601279677
 20
23.0263017049321199
 30
0.0
 11
4881.4913321601279677
 21
23.0103017597321191
 31
0.0
  0
LINE
  5
2747D
  8
0
 10
4881.4573321601283169
 20
23.0103017597321191
 30
0.0
 11
4881.4573321601283169
 21
23.0263017049321199
 31
0.0
  0
LINE
  5
2747E
  8
0
 10
4881.5073321601266798
 20
23.0103017597321191
 30
0.0
 11
4881.5073321601266798
 21
23.0263017049321199
 31
0.0
  0
LINE
  5
2747F
  8
0
 10
4881.5163321601276039
 20
23.0263017049321199
 30
0.0
 11
4881.5163321601276039
 21
23.0103017597321191
 31
0.0
  0
LINE
  5
27480
  8
0
 10
4881.532332160128135
 20
23.0263017049321199
 30
0.0
 11
4881.532332160128135
 21
23.0103017597321191
 31
0.0
  0
LINE
  5
27481
  8
0
 10
4881.541332160129059
 20
23.0103017597321191
 30
0.0
 11
4881.541332160129059
 21
23.0263017049321199
 31
0.0
  0
LINE
  5
27482
  8
0
 10
4881.5573321601268617
 20
23.0263017049321199
 30
0.0
 11
4881.5573321601268617
 21
23.0103017597321191
 31
0.0
  0
LINE
  5
27483
  8
0
 10
4881.5663321601277858
 20
23.0103017597321191
 30
0.0
 11
4881.5663321601277858
 21
23.0263017049321199
 31
0.0
  0
LINE
  5
27484
  8
0
 10
4881.5823321601283169
 20
23.0263017049321199
 30
0.0
 11
4881.5823321601283169
 21
23.0103017597321191
 31
0.0
  0
LINE
  5
27485
  8
0
 10
4881.5913321601283315
 20
23.0103017597321191
 30
0.0
 11
4881.5913321601283315
 21
23.0263017049321199
 31
0.0
  0
LINE
  5
27486
  8
0
 10
4881.6073321601279531
 20
23.0263017049321199
 30
0.0
 11
4881.6073321601279531
 21
23.0103017597321191
 31
0.0
  0
LINE
  5
27487
  8
0
 10
4881.6163321601279677
 20
23.0103017597321191
 30
0.0
 11
4881.6163321601279677
 21
23.0263017049321199
 31
0.0
  0
LINE
  5
27488
  8
0
 10
4881.6323321601266798
 20
23.0263017049321199
 30
0.0
 11
4881.6323321601266798
 21
23.0103017597321191
 31
0.0
  0
LINE
  5
27489
  8
0
 10
4881.6663321601281496
 20
23.0103017597321191
 30
0.0
 11
4881.6663321601281496
 21
23.0263017049321199
 31
0.0
  0
LINE
  5
2748A
  8
0
 10
4881.657332160128135
 20
23.0263017049321199
 30
0.0
 11
4881.657332160128135
 21
23.0103017597321191
 31
0.0
  0
LINE
  5
2748B
  8
0
 10
4881.6413321601266944
 20
23.0103017597321191
 30
0.0
 11
4881.6413321601266944
 21
23.0263017049321199
 31
0.0
  0
LINE
  5
2748C
  8
0
 10
4881.6823321601277712
 20
23.0263017049321199
 30
0.0
 11
4881.6823321601277712
 21
23.0103017597321191
 31
0.0
  0
LINE
  5
2748D
  8
0
 10
4881.6913321601268763
 20
23.0103017597321191
 30
0.0
 11
4881.6913321601268763
 21
23.0263017049321199
 31
0.0
  0
LINE
  5
2748E
  8
0
 10
4881.7073321601292264
 20
23.0263017049321199
 30
0.0
 11
4881.7073321601292264
 21
23.0103017597321191
 31
0.0
  0
LINE
  5
2748F
  8
0
 10
4881.7163321601283315
 20
23.0103017597321191
 30
0.0
 11
4881.7163321601283315
 21
23.0263017049321199
 31
0.0
  0
LINE
  5
27490
  8
0
 10
4881.4663321601292409
 20
22.9763018762321209
 30
0.0
 11
4881.4663321601292409
 21
22.9603019310321308
 31
0.0
  0
LINE
  5
27491
  8
0
 10
4881.4823321601279531
 20
22.9603019310321308
 30
0.0
 11
4881.4823321601279531
 21
22.9763018762321209
 31
0.0
  0
LINE
  5
27492
  8
0
 10
4881.4913321601279677
 20
22.9763018762321209
 30
0.0
 11
4881.4913321601279677
 21
22.9603019310321308
 31
0.0
  0
LINE
  5
27493
  8
0
 10
4881.4573321601283169
 20
22.9603019310321308
 30
0.0
 11
4881.4573321601283169
 21
22.9763018762321209
 31
0.0
  0
LINE
  5
27494
  8
0
 10
4881.5073321601266798
 20
22.9603019310321308
 30
0.0
 11
4881.5073321601266798
 21
22.9763018762321209
 31
0.0
  0
LINE
  5
27495
  8
0
 10
4881.5163321601276039
 20
22.9763018762321209
 30
0.0
 11
4881.5163321601276039
 21
22.9603019310321308
 31
0.0
  0
LINE
  5
27496
  8
0
 10
4881.532332160128135
 20
22.9763018762321209
 30
0.0
 11
4881.532332160128135
 21
22.9603019310321308
 31
0.0
  0
LINE
  5
27497
  8
0
 10
4881.541332160129059
 20
22.9603019310321308
 30
0.0
 11
4881.541332160129059
 21
22.9763018762321209
 31
0.0
  0
LINE
  5
27498
  8
0
 10
4881.5573321601268617
 20
22.9763018762321209
 30
0.0
 11
4881.5573321601268617
 21
22.9603019310321308
 31
0.0
  0
LINE
  5
27499
  8
0
 10
4881.5663321601277858
 20
22.9603019310321308
 30
0.0
 11
4881.5663321601277858
 21
22.9763018762321209
 31
0.0
  0
LINE
  5
2749A
  8
0
 10
4881.5823321601283169
 20
22.9763018762321209
 30
0.0
 11
4881.5823321601283169
 21
22.9603019310321308
 31
0.0
  0
LINE
  5
2749B
  8
0
 10
4881.5913321601283315
 20
22.9603019310321308
 30
0.0
 11
4881.5913321601283315
 21
22.9763018762321209
 31
0.0
  0
LINE
  5
2749C
  8
0
 10
4881.6073321601279531
 20
22.9763018762321209
 30
0.0
 11
4881.6073321601279531
 21
22.9603019310321308
 31
0.0
  0
LINE
  5
2749D
  8
0
 10
4881.6163321601279677
 20
22.9603019310321308
 30
0.0
 11
4881.6163321601279677
 21
22.9763018762321209
 31
0.0
  0
LINE
  5
2749E
  8
0
 10
4881.6323321601266798
 20
22.9763018762321209
 30
0.0
 11
4881.6323321601266798
 21
22.9603019310321308
 31
0.0
  0
LINE
  5
2749F
  8
0
 10
4881.6663321601281496
 20
22.9603019310321308
 30
0.0
 11
4881.6663321601281496
 21
22.9763018762321209
 31
0.0
  0
LINE
  5
274A0
  8
0
 10
4881.657332160128135
 20
22.9763018762321209
 30
0.0
 11
4881.657332160128135
 21
22.9603019310321308
 31
0.0
  0
LINE
  5
274A1
  8
0
 10
4881.6413321601266944
 20
22.9603019310321308
 30
0.0
 11
4881.6413321601266944
 21
22.9763018762321209
 31
0.0
  0
LINE
  5
274A2
  8
0
 10
4881.6823321601277712
 20
22.9763018762321209
 30
0.0
 11
4881.6823321601277712
 21
22.9603019310321308
 31
0.0
  0
LINE
  5
274A3
  8
0
 10
4881.6913321601268763
 20
22.9603019310321308
 30
0.0
 11
4881.6913321601268763
 21
22.9763018762321209
 31
0.0
  0
LINE
  5
274A4
  8
0
 10
4881.7073321601292264
 20
22.9763018762321209
 30
0.0
 11
4881.7073321601292264
 21
22.9603019310321308
 31
0.0
  0
LINE
  5
274A5
  8
0
 10
4881.7163321601283315
 20
22.9603019310321308
 30
0.0
 11
4881.7163321601283315
 21
22.9763018762321209
 31
0.0
  0
LINE
  5
274A6
  8
0
 10
4881.4413321601277858
 20
22.9263020476321095
 30
0.0
 11
4881.4413321601277858
 21
22.9103021024321194
 31
0.0
  0
LINE
  5
274A7
  8
0
 10
4881.4573321601283169
 20
22.9103021024321194
 30
0.0
 11
4881.4573321601283169
 21
22.9263020476321095
 31
0.0
  0
LINE
  5
274A8
  8
0
 10
4881.4663321601292409
 20
22.9263020476321095
 30
0.0
 11
4881.4663321601292409
 21
22.9103021024321194
 31
0.0
  0
LINE
  5
274A9
  8
0
 10
4881.4323321601277712
 20
22.9103021024321194
 30
0.0
 11
4881.4323321601277712
 21
22.9263020476321095
 31
0.0
  0
LINE
  5
274AA
  8
0
 10
4881.4823321601279531
 20
22.9103021024321194
 30
0.0
 11
4881.4823321601279531
 21
22.9263020476321095
 31
0.0
  0
LINE
  5
274AB
  8
0
 10
4881.4913321601279677
 20
22.9263020476321095
 30
0.0
 11
4881.4913321601279677
 21
22.9103021024321194
 31
0.0
  0
LINE
  5
274AC
  8
0
 10
4881.5073321601266798
 20
22.9263020476321095
 30
0.0
 11
4881.5073321601266798
 21
22.9103021024321194
 31
0.0
  0
LINE
  5
274AD
  8
0
 10
4881.5163321601276039
 20
22.9103021024321194
 30
0.0
 11
4881.5163321601276039
 21
22.9263020476321095
 31
0.0
  0
LINE
  5
274AE
  8
0
 10
4881.532332160128135
 20
22.9263020476321095
 30
0.0
 11
4881.532332160128135
 21
22.9103021024321194
 31
0.0
  0
LINE
  5
274AF
  8
0
 10
4881.541332160129059
 20
22.9103021024321194
 30
0.0
 11
4881.541332160129059
 21
22.9263020476321095
 31
0.0
  0
LINE
  5
274B0
  8
0
 10
4881.5573321601268617
 20
22.9263020476321095
 30
0.0
 11
4881.5573321601268617
 21
22.9103021024321194
 31
0.0
  0
LINE
  5
274B1
  8
0
 10
4881.5663321601277858
 20
22.9103021024321194
 30
0.0
 11
4881.5663321601277858
 21
22.9263020476321095
 31
0.0
  0
LINE
  5
274B2
  8
0
 10
4881.5823321601283169
 20
22.9263020476321095
 30
0.0
 11
4881.5823321601283169
 21
22.9103021024321194
 31
0.0
  0
LINE
  5
274B3
  8
0
 10
4881.5913321601283315
 20
22.9103021024321194
 30
0.0
 11
4881.5913321601283315
 21
22.9263020476321095
 31
0.0
  0
LINE
  5
274B4
  8
0
 10
4881.6073321601279531
 20
22.9263020476321095
 30
0.0
 11
4881.6073321601279531
 21
22.9103021024321194
 31
0.0
  0
LINE
  5
274B5
  8
0
 10
4881.6413321601266944
 20
22.9103021024321194
 30
0.0
 11
4881.6413321601266944
 21
22.9263020476321095
 31
0.0
  0
LINE
  5
274B6
  8
0
 10
4881.6323321601266798
 20
22.9263020476321095
 30
0.0
 11
4881.6323321601266798
 21
22.9103021024321194
 31
0.0
  0
LINE
  5
274B7
  8
0
 10
4881.6163321601279677
 20
22.9103021024321194
 30
0.0
 11
4881.6163321601279677
 21
22.9263020476321095
 31
0.0
  0
LINE
  5
274B8
  8
0
 10
4881.657332160128135
 20
22.9263020476321095
 30
0.0
 11
4881.657332160128135
 21
22.9103021024321194
 31
0.0
  0
LINE
  5
274B9
  8
0
 10
4881.6663321601281496
 20
22.9103021024321194
 30
0.0
 11
4881.6663321601281496
 21
22.9263020476321095
 31
0.0
  0
LINE
  5
274BA
  8
0
 10
4881.6823321601277712
 20
22.9263020476321095
 30
0.0
 11
4881.6823321601277712
 21
22.9103021024321194
 31
0.0
  0
LINE
  5
274BB
  8
0
 10
4881.6913321601268763
 20
22.9103021024321194
 30
0.0
 11
4881.6913321601268763
 21
22.9263020476321095
 31
0.0
  0
LINE
  5
274BC
  8
0
 10
4881.4663321601292409
 20
22.8763022189321212
 30
0.0
 11
4881.4663321601292409
 21
22.8603022737321204
 31
0.0
  0
LINE
  5
274BD
  8
0
 10
4881.4823321601279531
 20
22.8603022737321204
 30
0.0
 11
4881.4823321601279531
 21
22.8763022189321212
 31
0.0
  0
LINE
  5
274BE
  8
0
 10
4881.4913321601279677
 20
22.8763022189321212
 30
0.0
 11
4881.4913321601279677
 21
22.8603022737321204
 31
0.0
  0
LINE
  5
274BF
  8
0
 10
4881.4573321601283169
 20
22.8603022737321204
 30
0.0
 11
4881.4573321601283169
 21
22.8763022189321212
 31
0.0
  0
LINE
  5
274C0
  8
0
 10
4881.5073321601266798
 20
22.8603022737321204
 30
0.0
 11
4881.5073321601266798
 21
22.8763022189321212
 31
0.0
  0
LINE
  5
274C1
  8
0
 10
4881.5163321601276039
 20
22.8763022189321212
 30
0.0
 11
4881.5163321601276039
 21
22.8603022737321204
 31
0.0
  0
LINE
  5
274C2
  8
0
 10
4881.532332160128135
 20
22.8763022189321212
 30
0.0
 11
4881.532332160128135
 21
22.8603022737321204
 31
0.0
  0
LINE
  5
274C3
  8
0
 10
4881.541332160129059
 20
22.8603022737321204
 30
0.0
 11
4881.541332160129059
 21
22.8763022189321212
 31
0.0
  0
LINE
  5
274C4
  8
0
 10
4881.5573321601268617
 20
22.8763022189321212
 30
0.0
 11
4881.5573321601268617
 21
22.8603022737321204
 31
0.0
  0
LINE
  5
274C5
  8
0
 10
4881.5663321601277858
 20
22.8603022737321204
 30
0.0
 11
4881.5663321601277858
 21
22.8763022189321212
 31
0.0
  0
LINE
  5
274C6
  8
0
 10
4881.5823321601283169
 20
22.8763022189321212
 30
0.0
 11
4881.5823321601283169
 21
22.8603022737321204
 31
0.0
  0
LINE
  5
274C7
  8
0
 10
4881.5913321601283315
 20
22.8603022737321204
 30
0.0
 11
4881.5913321601283315
 21
22.8763022189321212
 31
0.0
  0
LINE
  5
274C8
  8
0
 10
4881.6073321601279531
 20
22.8763022189321212
 30
0.0
 11
4881.6073321601279531
 21
22.8603022737321204
 31
0.0
  0
LINE
  5
274C9
  8
0
 10
4881.6163321601279677
 20
22.8603022737321204
 30
0.0
 11
4881.6163321601279677
 21
22.8763022189321212
 31
0.0
  0
LINE
  5
274CA
  8
0
 10
4881.6323321601266798
 20
22.8763022189321212
 30
0.0
 11
4881.6323321601266798
 21
22.8603022737321204
 31
0.0
  0
LINE
  5
274CB
  8
0
 10
4881.6663321601281496
 20
22.8603022737321204
 30
0.0
 11
4881.6663321601281496
 21
22.8763022189321212
 31
0.0
  0
LINE
  5
274CC
  8
0
 10
4881.657332160128135
 20
22.8763022189321212
 30
0.0
 11
4881.657332160128135
 21
22.8603022737321204
 31
0.0
  0
LINE
  5
274CD
  8
0
 10
4881.6413321601266944
 20
22.8603022737321204
 30
0.0
 11
4881.6413321601266944
 21
22.8763022189321212
 31
0.0
  0
LINE
  5
274CE
  8
0
 10
4881.6823321601277712
 20
22.8763022189321212
 30
0.0
 11
4881.6823321601277712
 21
22.8603022737321204
 31
0.0
  0
LINE
  5
274CF
  8
0
 10
4881.6913321601268763
 20
22.8603022737321204
 30
0.0
 11
4881.6913321601268763
 21
22.8763022189321212
 31
0.0
  0
LINE
  5
274D0
  8
0
 10
4881.7073321601292264
 20
22.8763022189321212
 30
0.0
 11
4881.7073321601292264
 21
22.8603022737321204
 31
0.0
  0
LINE
  5
274D1
  8
0
 10
4881.7163321601283315
 20
22.8603022737321204
 30
0.0
 11
4881.7163321601283315
 21
22.8763022189321212
 31
0.0
  0
LINE
  5
274D2
  8
0
 10
4881.7413321601279677
 20
23.1103014170321295
 30
0.0
 11
4881.7413321601279677
 21
23.1263013622321196
 31
0.0
  0
LINE
  5
274D3
  8
0
 10
4881.7323321601279531
 20
23.1263013622321196
 30
0.0
 11
4881.7323321601279531
 21
23.1103014170321295
 31
0.0
  0
LINE
  5
274D4
  8
0
 10
4881.7573321601275893
 20
23.1263013622321196
 30
0.0
 11
4881.7573321601275893
 21
23.1103014170321295
 31
0.0
  0
LINE
  5
274D5
  8
0
 10
4881.7663321601276039
 20
23.1103014170321295
 30
0.0
 11
4881.7663321601276039
 21
23.1263013622321196
 31
0.0
  0
LINE
  5
274D6
  8
0
 10
4881.782332160128135
 20
23.1263013622321196
 30
0.0
 11
4881.782332160128135
 21
23.1103014170321295
 31
0.0
  0
LINE
  5
274D7
  8
0
 10
4881.7913321601281496
 20
23.1103014170321295
 30
0.0
 11
4881.7913321601281496
 21
23.1263013622321196
 31
0.0
  0
LINE
  5
274D8
  8
0
 10
4881.7413321601279677
 20
23.0603015883321305
 30
0.0
 11
4881.7413321601279677
 21
23.0763015335321207
 31
0.0
  0
LINE
  5
274D9
  8
0
 10
4881.7323321601279531
 20
23.0763015335321207
 30
0.0
 11
4881.7323321601279531
 21
23.0603015883321305
 31
0.0
  0
LINE
  5
274DA
  8
0
 10
4881.7573321601275893
 20
23.0763015335321207
 30
0.0
 11
4881.7573321601275893
 21
23.0603015883321305
 31
0.0
  0
LINE
  5
274DB
  8
0
 10
4881.7663321601276039
 20
23.0603015883321305
 30
0.0
 11
4881.7663321601276039
 21
23.0763015335321207
 31
0.0
  0
LINE
  5
274DC
  8
0
 10
4881.782332160128135
 20
23.0763015335321207
 30
0.0
 11
4881.782332160128135
 21
23.0603015883321305
 31
0.0
  0
LINE
  5
274DD
  8
0
 10
4881.7913321601281496
 20
23.0603015883321305
 30
0.0
 11
4881.7913321601281496
 21
23.0763015335321207
 31
0.0
  0
LINE
  5
274DE
  8
0
 10
4881.7413321601279677
 20
23.0103017597321191
 30
0.0
 11
4881.7413321601279677
 21
23.0263017049321199
 31
0.0
  0
LINE
  5
274DF
  8
0
 10
4881.7323321601279531
 20
23.0263017049321199
 30
0.0
 11
4881.7323321601279531
 21
23.0103017597321191
 31
0.0
  0
LINE
  5
274E0
  8
0
 10
4881.7573321601275893
 20
23.0263017049321199
 30
0.0
 11
4881.7573321601275893
 21
23.0103017597321191
 31
0.0
  0
LINE
  5
274E1
  8
0
 10
4881.7663321601276039
 20
23.0103017597321191
 30
0.0
 11
4881.7663321601276039
 21
23.0263017049321199
 31
0.0
  0
LINE
  5
274E2
  8
0
 10
4881.782332160128135
 20
23.0263017049321199
 30
0.0
 11
4881.782332160128135
 21
23.0103017597321191
 31
0.0
  0
LINE
  5
274E3
  8
0
 10
4881.7913321601281496
 20
23.0103017597321191
 30
0.0
 11
4881.7913321601281496
 21
23.0263017049321199
 31
0.0
  0
LINE
  5
274E4
  8
0
 10
4881.7413321601279677
 20
22.9603019310321308
 30
0.0
 11
4881.7413321601279677
 21
22.9763018762321209
 31
0.0
  0
LINE
  5
274E5
  8
0
 10
4881.7323321601279531
 20
22.9763018762321209
 30
0.0
 11
4881.7323321601279531
 21
22.9603019310321308
 31
0.0
  0
LINE
  5
274E6
  8
0
 10
4881.7573321601275893
 20
22.9763018762321209
 30
0.0
 11
4881.7573321601275893
 21
22.9603019310321308
 31
0.0
  0
LINE
  5
274E7
  8
0
 10
4881.7663321601276039
 20
22.9603019310321308
 30
0.0
 11
4881.7663321601276039
 21
22.9763018762321209
 31
0.0
  0
LINE
  5
274E8
  8
0
 10
4881.782332160128135
 20
22.9763018762321209
 30
0.0
 11
4881.782332160128135
 21
22.9603019310321308
 31
0.0
  0
LINE
  5
274E9
  8
0
 10
4881.7913321601281496
 20
22.9603019310321308
 30
0.0
 11
4881.7913321601281496
 21
22.9763018762321209
 31
0.0
  0
LINE
  5
274EA
  8
0
 10
4881.7163321601283315
 20
22.9103021024321194
 30
0.0
 11
4881.7163321601283315
 21
22.9263020476321095
 31
0.0
  0
LINE
  5
274EB
  8
0
 10
4881.7073321601292264
 20
22.9263020476321095
 30
0.0
 11
4881.7073321601292264
 21
22.9103021024321194
 31
0.0
  0
LINE
  5
274EC
  8
0
 10
4881.7323321601279531
 20
22.9263020476321095
 30
0.0
 11
4881.7323321601279531
 21
22.9103021024321194
 31
0.0
  0
LINE
  5
274ED
  8
0
 10
4881.7413321601279677
 20
22.9103021024321194
 30
0.0
 11
4881.7413321601279677
 21
22.9263020476321095
 31
0.0
  0
LINE
  5
274EE
  8
0
 10
4881.7573321601275893
 20
22.9263020476321095
 30
0.0
 11
4881.7573321601275893
 21
22.9103021024321194
 31
0.0
  0
LINE
  5
274EF
  8
0
 10
4881.7663321601276039
 20
22.9103021024321194
 30
0.0
 11
4881.7663321601276039
 21
22.9263020476321095
 31
0.0
  0
LINE
  5
274F0
  8
0
 10
4881.7913321601281496
 20
22.9103021024321194
 30
0.0
 11
4881.7913321601281496
 21
22.9263020476321095
 31
0.0
  0
LINE
  5
274F1
  8
0
 10
4881.782332160128135
 20
22.9263020476321095
 30
0.0
 11
4881.782332160128135
 21
22.9103021024321194
 31
0.0
  0
LINE
  5
274F2
  8
0
 10
4881.7413321601279677
 20
22.8603022737321204
 30
0.0
 11
4881.7413321601279677
 21
22.8763022189321212
 31
0.0
  0
LINE
  5
274F3
  8
0
 10
4881.7323321601279531
 20
22.8763022189321212
 30
0.0
 11
4881.7323321601279531
 21
22.8603022737321204
 31
0.0
  0
LINE
  5
274F4
  8
0
 10
4881.7573321601275893
 20
22.8763022189321212
 30
0.0
 11
4881.7573321601275893
 21
22.8603022737321204
 31
0.0
  0
LINE
  5
274F5
  8
0
 10
4881.7663321601276039
 20
22.8603022737321204
 30
0.0
 11
4881.7663321601276039
 21
22.8763022189321212
 31
0.0
  0
LINE
  5
274F6
  8
0
 10
4881.782332160128135
 20
22.8763022189321212
 30
0.0
 11
4881.782332160128135
 21
22.8667933748889816
 31
0.0
  0
LINE
  5
274F7
  8
0
 10
4881.4323321601250427
 20
23.1103014170348402
 30
0.0
 11
4881.4323321601277712
 21
23.1263013621321285
 31
0.0
  0
LINE
  5
274F8
  8
0
 10
4881.4323321601277712
 20
23.1263013621321285
 30
0.0
 11
4881.4277847887888129
 21
23.1263013621321285
 31
0.0
  0
LINE
  5
274F9
  8
0
 10
4881.4323321601250427
 20
23.1103014170348402
 30
0.0
 11
4881.4182516595492416
 21
23.1103014170348402
 31
0.0
  0
LINE
  5
274FA
  8
0
 10
4881.4333095471793058
 20
23.1343446163591402
 30
0.0
 11
4881.4413321601277858
 21
23.1263013621321285
 31
0.0
  0
LINE
  5
274FB
  8
0
 10
4881.4413321601277858
 20
23.1263013621321285
 30
0.0
 11
4881.4413321601277858
 21
23.1103014170321295
 31
0.0
  0
LINE
  5
274FC
  8
0
 10
4881.4413321601277858
 20
23.1103014170321295
 30
0.0
 11
4881.4323321601277712
 21
23.101301447832121
 31
0.0
  0
LINE
  5
274FD
  8
0
 10
4881.4323321601277712
 20
23.101301447832121
 30
0.0
 11
4881.4163321601281496
 21
23.101301447832121
 31
0.0
  0
LINE
  5
274FE
  8
0
 10
4881.4163321601281496
 20
23.101301447832121
 30
0.0
 11
4881.4145316699041359
 21
23.1030956696931717
 31
0.0
  0
LINE
  5
274FF
  8
0
 10
4881.4163321601281496
 20
23.101301447832121
 30
0.0
 11
4881.4163321601281496
 21
23.0853015027321185
 31
0.0
  0
LINE
  5
27500
  8
0
 10
4881.4163321601281496
 20
23.0853015027321185
 30
0.0
 11
4881.4323321601277712
 21
23.0853015027321185
 31
0.0
  0
LINE
  5
27501
  8
0
 10
4881.4323321601277712
 20
23.0853015027321185
 30
0.0
 11
4881.4323321601277712
 21
23.101301447832121
 31
0.0
  0
LINE
  5
27502
  8
0
 10
4881.4323321601277712
 20
23.0853015027321185
 30
0.0
 11
4881.4413321601277858
 21
23.0763015335321207
 31
0.0
  0
LINE
  5
27503
  8
0
 10
4881.4413321601277858
 20
23.0763015335321207
 30
0.0
 11
4881.4413321601277858
 21
23.0603015884321216
 31
0.0
  0
LINE
  5
27504
  8
0
 10
4881.4413321601277858
 20
23.0603015884321216
 30
0.0
 11
4881.4323321601277712
 21
23.0513016192321203
 31
0.0
  0
LINE
  5
27505
  8
0
 10
4881.4323321601277712
 20
23.0513016192321203
 30
0.0
 11
4881.4163321601281496
 21
23.0513016192321203
 31
0.0
  0
LINE
  5
27506
  8
0
 10
4881.4163321601281496
 20
23.0513016192321203
 30
0.0
 11
4881.4073321601290445
 21
23.0603015884321216
 31
0.0
  0
LINE
  5
27507
  8
0
 10
4881.4073321601290445
 20
23.0603015884321216
 30
0.0
 11
4881.4073321601290445
 21
23.0763015335321207
 31
0.0
  0
LINE
  5
27508
  8
0
 10
4881.4073321601290445
 20
23.0763015335321207
 30
0.0
 11
4881.4163321601281496
 21
23.0853015027321185
 31
0.0
  0
LINE
  5
27509
  8
0
 10
4881.4069001604530058
 20
23.0857796525083216
 30
0.0
 11
4881.4163321601281496
 21
23.0763015335321207
 31
0.0
  0
LINE
  5
2750A
  8
0
 10
4881.4163321601281496
 20
23.0763015335321207
 30
0.0
 11
4881.4323321601250427
 21
23.0763015335294099
 31
0.0
  0
LINE
  5
2750B
  8
0
 10
4881.4323321601250427
 20
23.0763015335294099
 30
0.0
 11
4881.4323321600268173
 21
23.0603015884321216
 31
0.0
  0
LINE
  5
2750C
  8
0
 10
4881.4323321600268173
 20
23.0603015884321216
 30
0.0
 11
4881.4163321601281496
 21
23.0603015884321216
 31
0.0
  0
LINE
  5
2750D
  8
0
 10
4881.4163321601281496
 20
23.0603015884321216
 30
0.0
 11
4881.4163321601281496
 21
23.0763015335321207
 31
0.0
  0
LINE
  5
2750E
  8
0
 10
4881.4073321601290445
 20
23.0763015335321207
 30
0.0
 11
4881.4034494127026846
 21
23.0763015335321207
 31
0.0
  0
LINE
  5
2750F
  8
0
 10
4881.4073321601290445
 20
23.0603015884321216
 30
0.0
 11
4881.3987046027641554
 21
23.0603015884321216
 31
0.0
  0
LINE
  5
27510
  8
0
 10
4881.4163321601281496
 20
23.0603015884321216
 30
0.0
 11
4881.4073321601290445
 21
23.0513016192321203
 31
0.0
  0
LINE
  5
27511
  8
0
 10
4881.4073321601290445
 20
23.0513016192321203
 30
0.0
 11
4881.3966035617877424
 21
23.0513016192321203
 31
0.0
  0
LINE
  5
27512
  8
0
 10
4881.4163321601281496
 20
23.0513016192321203
 30
0.0
 11
4881.4163321601281496
 21
23.0353016740321195
 31
0.0
  0
LINE
  5
27513
  8
0
 10
4881.4163321601281496
 20
23.0353016740321195
 30
0.0
 11
4881.4073321601290445
 21
23.0263017049321306
 31
0.0
  0
LINE
  5
27514
  8
0
 10
4881.4073321601290445
 20
23.0263017049321306
 30
0.0
 11
4881.3928039924603581
 21
23.0263017049321306
 31
0.0
  0
LINE
  5
27515
  8
0
 10
4881.4073321601290445
 20
23.0263017049321306
 30
0.0
 11
4881.4073321601290445
 21
23.0103017597321191
 31
0.0
  0
LINE
  5
27516
  8
0
 10
4881.4073321601290445
 20
23.0103017597321191
 30
0.0
 11
4881.3918927696340688
 21
23.0103017597321191
 31
0.0
  0
LINE
  5
27517
  8
0
 10
4881.4073321601290445
 20
23.0513016192321203
 30
0.0
 11
4881.4073321601290445
 21
23.0353016740321195
 31
0.0
  0
LINE
  5
27518
  8
0
 10
4881.4073321601290445
 20
23.0353016740321195
 30
0.0
 11
4881.3938336708670249
 21
23.0353016740321088
 31
0.0
  0
LINE
  5
27519
  8
0
 10
4881.4073321601290445
 20
23.0353016740321195
 30
0.0
 11
4881.4163321601281496
 21
23.0263017049321306
 31
0.0
  0
LINE
  5
2751A
  8
0
 10
4881.4163321601281496
 20
23.0263017049321306
 30
0.0
 11
4881.4323321983247297
 21
23.0263017430297694
 31
0.0
  0
LINE
  5
2751B
  8
0
 10
4881.4323321983247297
 20
23.0263017430297694
 30
0.0
 11
4881.4323321601277712
 21
23.0103017597321191
 31
0.0
  0
LINE
  5
2751C
  8
0
 10
4881.4323321601277712
 20
23.0103017597321191
 30
0.0
 11
4881.4163321601281496
 21
23.0103017597321191
 31
0.0
  0
LINE
  5
2751D
  8
0
 10
4881.4163321601281496
 20
23.0103017597321191
 30
0.0
 11
4881.4163321601281496
 21
23.0263017049321306
 31
0.0
  0
LINE
  5
2751E
  8
0
 10
4881.4163321601281496
 20
23.0353016740321195
 30
0.0
 11
4881.4323321601277712
 21
23.0353016740321195
 31
0.0
  0
LINE
  5
2751F
  8
0
 10
4881.4323321601277712
 20
23.0353016740321195
 30
0.0
 11
4881.4323321601277712
 21
23.0513016192321203
 31
0.0
  0
LINE
  5
27520
  8
0
 10
4881.4323321601277712
 20
23.0353016740321195
 30
0.0
 11
4881.4413321602278302
 21
23.0263017048321217
 31
0.0
  0
LINE
  5
27521
  8
0
 10
4881.4413321602278302
 20
23.0263017048321217
 30
0.0
 11
4881.4413321602278302
 21
23.0103017597321191
 31
0.0
  0
LINE
  5
27522
  8
0
 10
4881.4413321602278302
 20
23.0103017597321191
 30
0.0
 11
4881.4323321601277712
 21
23.0013017905321213
 31
0.0
  0
LINE
  5
27523
  8
0
 10
4881.4323321601277712
 20
23.0013017905321213
 30
0.0
 11
4881.4163321601281496
 21
23.0013017905321213
 31
0.0
  0
LINE
  5
27524
  8
0
 10
4881.4163321601281496
 20
23.0013017905321213
 30
0.0
 11
4881.4073321601290445
 21
23.0103017597321191
 31
0.0
  0
LINE
  5
27525
  8
0
 10
4881.4163321601281496
 20
23.0103017597321191
 30
0.0
 11
4881.4073321601290445
 21
23.0013017905321213
 31
0.0
  0
LINE
  5
27526
  8
0
 10
4881.4073321601290445
 20
23.0013017905321213
 30
0.0
 11
4881.3918927696358878
 21
23.0013017905321213
 31
0.0
  0
LINE
  5
27527
  8
0
 10
4881.4073321601290445
 20
23.0013017905321213
 30
0.0
 11
4881.4073321601290445
 21
22.9853018454321187
 31
0.0
  0
LINE
  5
27528
  8
0
 10
4881.4073321601290445
 20
22.9853018454321187
 30
0.0
 11
4881.3928039924603581
 21
22.9853018454321294
 31
0.0
  0
LINE
  5
27529
  8
0
 10
4881.4163321601281496
 20
23.0013017905321213
 30
0.0
 11
4881.4163321601281496
 21
22.9853018454321187
 31
0.0
  0
LINE
  5
2752A
  8
0
 10
4881.4163321601281496
 20
22.9853018454321187
 30
0.0
 11
4881.4323321601277712
 21
22.9853018454321187
 31
0.0
  0
LINE
  5
2752B
  8
0
 10
4881.4323321601277712
 20
22.9853018454321187
 30
0.0
 11
4881.4323321601277712
 21
23.0013017905321213
 31
0.0
  0
LINE
  5
2752C
  8
0
 10
4881.4323321601277712
 20
22.9853018454321187
 30
0.0
 11
4881.4413321601277858
 21
22.9763018762321209
 31
0.0
  0
LINE
  5
2752D
  8
0
 10
4881.4323321601277712
 20
22.9763018762321209
 30
0.0
 11
4881.4163321601281496
 21
22.9763018762321209
 31
0.0
  0
LINE
  5
2752E
  8
0
 10
4881.4163321601281496
 20
22.9763018762321209
 30
0.0
 11
4881.4073321601290445
 21
22.9853018454321187
 31
0.0
  0
LINE
  5
2752F
  8
0
 10
4881.4163321601281496
 20
22.9853018454321187
 30
0.0
 11
4881.4073321601290445
 21
22.9763018762321209
 31
0.0
  0
LINE
  5
27530
  8
0
 10
4881.4073321601290445
 20
22.9763018762321209
 30
0.0
 11
4881.3938336708797578
 21
22.9763018762321316
 31
0.0
  0
LINE
  5
27531
  8
0
 10
4881.4073321601290445
 20
22.9763018762321209
 30
0.0
 11
4881.4073321601290445
 21
22.9603019310321201
 31
0.0
  0
LINE
  5
27532
  8
0
 10
4881.4073321601290445
 20
22.9603019310321201
 30
0.0
 11
4881.3966035618086607
 21
22.9603019310321201
 31
0.0
  0
LINE
  5
27533
  8
0
 10
4881.4163321601281496
 20
22.9763018762321209
 30
0.0
 11
4881.4163321601281496
 21
22.9603019310321201
 31
0.0
  0
LINE
  5
27534
  8
0
 10
4881.4163321601281496
 20
22.9603019310321201
 30
0.0
 11
4881.4323321601250427
 21
22.9603019310348415
 31
0.0
  0
LINE
  5
27535
  8
0
 10
4881.4323321601250427
 20
22.9603019310348415
 30
0.0
 11
4881.4323321601250427
 21
22.9763018762321209
 31
0.0
  0
LINE
  5
27536
  8
0
 10
4881.4073321601290445
 20
22.9603019310321201
 30
0.0
 11
4881.4163321601281496
 21
22.9513019619321206
 31
0.0
  0
LINE
  5
27537
  8
0
 10
4881.4163321601281496
 20
22.9513019619321206
 30
0.0
 11
4881.4323321601277712
 21
22.9513019619321206
 31
0.0
  0
LINE
  5
27538
  8
0
 10
4881.4323321601277712
 20
22.9513019619321206
 30
0.0
 11
4881.4413321601277858
 21
22.9603019310321308
 31
0.0
  0
LINE
  5
27539
  8
0
 10
4881.4413321601277858
 20
22.9603019310321308
 30
0.0
 11
4881.4413321601277858
 21
22.9763018762321209
 31
0.0
  0
LINE
  5
2753A
  8
0
 10
4881.4163321601281496
 20
22.9603019310321201
 30
0.0
 11
4881.4073321601290445
 21
22.9513019619321206
 31
0.0
  0
LINE
  5
2753B
  8
0
 10
4881.4073321601290445
 20
22.9513019619321206
 30
0.0
 11
4881.3987046027641554
 21
22.9513019619321206
 31
0.0
  0
LINE
  5
2753C
  8
0
 10
4881.4073321601290445
 20
22.9513019619321206
 30
0.0
 11
4881.4073321601290445
 21
22.9353020167321198
 31
0.0
  0
LINE
  5
2753D
  8
0
 10
4881.4073321601290445
 20
22.9353020167321198
 30
0.0
 11
4881.4034494127363359
 21
22.9353020167321091
 31
0.0
  0
LINE
  5
2753E
  8
0
 10
4881.4163321601281496
 20
22.9513019619321206
 30
0.0
 11
4881.4163321601281496
 21
22.9353020167321198
 31
0.0
  0
LINE
  5
2753F
  8
0
 10
4881.4163321601281496
 20
22.9353020167321198
 30
0.0
 11
4881.4323321601277712
 21
22.9353020167321198
 31
0.0
  0
LINE
  5
27540
  8
0
 10
4881.4323321601277712
 20
22.9353020167321198
 30
0.0
 11
4881.4323321601277712
 21
22.9513019619321206
 31
0.0
  0
LINE
  5
27541
  8
0
 10
4881.4413321601277858
 20
22.9263020476321202
 30
0.0
 11
4881.4323321601277712
 21
22.9353020167321198
 31
0.0
  0
LINE
  5
27542
  8
0
 10
4881.4323321601277712
 20
22.9263020475321184
 30
0.0
 11
4881.4163321601281496
 21
22.9263020475321184
 31
0.0
  0
LINE
  5
27543
  8
0
 10
4881.4163321601281496
 20
22.9263020475321184
 30
0.0
 11
4881.4073321601290445
 21
22.9353020167321198
 31
0.0
  0
LINE
  5
27544
  8
0
 10
4881.4163321601281496
 20
22.9353020167321198
 30
0.0
 11
4881.406887452762021
 21
22.9258564671583187
 31
0.0
  0
LINE
  5
27545
  8
0
 10
4881.4163321219330101
 20
22.926302085727059
 30
0.0
 11
4881.4163321601281496
 21
22.9103021024321194
 31
0.0
  0
LINE
  5
27546
  8
0
 10
4881.4163321601281496
 20
22.9103021024321194
 30
0.0
 11
4881.4145599037283318
 21
22.9085221562321202
 31
0.0
  0
LINE
  5
27547
  8
0
 10
4881.4163321601281496
 20
22.9103021024321194
 30
0.0
 11
4881.4323321601277712
 21
22.9103021024321194
 31
0.0
  0
LINE
  5
27548
  8
0
 10
4881.4413321601277858
 20
22.9103021024321194
 30
0.0
 11
4881.4323321601277712
 21
22.9013021332321216
 31
0.0
  0
LINE
  5
27549
  8
0
 10
4881.4323321601277712
 20
22.9013021332321216
 30
0.0
 11
4881.4182560865219784
 21
22.9012939329892689
 31
0.0
  0
LINE
  5
2754A
  8
0
 10
4881.4323321601277712
 20
22.9013021332321216
 30
0.0
 11
4881.4323321601277712
 21
22.885302188132119
 31
0.0
  0
LINE
  5
2754B
  8
0
 10
4881.4323321601277712
 20
22.885302188132119
 30
0.0
 11
4881.4413321601277858
 21
22.8763022189321212
 31
0.0
  0
LINE
  5
2754C
  8
0
 10
4881.4323321601277712
 20
22.885302188132119
 30
0.0
 11
4881.4277847888542965
 21
22.885302188132119
 31
0.0
  0
LINE
  5
2754D
  8
0
 10
4881.4413321601277858
 20
22.8763022189321212
 30
0.0
 11
4881.4413321601277858
 21
22.8667933748889816
 31
0.0
  0
LINE
  5
2754E
  8
0
 10
4881.4573321601255884
 20
22.8603022737348383
 30
0.0
 11
4881.4468367649478751
 21
22.8603022737348383
 31
0.0
  0
LINE
  5
2754F
  8
0
 10
4881.4663321601292409
 20
22.8603022737321204
 30
0.0
 11
4881.4562500359270416
 21
22.8502745808321208
 31
0.0
  0
LINE
  5
27550
  8
0
 10
4881.4913321219300997
 20
22.82630242842977
 30
0.0
 11
4881.4913321219300997
 21
22.8217546992846891
 31
0.0
  0
LINE
  5
27551
  8
0
 10
4881.5073321983263668
 20
22.8263024284304414
 30
0.0
 11
4881.5073321983263668
 21
22.8122214473191498
 31
0.0
  0
LINE
  5
27552
  8
0
 10
4881.541332160129059
 20
23.2103010743321185
 30
0.0
 11
4881.541332160129059
 21
23.2141844408529003
 31
0.0
  0
LINE
  5
27553
  8
0
 10
4881.5573321601268617
 20
23.2103010743328007
 30
0.0
 11
4881.5573321601268617
 21
23.2189292847907716
 31
0.0
  0
LINE
  5
27554
  8
0
 10
4881.5663321601277858
 20
23.2103010743321185
 30
0.0
 11
4881.5663321601277858
 21
23.2210303405540515
 31
0.0
  0
LINE
  5
27555
  8
0
 10
4881.5823321601274074
 20
23.2103010743328007
 30
0.0
 11
4881.5823321601274074
 21
23.2238002507548202
 31
0.0
  0
LINE
  5
27556
  8
0
 10
4881.591332160127422
 20
23.21030107433144
 30
0.0
 11
4881.591332160127422
 21
23.2248299362756896
 31
0.0
  0
LINE
  5
27557
  8
0
 10
4881.6073321601279531
 20
23.21030107433144
 30
0.0
 11
4881.6073321601279531
 21
23.2257411653605388
 31
0.0
  0
LINE
  5
27558
  8
0
 10
4881.6163321601279677
 20
23.21030107433144
 30
0.0
 11
4881.6163321601279677
 21
23.2257411653605388
 31
0.0
  0
LINE
  5
27559
  8
0
 10
4881.6323321601266798
 20
23.21030107433144
 30
0.0
 11
4881.6323321601266798
 21
23.22482993627575
 31
0.0
  0
LINE
  5
2755A
  8
0
 10
4881.6413321601266944
 20
23.21030107433144
 30
0.0
 11
4881.6413321601266944
 21
23.2238002507548984
 31
0.0
  0
LINE
  5
2755B
  8
0
 10
4881.6573321601272255
 20
23.2103010743328007
 30
0.0
 11
4881.6573321601272255
 21
23.2210303405542007
 31
0.0
  0
LINE
  5
2755C
  8
0
 10
4881.6663321601281496
 20
23.2103010743321185
 30
0.0
 11
4881.6663321601281496
 21
23.2189292847909492
 31
0.0
  0
LINE
  5
2755D
  8
0
 10
4881.6823321601277712
 20
23.2103010743321185
 30
0.0
 11
4881.6823321601277712
 21
23.2141844408529003
 31
0.0
  0
LINE
  5
2755E
  8
0
 10
4881.532332160128135
 20
22.8263023902321187
 30
0.0
 11
4881.532332160128135
 21
22.8103024450321215
 31
0.0
  0
LINE
  5
2755F
  8
0
 10
4881.532332160128135
 20
22.8103024450321215
 30
0.0
 11
4881.5163321601276039
 21
22.8103024450321215
 31
0.0
  0
LINE
  5
27560
  8
0
 10
4881.5163321601276039
 20
22.8103024450321215
 30
0.0
 11
4881.5163321601276039
 21
22.8263023902321187
 31
0.0
  0
LINE
  5
27561
  8
0
 10
4881.532332160128135
 20
22.8103024450321215
 30
0.0
 11
4881.541332160129059
 21
22.8013024758321201
 31
0.0
  0
LINE
  5
27562
  8
0
 10
4881.5163321601276039
 20
22.8103024450321215
 30
0.0
 11
4881.5145333955342721
 21
22.8085036865939408
 31
0.0
  0
LINE
  5
27563
  8
0
 10
4881.5573321601268617
 20
22.8263023902321187
 30
0.0
 11
4881.5573321601268617
 21
22.8103024450321215
 31
0.0
  0
LINE
  5
27564
  8
0
 10
4881.5573321601268617
 20
22.8103024450321215
 30
0.0
 11
4881.541332160129059
 21
22.8103024450321215
 31
0.0
  0
LINE
  5
27565
  8
0
 10
4881.541332160129059
 20
22.8103024450321215
 30
0.0
 11
4881.541332160129059
 21
22.8263023902321187
 31
0.0
  0
LINE
  5
27566
  8
0
 10
4881.5573321601268617
 20
22.8103024450321215
 30
0.0
 11
4881.5663321219317368
 21
22.8013025140273804
 31
0.0
  0
LINE
  5
27567
  8
0
 10
4881.541332160129059
 20
22.8103024450321215
 30
0.0
 11
4881.532332160128135
 21
22.8013024758321201
 31
0.0
  0
LINE
  5
27568
  8
0
 10
4881.5823321602283613
 20
22.8263023902321187
 30
0.0
 11
4881.5823321602283613
 21
22.8103024450321215
 31
0.0
  0
LINE
  5
27569
  8
0
 10
4881.5823321602283613
 20
22.8103024450321215
 30
0.0
 11
4881.5663321602278302
 21
22.8103024450321215
 31
0.0
  0
LINE
  5
2756A
  8
0
 10
4881.5663321602278302
 20
22.8103024450321215
 30
0.0
 11
4881.5663321602278302
 21
22.8263023902321187
 31
0.0
  0
LINE
  5
2756B
  8
0
 10
4881.5823321602283613
 20
22.8103024450321215
 30
0.0
 11
4881.591332121929554
 21
22.8013025140308017
 31
0.0
  0
LINE
  5
2756C
  8
0
 10
4881.5663321602278302
 20
22.8103024450321215
 30
0.0
 11
4881.5573321984238646
 21
22.8013025140273804
 31
0.0
  0
LINE
  5
2756D
  8
0
 10
4881.6073321601279531
 20
22.8263023902321187
 30
0.0
 11
4881.6073321601279531
 21
22.8103024450321215
 31
0.0
  0
LINE
  5
2756E
  8
0
 10
4881.6073321601279531
 20
22.8103024450321215
 30
0.0
 11
4881.5913321601283315
 21
22.8103024450321215
 31
0.0
  0
LINE
  5
2756F
  8
0
 10
4881.5913321601283315
 20
22.8103024450321215
 30
0.0
 11
4881.5913321601283315
 21
22.8263023902321187
 31
0.0
  0
LINE
  5
27570
  8
0
 10
4881.6073321601279531
 20
22.8103024450321215
 30
0.0
 11
4881.6163321219319187
 21
22.8013025140273804
 31
0.0
  0
LINE
  5
27571
  8
0
 10
4881.5913321601283315
 20
22.8103024450321215
 30
0.0
 11
4881.5823321983225469
 21
22.8013025140273804
 31
0.0
  0
LINE
  5
27572
  8
0
 10
4881.6323321602276337
 20
22.8263023902321187
 30
0.0
 11
4881.6323321602276337
 21
22.8103024450321215
 31
0.0
  0
LINE
  5
27573
  8
0
 10
4881.6323321602276337
 20
22.8103024450321215
 30
0.0
 11
4881.6163321602280121
 21
22.8103024450321215
 31
0.0
  0
LINE
  5
27574
  8
0
 10
4881.6163321602280121
 20
22.8103024450321215
 30
0.0
 11
4881.6163321602280121
 21
22.8263023902321187
 31
0.0
  0
LINE
  5
27575
  8
0
 10
4881.6323321602276337
 20
22.8103024450321215
 30
0.0
 11
4881.6413321601266944
 21
22.8013025140273804
 31
0.0
  0
LINE
  5
27576
  8
0
 10
4881.6163321602280121
 20
22.8103024450321215
 30
0.0
 11
4881.6073321602279975
 21
22.8013024758321201
 31
0.0
  0
LINE
  5
27577
  8
0
 10
4881.6573321602281794
 20
22.8263023902321187
 30
0.0
 11
4881.6573321602281794
 21
22.8103024450321215
 31
0.0
  0
LINE
  5
27578
  8
0
 10
4881.6573321602281794
 20
22.8103024450321215
 30
0.0
 11
4881.6413321602276483
 21
22.8103024450321215
 31
0.0
  0
LINE
  5
27579
  8
0
 10
4881.6413321602276483
 20
22.8103024450321215
 30
0.0
 11
4881.6413321602276483
 21
22.8263023902321187
 31
0.0
  0
LINE
  5
2757A
  8
0
 10
4881.6573321602281794
 20
22.8103024450321215
 30
0.0
 11
4881.6663321601281496
 21
22.8013025140273804
 31
0.0
  0
LINE
  5
2757B
  8
0
 10
4881.6413321602276483
 20
22.8103024450321215
 30
0.0
 11
4881.6323321983236383
 21
22.8013025140273804
 31
0.0
  0
LINE
  5
2757C
  8
0
 10
4881.6823321602269061
 20
22.8263023902321187
 30
0.0
 11
4881.6823321602269061
 21
22.8103024450321215
 31
0.0
  0
LINE
  5
2757D
  8
0
 10
4881.6823321602269061
 20
22.8103024450321215
 30
0.0
 11
4881.6663321602291035
 21
22.8103024450321215
 31
0.0
  0
LINE
  5
2757E
  8
0
 10
4881.6663321602291035
 20
22.8103024450321215
 30
0.0
 11
4881.6663321602291035
 21
22.8263023902321187
 31
0.0
  0
LINE
  5
2757F
  8
0
 10
4881.6823321602269061
 20
22.8103024450321215
 30
0.0
 11
4881.6913321602278302
 21
22.8013024758321201
 31
0.0
  0
LINE
  5
27580
  8
0
 10
4881.6663321602291035
 20
22.8103024450321215
 30
0.0
 11
4881.6573321983232745
 21
22.8013025140273911
 31
0.0
  0
LINE
  5
27581
  8
0
 10
4881.7073321602283613
 20
22.8263023902321187
 30
0.0
 11
4881.7073321602283613
 21
22.8103024450321215
 31
0.0
  0
LINE
  5
27582
  8
0
 10
4881.7073321602283613
 20
22.8103024450321215
 30
0.0
 11
4881.6913321602278302
 21
22.8103024450321215
 31
0.0
  0
LINE
  5
27583
  8
0
 10
4881.6913321602278302
 20
22.8103024450321215
 30
0.0
 11
4881.6913321602278302
 21
22.8263023902321187
 31
0.0
  0
LINE
  5
27584
  8
0
 10
4881.7073321602283613
 20
22.8103024450321215
 30
0.0
 11
4881.7091309247889512
 21
22.8085036866270592
 31
0.0
  0
LINE
  5
27585
  8
0
 10
4881.6913321602278302
 20
22.8103024450321215
 30
0.0
 11
4881.6823321602269061
 21
22.8013024758321201
 31
0.0
  0
LINE
  5
27586
  8
0
 10
4881.7323321602279975
 20
22.8263023902321187
 30
0.0
 11
4881.7323321602279975
 21
22.8217546743413386
 31
0.0
  0
LINE
  5
27587
  8
0
 10
4881.7163321602292854
 20
22.8122214679938615
 30
0.0
 11
4881.7163321602292854
 21
22.8263023902321187
 31
0.0
  0
LINE
  5
27588
  8
0
 10
4881.5573321983220012
 20
22.8013025140273804
 30
0.0
 11
4881.5573321601268617
 21
22.7926742655733001
 31
0.0
  0
LINE
  5
27589
  8
0
 10
4881.541332160129059
 20
22.7974191095113383
 30
0.0
 11
4881.541332160129059
 21
22.8013024758321201
 31
0.0
  0
LINE
  5
2758A
  8
0
 10
4881.5823321983225469
 20
22.8013025140273804
 30
0.0
 11
4881.5823321601283169
 21
22.7878032996093403
 31
0.0
  0
LINE
  5
2758B
  8
0
 10
4881.5663321601277858
 20
22.7905732098101907
 30
0.0
 11
4881.5663321219317368
 21
22.8013025140273804
 31
0.0
  0
LINE
  5
2758C
  8
0
 10
4881.6073321602316355
 20
22.8013024758287095
 30
0.0
 11
4881.6073321602316355
 21
22.7858623850015682
 31
0.0
  0
LINE
  5
2758D
  8
0
 10
4881.5913321602320138
 20
22.7867736140787791
 30
0.0
 11
4881.5913321219322825
 21
22.8013025140273804
 31
0.0
  0
LINE
  5
2758E
  8
0
 10
4881.6323321219333593
 20
22.8013025140273804
 30
0.0
 11
4881.6323321219333593
 21
22.7867736105135883
 31
0.0
  0
LINE
  5
2758F
  8
0
 10
4881.6163321219319187
 20
22.7858623842222094
 30
0.0
 11
4881.6163321219319187
 21
22.8013025140273804
 31
0.0
  0
LINE
  5
27590
  8
0
 10
4881.657332160128135
 20
22.8013025140273804
 30
0.0
 11
4881.657332160128135
 21
22.7905732098101907
 31
0.0
  0
LINE
  5
27591
  8
0
 10
4881.6413321601266944
 20
22.7878032996093403
 30
0.0
 11
4881.6413321601266944
 21
22.8013025140273804
 31
0.0
  0
LINE
  5
27592
  8
0
 10
4881.6823321601277712
 20
22.8013025140273804
 30
0.0
 11
4881.6823321601277712
 21
22.7974191095113383
 31
0.0
  0
LINE
  5
27593
  8
0
 10
4881.6663321601281496
 20
22.7926742655733001
 30
0.0
 11
4881.6663321601281496
 21
22.8013025140273804
 31
0.0
  0
LINE
  5
27594
  8
0
 10
4881.6823321601277712
 20
22.8013025140273804
 30
0.0
 11
4881.6663321219330101
 21
22.8013025140273911
 31
0.0
  0
LINE
  5
27595
  8
0
 10
4881.6573321983232745
 20
22.8013025140273911
 30
0.0
 11
4881.6413321219333739
 21
22.8013025140273804
 31
0.0
  0
LINE
  5
27596
  8
0
 10
4881.6323321983236383
 20
22.8013025140273804
 30
0.0
 11
4881.6163321219319187
 21
22.8013025140273804
 31
0.0
  0
LINE
  5
27597
  8
0
 10
4881.6073321602279975
 20
22.8013024758321201
 30
0.0
 11
4881.5913321219322825
 21
22.8013025140273804
 31
0.0
  0
LINE
  5
27598
  8
0
 10
4881.5823321983225469
 20
22.8013025140273804
 30
0.0
 11
4881.5663321219317368
 21
22.8013025140273804
 31
0.0
  0
LINE
  5
27599
  8
0
 10
4881.5573321983220012
 20
22.8013025140273804
 30
0.0
 11
4881.5413321219330101
 21
22.8013025140273804
 31
0.0
  0
LINE
  5
2759A
  8
0
 10
4881.782332160128135
 20
22.8763022189321212
 30
0.0
 11
4881.7913321601281496
 21
22.885302188132119
 31
0.0
  0
LINE
  5
2759B
  8
0
 10
4881.7913321601281496
 20
22.885302188132119
 30
0.0
 11
4881.7913321601281496
 21
22.9013021332321216
 31
0.0
  0
LINE
  5
2759C
  8
0
 10
4881.7913321601281496
 20
22.9013021332321216
 30
0.0
 11
4881.782332160128135
 21
22.9103021024321194
 31
0.0
  0
LINE
  5
2759D
  8
0
 10
4881.7913321601281496
 20
22.9013021332321216
 30
0.0
 11
4881.8054126606539285
 21
22.9013021332321216
 31
0.0
  0
LINE
  5
2759E
  8
0
 10
4881.7913321601281496
 20
22.885302188132119
 30
0.0
 11
4881.7958795314016243
 21
22.885302188132119
 31
0.0
  0
LINE
  5
2759F
  8
0
 10
4881.7913321601281496
 20
22.9263020475321184
 30
0.0
 11
4881.8073321601277712
 21
22.9263020475321184
 31
0.0
  0
LINE
  5
275A0
  8
0
 10
4881.8163321601268763
 20
22.9263020475321184
 30
0.0
 11
4881.8169501229085654
 21
22.9263020475321184
 31
0.0
  0
LINE
  5
275A1
  8
0
 10
4881.7913321601281496
 20
22.9103021024321194
 30
0.0
 11
4881.8073321601277712
 21
22.9103021024321194
 31
0.0
  0
LINE
  5
275A2
  8
0
 10
4881.8073321601277712
 20
22.9103021024321194
 30
0.0
 11
4881.8073321601277712
 21
22.9263020475321184
 31
0.0
  0
LINE
  5
275A3
  8
0
 10
4881.8073321601277712
 20
22.9103021024321194
 30
0.0
 11
4881.8091326767380451
 21
22.9085079341768285
 31
0.0
  0
LINE
  5
275A4
  8
0
 10
4881.7823321600280906
 20
22.9263020475321184
 30
0.0
 11
4881.7913321601281496
 21
22.9353020167321198
 31
0.0
  0
LINE
  5
275A5
  8
0
 10
4881.7913321601281496
 20
22.9353020167321198
 30
0.0
 11
4881.7913321601281496
 21
22.9513019619321206
 31
0.0
  0
LINE
  5
275A6
  8
0
 10
4881.7913321601281496
 20
22.9513019619321206
 30
0.0
 11
4881.782332160128135
 21
22.9603019310321308
 31
0.0
  0
LINE
  5
275A7
  8
0
 10
4881.7913321601281496
 20
22.9603019310321201
 30
0.0
 11
4881.8073321601277712
 21
22.9603019310321201
 31
0.0
  0
LINE
  5
275A8
  8
0
 10
4881.8073321601277712
 20
22.9603019310321201
 30
0.0
 11
4881.8163321601268763
 21
22.9513019619321206
 31
0.0
  0
LINE
  5
275A9
  8
0
 10
4881.8163321601268763
 20
22.9513019619321206
 30
0.0
 11
4881.8163321601268763
 21
22.9353020167321198
 31
0.0
  0
LINE
  5
275AA
  8
0
 10
4881.8163321601268763
 20
22.9353020167321198
 30
0.0
 11
4881.8073321601277712
 21
22.9263020475321184
 31
0.0
  0
LINE
  5
275AB
  8
0
 10
4881.7913321601281496
 20
22.9353020167321198
 30
0.0
 11
4881.8073321601277712
 21
22.9353020167321198
 31
0.0
  0
LINE
  5
275AC
  8
0
 10
4881.8073321601277712
 20
22.9353020167321198
 30
0.0
 11
4881.8073321601277712
 21
22.9513019619321206
 31
0.0
  0
LINE
  5
275AD
  8
0
 10
4881.8073321601277712
 20
22.9513019619321206
 30
0.0
 11
4881.7913321601281496
 21
22.9513019619321206
 31
0.0
  0
LINE
  5
275AE
  8
0
 10
4881.8073321601277712
 20
22.9513019619321206
 30
0.0
 11
4881.8163321601268763
 21
22.9603019310321201
 31
0.0
  0
LINE
  5
275AF
  8
0
 10
4881.8163321601268763
 20
22.9603019310321201
 30
0.0
 11
4881.82706075844726
 21
22.9603019310321201
 31
0.0
  0
LINE
  5
275B0
  8
0
 10
4881.8163321601268763
 20
22.9513019619321206
 30
0.0
 11
4881.8249597174917653
 21
22.9513019619321206
 31
0.0
  0
LINE
  5
275B1
  8
0
 10
4881.8163321601268763
 20
22.9353020167321198
 30
0.0
 11
4881.8202149075195848
 21
22.9353020167321198
 31
0.0
  0
LINE
  5
275B2
  8
0
 10
4881.8073321601277712
 20
22.9353020167321198
 30
0.0
 11
4881.8162840956556465
 21
22.9263499861062812
 31
0.0
  0
LINE
  5
275B3
  8
0
 10
4881.8162840956556465
 20
22.9263499861062812
 30
0.0
 11
4881.8162840956556465
 21
22.9246045374786007
 31
0.0
  0
LINE
  5
275B4
  8
0
 10
4881.782332160128135
 20
23.1263013621321285
 30
0.0
 11
4881.7903669151810391
 21
23.1343277515068593
 31
0.0
  0
LINE
  5
275B5
  8
0
 10
4881.7913321601281496
 20
23.1263013621321285
 30
0.0
 11
4881.7958795314671079
 21
23.1263013621321285
 31
0.0
  0
LINE
  5
275B6
  8
0
 10
4881.791332160130878
 20
23.1103014170348402
 30
0.0
 11
4881.8054126607075887
 21
23.1103014170348402
 31
0.0
  0
LINE
  5
275B7
  8
0
 10
4881.782332160128135
 20
23.1103014170321188
 30
0.0
 11
4881.7913321601281496
 21
23.101301447832121
 31
0.0
  0
LINE
  5
275B8
  8
0
 10
4881.7913321601281496
 20
23.101301447832121
 30
0.0
 11
4881.8073321601277712
 21
23.101301447832121
 31
0.0
  0
LINE
  5
275B9
  8
0
 10
4881.8073321601277712
 20
23.101301447832121
 30
0.0
 11
4881.8091513669251071
 21
23.1030577054950612
 31
0.0
  0
LINE
  5
275BA
  8
0
 10
4881.8073321601277712
 20
23.101301447832121
 30
0.0
 11
4881.8073321601277712
 21
23.0853015027321185
 31
0.0
  0
LINE
  5
275BB
  8
0
 10
4881.8073321601277712
 20
23.0853015027321185
 30
0.0
 11
4881.7913321601281496
 21
23.0853015027321185
 31
0.0
  0
LINE
  5
275BC
  8
0
 10
4881.7913321601281496
 20
23.0853015027321185
 30
0.0
 11
4881.7913321601281496
 21
23.101301447832121
 31
0.0
  0
LINE
  5
275BD
  8
0
 10
4881.782332160128135
 20
23.0763015335321207
 30
0.0
 11
4881.7913321601281496
 21
23.0853015027321185
 31
0.0
  0
LINE
  5
275BE
  8
0
 10
4881.8073321601277712
 20
23.0853015027321185
 30
0.0
 11
4881.8163321601268763
 21
23.0763015335321207
 31
0.0
  0
LINE
  5
275BF
  8
0
 10
4881.8163321601268763
 20
23.0763015335321207
 30
0.0
 11
4881.8202149075532361
 21
23.0763015335321207
 31
0.0
  0
LINE
  5
275C0
  8
0
 10
4881.791332160130878
 20
23.0763015335294099
 30
0.0
 11
4881.8073321601277712
 21
23.0763015335321207
 31
0.0
  0
LINE
  5
275C1
  8
0
 10
4881.8073321601277712
 20
23.0763015335321207
 30
0.0
 11
4881.8167771129310495
 21
23.0857464540112716
 31
0.0
  0
LINE
  5
275C2
  8
0
 10
4881.8073321601277712
 20
23.0763015335321207
 30
0.0
 11
4881.8073321601277712
 21
23.0603015884321216
 31
0.0
  0
LINE
  5
275C3
  8
0
 10
4881.8073321601277712
 20
23.0603015884321216
 30
0.0
 11
4881.7913321219330101
 21
23.0603015501373498
 31
0.0
  0
LINE
  5
275C4
  8
0
 10
4881.7823321602272699
 20
23.0603015883321305
 30
0.0
 11
4881.7913321601281496
 21
23.0513016192321203
 31
0.0
  0
LINE
  5
275C5
  8
0
 10
4881.7913321601281496
 20
23.0513016192321203
 30
0.0
 11
4881.7913321601281496
 21
23.0353016740321195
 31
0.0
  0
LINE
  5
275C6
  8
0
 10
4881.7913321601281496
 20
23.0353016740321195
 30
0.0
 11
4881.8073321601277712
 21
23.0353016740321195
 31
0.0
  0
LINE
  5
275C7
  8
0
 10
4881.8073321601277712
 20
23.0353016740321195
 30
0.0
 11
4881.8073321601277712
 21
23.0513016192321203
 31
0.0
  0
LINE
  5
275C8
  8
0
 10
4881.7913321601281496
 20
23.0513016192321203
 30
0.0
 11
4881.8073321601277712
 21
23.0513016192321203
 31
0.0
  0
LINE
  5
275C9
  8
0
 10
4881.8073321601277712
 20
23.0513016192321203
 30
0.0
 11
4881.8163321601268763
 21
23.0603015884321216
 31
0.0
  0
LINE
  5
275CA
  8
0
 10
4881.8163321601268763
 20
23.0603015884321216
 30
0.0
 11
4881.8163321601268763
 21
23.0763015335321207
 31
0.0
  0
LINE
  5
275CB
  8
0
 10
4881.8163321601268763
 20
23.0603015884321216
 30
0.0
 11
4881.8249597174917653
 21
23.0603015884321216
 31
0.0
  0
LINE
  5
275CC
  8
0
 10
4881.8073321601277712
 20
23.0603015884321216
 30
0.0
 11
4881.8163321601268763
 21
23.0513016192321203
 31
0.0
  0
LINE
  5
275CD
  8
0
 10
4881.8163321601268763
 20
23.0513016192321203
 30
0.0
 11
4881.8270607584672689
 21
23.0513016192321203
 31
0.0
  0
LINE
  5
275CE
  8
0
 10
4881.8163321601268763
 20
23.0513016192321203
 30
0.0
 11
4881.8163321601268763
 21
23.0353016740321195
 31
0.0
  0
LINE
  5
275CF
  8
0
 10
4881.8163321601268763
 20
23.0353016740321195
 30
0.0
 11
4881.8298306493888958
 21
23.0353016740321195
 31
0.0
  0
LINE
  5
275D0
  8
0
 10
4881.7913321601281496
 20
23.0353016740321195
 30
0.0
 11
4881.782332160128135
 21
23.0263017048321217
 31
0.0
  0
LINE
  5
275D1
  8
0
 10
4881.782332160128135
 20
23.0103017597321191
 30
0.0
 11
4881.7913321601281496
 21
23.0013017905321213
 31
0.0
  0
LINE
  5
275D2
  8
0
 10
4881.7913321601281496
 20
23.0013017905321213
 30
0.0
 11
4881.7913321601281496
 21
22.9853018454321187
 31
0.0
  0
LINE
  5
275D3
  8
0
 10
4881.7913321601281496
 20
22.9853018454321187
 30
0.0
 11
4881.8073321601277712
 21
22.9853018454321187
 31
0.0
  0
LINE
  5
275D4
  8
0
 10
4881.8073321601277712
 20
22.9853018454321187
 30
0.0
 11
4881.8073321601277712
 21
23.0013017905321213
 31
0.0
  0
LINE
  5
275D5
  8
0
 10
4881.8073321601277712
 20
23.0013017905321213
 30
0.0
 11
4881.7913321601281496
 21
23.0013017905321213
 31
0.0
  0
LINE
  5
275D6
  8
0
 10
4881.7913321601281496
 20
23.0263017048321217
 30
0.0
 11
4881.8073321601277712
 21
23.0263017049321306
 31
0.0
  0
LINE
  5
275D7
  8
0
 10
4881.8073321601277712
 20
23.0263017049321306
 30
0.0
 11
4881.8073321601277712
 21
23.0103017597321191
 31
0.0
  0
LINE
  5
275D8
  8
0
 10
4881.8073321601277712
 20
23.0103017597321191
 30
0.0
 11
4881.7913321601281496
 21
23.0103017597321085
 31
0.0
  0
LINE
  5
275D9
  8
0
 10
4881.8073321601277712
 20
23.0103017597321191
 30
0.0
 11
4881.8163321601268763
 21
23.0013017905321213
 31
0.0
  0
LINE
  5
275DA
  8
0
 10
4881.8163321601268763
 20
23.0013017905321213
 30
0.0
 11
4881.8317715506200329
 21
23.0013017905321213
 31
0.0
  0
LINE
  5
275DB
  8
0
 10
4881.8073321601277712
 20
23.0353016740321195
 30
0.0
 11
4881.8163321601268763
 21
23.0263017049321306
 31
0.0
  0
LINE
  5
275DC
  8
0
 10
4881.8163321601268763
 20
23.0263017049321306
 30
0.0
 11
4881.8308603277955626
 21
23.0263017049321306
 31
0.0
  0
LINE
  5
275DD
  8
0
 10
4881.8163321601268763
 20
23.0353016740321195
 30
0.0
 11
4881.8073321601277712
 21
23.0263017049321306
 31
0.0
  0
LINE
  5
275DE
  8
0
 10
4881.8163321601268763
 20
23.0263017049321306
 30
0.0
 11
4881.8163321601268763
 21
23.0103017597321191
 31
0.0
  0
LINE
  5
275DF
  8
0
 10
4881.8163321601268763
 20
23.0103017597321191
 30
0.0
 11
4881.8073321601277712
 21
23.0013017905321213
 31
0.0
  0
LINE
  5
275E0
  8
0
 10
4881.8163321601268763
 20
23.0103017597321191
 30
0.0
 11
4881.8317715506218519
 21
23.0103017597321085
 31
0.0
  0
LINE
  5
275E1
  8
0
 10
4881.8163321601268763
 20
23.0013017905321213
 30
0.0
 11
4881.8163321601268763
 21
22.9853018454321187
 31
0.0
  0
LINE
  5
275E2
  8
0
 10
4881.782332160128135
 20
22.9763018762321209
 30
0.0
 11
4881.7913321601281496
 21
22.9853018454321187
 31
0.0
  0
LINE
  5
275E3
  8
0
 10
4881.7913321601281496
 20
22.9763018762321387
 30
0.0
 11
4881.8073321601277712
 21
22.9763018762321209
 31
0.0
  0
LINE
  5
275E4
  8
0
 10
4881.8073321601277712
 20
22.9763018762321209
 30
0.0
 11
4881.8163321601268763
 21
22.9853018454321187
 31
0.0
  0
LINE
  5
275E5
  8
0
 10
4881.8163321601268763
 20
22.9853018454321187
 30
0.0
 11
4881.8308603277955626
 21
22.9853018454321187
 31
0.0
  0
LINE
  5
275E6
  8
0
 10
4881.8073321601277712
 20
22.9853018454321187
 30
0.0
 11
4881.8163321601268763
 21
22.9763018762321209
 31
0.0
  0
LINE
  5
275E7
  8
0
 10
4881.8163321601268763
 20
22.9763018762321209
 30
0.0
 11
4881.8298306493752534
 21
22.9763018762321316
 31
0.0
  0
LINE
  5
275E8
  8
0
 10
4881.8073321601277712
 20
22.9763018762321209
 30
0.0
 11
4881.8073321601277712
 21
22.9603019310321201
 31
0.0
  0
LINE
  5
275E9
  8
0
 10
4881.8163321601268763
 20
22.9763018762321209
 30
0.0
 11
4881.8163321601268763
 21
22.9603019310321201
 31
0.0
  0
ENDSEC
  0
EOF
