  0
SECTION
  2
HEADER
  9
$ACADVER
  1
AC1009
  9
$INSBASE
 10
4895.7509428830935576
 20
2.184486479531472
 30
0.0
  9
$EXTMIN
 10
4891.6568757337790885
 20
-26.5598503462284903
 30
0.0
  9
$EXTMAX
 10
4895.7614060519963459
 20
15.8183446257388205
 30
0.0
  9
$LIMMIN
 10
0.0
 20
0.0
  9
$LIMMAX
 10
11.6929133858000007
 20
8.2677165353999982
  9
$ORTHOMODE
 70
     0
  9
$REGENMODE
 70
     1
  9
$FILLMODE
 70
     1
  9
$QTEXTMODE
 70
     0
  9
$MIRRTEXT
 70
     0
  9
$DRAGMODE
 70
     2
  9
$LTSCALE
 40
0.6431102362
  9
$OSMODE
 70
  3839
  9
$ATTMODE
 70
     1
  9
$TEXTSIZE
 40
0.2
  9
$TRACEWID
 40
0.05
  9
$TEXTSTYLE
  7
STANDARD
  9
$CLAYER
  8
0
  9
$CELTYPE
  6
BYLAYER
  9
$CECOLOR
 62
   256
  9
$DIMSCALE
 40
1.0
  9
$DIMASZ
 40
0.1875
  9
$DIMEXO
 40
0.0625
  9
$DIMDLI
 40
0.4443307087
  9
$DIMRND
 40
0.0
  9
$DIMDLE
 40
0.0
  9
$DIMEXE
 40
0.125
  9
$DIMTP
 40
0.01
  9
$DIMTM
 40
0.01
  9
$DIMTXT
 40
2.0
  9
$DIMCEN
 40
0.1052362205
  9
$DIMTSZ
 40
0.0
  9
$DIMTOL
 70
     1
  9
$DIMLIM
 70
     0
  9
$DIMTIH
 70
     1
  9
$DIMTOH
 70
     1
  9
$DIMSE1
 70
     0
  9
$DIMSE2
 70
     0
  9
$DIMTAD
 70
     0
  9
$DIMZIN
 70
     0
  9
$DIMBLK
  1

  9
$DIMASO
 70
     1
  9
$DIMSHO
 70
     1
  9
$DIMPOST
  1
\X
  9
$DIMAPOST
  1

  9
$DIMALT
 70
     1
  9
$DIMALTD
 70
     2
  9
$DIMALTF
 40
25.3999999999999986
  9
$DIMLFAC
 40
1.0
  9
$DIMTOFL
 70
     0
  9
$DIMTVP
 40
0.0
  9
$DIMTIX
 70
     0
  9
$DIMSOXD
 70
     0
  9
$DIMSAH
 70
     0
  9
$DIMBLK1
  1

  9
$DIMBLK2
  1

  9
$DIMSTYLE
  2
STANDARD
  9
$DIMCLRD
 70
     0
  9
$DIMCLRE
 70
     0
  9
$DIMCLRT
 70
     0
  9
$DIMTFAC
 40
1.0
  9
$DIMGAP
 40
0.09
  9
$LUNITS
 70
     2
  9
$LUPREC
 70
     4
  9
$SKETCHINC
 40
0.1
  9
$FILLETRAD
 40
0.0
  9
$AUNITS
 70
     0
  9
$AUPREC
 70
     0
  9
$MENU
  1
.
  9
$ELEVATION
 40
0.0
  9
$PELEVATION
 40
0.0
  9
$THICKNESS
 40
0.0
  9
$LIMCHECK
 70
     0
  9
$BLIPMODE
 70
     0
  9
$CHAMFERA
 40
0.0
  9
$CHAMFERB
 40
0.0
  9
$SKPOLY
 70
     0
  9
$TDCREATE
 40
2458060.468368056230247
  9
$TDUPDATE
 40
2460511.7673263889737427
  9
$TDINDWG
 40
0.5547408565
  9
$TDUSRTIMER
 40
0.5547408565
  9
$USRTIMER
 70
     1
  9
$ANGBASE
 50
0.0
  9
$ANGDIR
 70
     0
  9
$PDMODE
 70
     0
  9
$PDSIZE
 40
0.3125
  9
$PLINEWID
 40
0.0
  9
$COORDS
 70
     1
  9
$SPLFRAME
 70
     0
  9
$SPLINETYPE
 70
     6
  9
$SPLINESEGS
 70
     8
  9
$ATTDIA
 70
     1
  9
$ATTREQ
 70
     1
  9
$HANDLING
 70
     1
  9
$HANDSEED
  5
26EB2
  9
$SURFTAB1
 70
     6
  9
$SURFTAB2
 70
     6
  9
$SURFTYPE
 70
     6
  9
$SURFU
 70
     6
  9
$SURFV
 70
     6
  9
$UCSNAME
  2

  9
$UCSORG
 10
0.0
 20
0.0
 30
0.0
  9
$UCSXDIR
 10
1.0
 20
0.0
 30
0.0
  9
$UCSYDIR
 10
0.0
 20
1.0
 30
0.0
  9
$PUCSNAME
  2

  9
$PUCSORG
 10
0.0
 20
0.0
 30
0.0
  9
$PUCSXDIR
 10
1.0
 20
0.0
 30
0.0
  9
$PUCSYDIR
 10
0.0
 20
1.0
 30
0.0
  9
$USERI1
 70
     0
  9
$USERI2
 70
     0
  9
$USERI3
 70
     0
  9
$USERI4
 70
     0
  9
$USERI5
 70
     0
  9
$USERR1
 40
0.0
  9
$USERR2
 40
0.0
  9
$USERR3
 40
0.0
  9
$USERR4
 40
0.0
  9
$USERR5
 40
0.0
  9
$WORLDVIEW
 70
     1
  9
$SHADEDGE
 70
     3
  9
$SHADEDIF
 70
    70
  9
$TILEMODE
 70
     1
  9
$MAXACTVP
 70
    64
  9
$PLIMCHECK
 70
     0
  9
$PEXTMIN
 10
1.0000000000000000E+20
 20
1.0000000000000000E+20
 30
1.0000000000000000E+20
  9
$PEXTMAX
 10
-1.0000000000000000E+20
 20
-1.0000000000000000E+20
 30
-1.0000000000000000E+20
  9
$PLIMMIN
 10
0.0
 20
0.0
  9
$PLIMMAX
 10
12.0
 20
9.0
  9
$UNITMODE
 70
     0
  9
$VISRETAIN
 70
     1
  9
$PLINEGEN
 70
     0
  9
$PSLTSCALE
 70
     1
  0
ENDSEC
  0
SECTION
  2
TABLES
  0
TABLE
  2
VPORT
 70
     1
  0
VPORT
  2
*ACTIVE
 70
     0
 10
0.0
 20
0.0
 11
1.0
 21
1.0
 12
1101.3512307366370351
 22
-125.5514092933503036
 13
0.0
 23
0.0
 14
1.0
 24
1.0
 15
0.0
 25
0.0
 16
0.0
 26
0.0
 36
5.1040778033513332
 17
3792.35791015625
 27
120.1806564331053977
 37
0.0
 40
42.6816188023155405
 41
2.2831541218637992
 42
50.0
 43
0.0
 44
0.0
 50
0.0
 51
0.0
 71
     0
 72
   100
 73
     1
 74
     1
 75
     0
 76
     0
 77
     0
 78
     0
  0
ENDTAB
  0
TABLE
  2
LTYPE
 70
     2
  0
LTYPE
  2
CONTINUOUS
 70
     0
  3
Solid line
 72
    65
 73
     0
 40
0.0
  0
LTYPE
  2
PHANTOM2
 70
     0
  3
___ _ _ ___ _ _ ___ _ _ ___ _ _
 72
    65
 73
     6
 40
1.25
 49
0.625
 49
-0.125
 49
0.125
 49
-0.125
 49
0.125
 49
-0.125
  0
ENDTAB
  0
TABLE
  2
LAYER
 70
     2
  0
LAYER
  2
0
 70
     0
 62
   255
  6
CONTINUOUS
  0
LAYER
  2
DEFPOINTS
 70
     0
 62
     7
  6
CONTINUOUS
  0
ENDTAB
  0
TABLE
  2
STYLE
 70
     1
  0
STYLE
  2
STANDARD
 70
     0
 40
0.0
 41
0.8
 50
0.0
 71
     0
 42
0.2
  3
txt
  4

  0
ENDTAB
  0
TABLE
  2
VIEW
 70
     0
  0
ENDTAB
  0
TABLE
  2
UCS
 70
     0
  0
ENDTAB
  0
TABLE
  2
APPID
 70
     9
  0
APPID
  2
ACAD
 70
     0
  0
APPID
  2
ACAD_MLEADERVER
 70
     0
  0
APPID
  2
ACAD_EXEMPT_FROM_CAD_STANDARDS
 70
     0
  0
APPID
  2
ACAD_NAV_VCDISPLAY
 70
     0
  0
APPID
  2
ACAECLAYERSTANDARD
 70
     0
  0
APPID
  2
ACCMTRANSPARENCY
 70
     0
  0
APPID
  2
ACAD_DSTYLE_DIMJAG
 70
     0
  0
APPID
  2
ACAD_DSTYLE_DIMTALN
 70
     0
  0
APPID
  2
ACDBATTR
 70
     0
  0
ENDTAB
  0
TABLE
  2
DIMSTYLE
 70
     1
  0
DIMSTYLE
  2
STANDARD
 70
     0
  3

  4

  5

  6

  7

 40
1.0
 41
0.1875
 42
0.0625
 43
0.38
 44
0.125
 45
0.0
 46
0.0
 47
0.01
 48
0.01
140
0.15625
141
0.09
142
0.0
143
25.3999999999999986
144
1.0
145
0.0
146
1.0
147
0.09
 71
     1
 72
     0
 73
     1
 74
     1
 75
     0
 76
     0
 77
     0
 78
     4
170
     0
171
     2
172
     0
173
     0
174
     0
175
     0
176
     0
177
     0
178
     0
  0
ENDTAB
  0
ENDSEC
  0
SECTION
  2
BLOCKS
  0
BLOCK
  8
0
  2
$MODEL_SPACE
 70
     0
 10
0.0
 20
0.0
 30
0.0
  3
$MODEL_SPACE
  1

  0
ENDBLK
  5
21
  8
0
  0
BLOCK
 67
     1
  8
0
  2
$PAPER_SPACE
 70
     0
 10
0.0
 20
0.0
 30
0.0
  3
$PAPER_SPACE
  1

  0
ENDBLK
  5
1D
 67
     1
  8
0
  0
BLOCK
  8
0
  2
_FILLED
 70
     0
 10
0.0
 20
0.0
 30
0.0
  3
_FILLED
  1

  0
SOLID
  5
26935
  8
0
  6
BYBLOCK
 62
     0
 10
0.0
 20
0.0
 30
0.0
 11
-1.0
 21
0.1666666667
 31
0.0
 12
-1.0
 22
-0.1666666667
 32
0.0
 13
-1.0
 23
-0.1666666667
 33
0.0
  0
ENDBLK
  5
26936
  8
0
  6
BYBLOCK
 62
     0
  0
ENDSEC
  0
SECTION
  2
ENTITIES
  0
ATTDEF
  5
240AC
  8
DEFPOINTS
 10
4895.7507393853265967
 20
2.1887969910335978
 30
0.0
 40
0.001
  1
K-35331-Y
  3

  2
MODELNUMBER
 70
     0
1001
ACDBATTR
1070
     0
1070
     1
  0
ATTDEF
  5
240AD
  8
DEFPOINTS
 10
4895.7507393853265967
 20
2.1871303243669331
 30
0.0
 40
0.001
  1
ELATE
  3

  2
TRADENAME
 70
     0
1001
ACDBATTR
1070
     0
1070
     1
  0
ATTDEF
  5
240AE
  8
DEFPOINTS
 10
4895.7507393853265967
 20
2.1854636577002671
 30
0.0
 40
0.001
  1
HANDSHOWER KIT
  3

  2
PRODUCT
 70
     0
1001
ACDBATTR
1070
     0
1070
     1
  0
ARC
  5
26B54
  8
0
 10
4893.7824389461193277
 20
9.8905231034384453
 30
0.0
 40
5.9278215223003796
 50
86.7420926189115562
 51
93.2579116726820558
  0
ARC
  5
26B55
  8
0
 10
4894.1170829311713533
 20
15.7694561674648206
 30
0.0
 40
0.0393717629805498
 50
0.00231555683252
 51
86.7420926189115562
  0
LINE
  5
26B56
  8
0
 10
4894.1564546941190201
 20
15.7694577586388203
 30
0.0
 11
4894.1564875057656536
 21
14.9575714710740399
 31
0.0
  0
LINE
  5
26B57
  8
0
 10
4895.7509428826197109
 20
14.9714860123573992
 30
0.0
 11
4894.1564546941190201
 21
14.9575714704388201
 31
0.0
  0
LINE
  5
26B58
  8
0
 10
4894.1564546941190201
 20
14.9575714704388201
 30
0.0
 11
4893.3677044081196073
 21
14.9506881509388201
 31
0.0
  0
ARC
  5
26B59
  8
0
 10
4893.368047869824295
 20
14.9113313381256294
 30
0.0
 40
0.0393583114571035
 50
90.5000000024668765
 51
179.1044954263834086
  0
ARC
  5
26B5A
  8
0
 10
4939.0428219251843984
 20
14.1840847578103997
 30
0.0
 40
45.7199217103931801
 50
179.0878119631435936
 51
180.9121979867510106
  0
ARC
  5
26B5B
  8
0
 10
4893.3680513785366202
 20
13.4568417614009501
 30
0.0
 40
0.0393618751135992
 50
180.9121979867560128
 51
269.4949592726150058
  0
LINE
  5
26B5C
  8
0
 10
4893.3677044229198145
 20
13.4174814154388198
 30
0.0
 11
4894.1564540854924417
 21
13.4105287040181196
 31
0.0
  0
LINE
  5
26B5D
  8
0
 10
4894.1564540854924417
 20
13.4105287040181196
 30
0.0
 11
4895.7509428831190235
 21
13.3966836944137793
 31
0.0
  0
LINE
  5
26B5E
  8
0
 10
4895.7509428831190235
 20
13.3966836944137793
 30
0.0
 11
4895.7509428826197109
 21
14.9714860123573992
 31
0.0
  0
ARC
  5
26B5F
  8
0
 10
4894.8060619283651249
 20
14.9522008888662494
 30
0.0
 40
0.0196870440134578
 50
90.0036930491337444
 51
146.393416543648101
  0
LINE
  5
26B60
  8
0
 10
4894.8060606594190176
 20
14.9718879328388201
 30
0.0
 11
4895.0422816011287068
 21
14.9719031586644409
 31
0.0
  0
ARC
  5
26B61
  8
0
 10
4895.0422828690561801
 20
14.9522319285271408
 30
0.0
 40
0.0196712301781645
 50
42.1362501452734506
 51
90.0036930491337444
  0
LINE
  5
26B62
  8
0
 10
4893.4084231981196353
 20
14.9510434984360803
 30
0.0
 11
4893.4084231987199018
 21
15.7694577586388203
 31
0.0
  0
ARC
  5
26B63
  8
0
 10
4893.4477932774661895
 20
15.7694577586099598
 30
0.0
 40
0.0393700787475595
 50
93.2538729104319373
 51
179.9999999579912071
  0
LINE
  5
26B64
  8
0
 10
4893.4455586210196998
 20
15.8087643663388207
 30
0.0
 11
4894.1193204510964279
 21
15.8087642992543493
 31
0.0
  0
ARC
  5
26B65
  8
0
 10
4891.7057268555190603
 20
11.5126405565388197
 30
0.0
 40
0.0196850394000154
 50
116.6499999713825986
 51
207.1499999999743977
  0
LINE
  5
26B66
  8
0
 10
4891.6968973434277359
 20
11.5302343194224193
 30
0.0
 11
4892.6732548054624203
 21
12.0202238727546593
 31
0.0
  0
ARC
  5
26B67
  8
0
 10
4892.6909138302589781
 20
11.9850363457650797
 30
0.0
 40
0.0393700801677045
 50
73.7407417567082746
 51
116.6499999713352054
  0
LINE
  5
26B68
  8
0
 10
4892.7018833944848666
 20
12.0228473477764108
 30
0.0
 11
4892.7751539971668535
 21
12.0014781069193806
 31
0.0
  0
ARC
  5
26B69
  8
0
 10
4892.7641310320914272
 20
11.9636826934145599
 30
0.0
 40
0.0393700271916691
 50
30.7976915843638714
 51
73.7407693457237485
  0
ARC
  5
26B6A
  8
0
 10
4870.214406819179203
 20
-1.4774194598504851
 30
0.0
 40
26.2910992878110186
 50
23.5023084160012417
 51
30.7976915843639283
  0
ARC
  5
26B6B
  8
0
 10
4894.2883978434356322
 20
8.9914030768429765
 30
0.0
 40
0.039370027802596
 50
340.559231181281973
 51
23.5023084159994085
  0
LINE
  5
26B6C
  8
0
 10
4894.3255232312258158
 20
8.9782994639567022
 30
0.0
 11
4894.3000216585733142
 21
8.9060479572791689
 31
0.0
  0
ARC
  5
26B6D
  8
0
 10
4894.2628190566692865
 20
8.9191788233184663
 30
0.0
 40
0.0394519103644264
 50
302.7523269987007097
 51
340.5592311812819162
  0
ARC
  5
26B6E
  8
0
 10
4894.3016177218669327
 20
8.858864926500944
 30
0.0
 40
0.0322635173372937
 50
122.7523269986999992
 51
179.3657340637358004
  0
LINE
  5
26B6F
  8
0
 10
4894.2693561813839551
 20
8.8592220772763195
 30
0.0
 11
4894.2842353172463845
 21
3.174036754025769
 31
0.0
  0
LINE
  5
26B70
  8
0
 10
4893.2704592636191592
 20
3.1739336835246692
 30
0.0
 11
4893.2688268014053392
 21
3.797076304457252
 31
0.0
  0
ARC
  5
26B71
  8
0
 10
4893.2884369445109769
 20
3.7971276147392059
 30
0.0
 40
0.0196102102325194
 50
152.645846621993087
 51
180.1499150657328983
  0
ARC
  5
26B72
  8
0
 10
4892.7917147880862103
 20
4.0974973791344249
 30
0.0
 40
0.5609127435537214
 50
328.7054758251271096
 51
331.923618863435081
  0
ARC
  5
26B73
  8
0
 10
4892.8211860724450162
 20
4.0809518152885893
 30
0.0
 40
0.5271229744407431
 50
332.0027371631969118
 51
341.9247883471729779
  0
ARC
  5
26B74
  8
0
 10
4892.8440984526341708
 20
4.0741439771298369
 30
0.0
 40
0.5032294871409875
 50
341.8522571855809247
 51
0.0996205180244039
  0
LINE
  5
26B75
  8
0
 10
4893.34732717911902
 20
4.0750189448388241
 30
0.0
 11
4893.3317001780060309
 21
8.1853001784463171
 31
0.0
  0
ARC
  5
26B76
  8
0
 10
4892.9214480937162079
 20
8.195179443372238
 30
0.0
 40
0.4103710181515187
 50
358.6205291077723132
 51
10.04350227187388
  0
ARC
  5
26B77
  8
0
 10
4892.8817989637645951
 20
8.1881571879569055
 30
0.0
 40
0.450637202190388
 50
10.0435022718740505
 51
19.3869373307187303
  0
ARC
  5
26B78
  8
0
 10
4892.488385606518932
 20
8.0207389586522293
 30
0.0
 40
0.8777428920069223
 50
21.1714428719344916
 51
28.9210388197336101
  0
LINE
  5
26B79
  8
0
 10
4893.2566625565186769
 20
8.4452187727388246
 30
0.0
 11
4891.6882108146191968
 21
11.5036578461388199
 31
0.0
  0
LINE
  5
26B7A
  8
0
 10
4891.7313535667080941
 20
11.4195303718331598
 30
0.0
 11
4891.6671319977058374
 21
11.3858768503882199
 31
0.0
  0
ARC
  5
26B7B
  8
0
 10
4891.6765031590093713
 20
11.3686310637443704
 30
0.0
 40
0.0196274252291583
 50
118.5191460842422941
 51
195.2783492447530023
  0
ARC
  5
26B7C
  8
0
 10
4892.6629114161605685
 20
11.6380812312354802
 30
0.0
 40
1.042175537808933
 50
195.2783492447528886
 51
200.6853294667349985
  0
ARC
  5
26B7D
  8
0
 10
4903.433597740760888
 20
15.1474439618465606
 30
0.0
 40
12.3691517373995499
 50
198.269146637657002
 51
199.2193651830019121
  0
ARC
  5
26B7E
  8
0
 10
4891.9470730794173505
 20
9.8270131164940988
 30
0.0
 40
0.3210905983410774
 50
27.6922739712509092
 51
33.0962017319442765
  0
ARC
  5
26B7F
  8
0
 10
4890.9420561037095467
 20
9.2606898983285344
 30
0.0
 40
1.474573754192948
 50
22.6840069048320387
 51
29.029047576033669
  0
LINE
  5
26B80
  8
0
 10
4892.2941439525466194
 20
9.849099794220125
 30
0.0
 11
4892.2536378794193297
 21
9.8300822819388234
 31
0.0
  0
ARC
  5
26B81
  8
0
 10
4892.2501949534143932
 20
9.8374154920096633
 30
0.0
 40
0.0081012165399869
 50
230.8820764296577863
 51
295.1499522286005117
  0
ARC
  5
26B82
  8
0
 10
4892.253885158461344
 20
9.8419533871349483
 30
0.0
 40
0.0139501570820173
 50
215.8478426145595961
 51
230.8820764296573032
  0
ARC
  5
26B83
  8
0
 10
4892.9736115730784149
 20
10.2727309514991791
 30
0.0
 40
0.8526930872503179
 50
202.0910752954061991
 51
210.9825874606324874
  0
ARC
  5
26B84
  8
0
 10
4892.1910128233030264
 20
9.9543742190253592
 30
0.0
 40
0.0078477816932413
 50
115.7474986458197037
 51
197.2258201414915959
  0
LINE
  5
26B85
  8
0
 10
4892.1876037003567035
 20
9.9614428510174111
 30
0.0
 11
4892.2273244691168657
 21
9.9837240954132991
 31
0.0
  0
ARC
  5
26B86
  8
0
 10
4895.0735127793013817
 20
11.3968125041807404
 30
0.0
 40
3.1913054660269511
 50
206.0090794068094908
 51
206.4160268295512992
  0
LINE
  5
26B87
  8
0
 10
4892.2345857372802129
 20
10.0110810443200506
 30
0.0
 11
4892.192045234818579
 21
9.9911083286388251
 31
0.0
  0
ARC
  5
26B88
  8
0
 10
4892.1885527598951739
 20
9.9985470585774952
 30
0.0
 40
0.0082177907125334
 50
242.8802144292903904
 51
295.1500000152187795
  0
ARC
  5
26B89
  8
0
 10
4892.1902088236911368
 20
10.0017805370988597
 30
0.0
 40
0.0118506863407611
 50
218.1287655717090104
 51
242.8802144292926926
  0
ARC
  5
26B8A
  8
0
 10
4892.5559835263738933
 20
10.2337763757489206
 30
0.0
 40
0.4449361720892262
 50
198.7014468322774121
 51
212.5379940692340881
  0
ARC
  5
26B8B
  8
0
 10
4892.1431689026449021
 20
10.0931233497875006
 30
0.0
 40
0.008860858640442
 50
122.1560814245464002
 51
193.110675329787199
  0
LINE
  5
26B8C
  8
0
 10
4892.1384529100696454
 20
10.1006249649388202
 30
0.0
 11
4892.152281549619147
 21
10.1083473925388194
 31
0.0
  0
ARC
  5
26B8D
  8
0
 10
4892.3412165739000557
 20
10.0714578654478295
 30
0.0
 40
0.1324793136753422
 50
209.1910647856088872
 51
221.9609699125288103
  0
ARC
  5
26B8E
  8
0
 10
4892.1358970060919091
 20
9.9673995608992367
 30
0.0
 40
0.1079237585395809
 50
8.2463328508163922
 51
23.8750798773487602
  0
ARC
  5
26B8F
  8
0
 10
4891.9224387441845465
 20
9.929250253997937
 30
0.0
 40
0.2637956176475815
 50
19.5375167408584716
 51
31.7920919760334186
  0
ARC
  5
26B90
  8
0
 10
4892.290325238764126
 20
10.1060238218407399
 30
0.0
 40
0.1485577627007733
 50
194.7391474421883117
 51
216.5904612747198996
  0
LINE
  5
26B91
  8
0
 10
4892.2177549951193214
 20
10.1124894629388198
 30
0.0
 11
4892.1734107125193987
 21
10.0914316368388199
 31
0.0
  0
ARC
  5
26B92
  8
0
 10
4892.1697765012004311
 20
10.0990846819834701
 30
0.0
 40
0.0084721066980173
 50
245.7405433374233894
 51
295.4017002322103167
  0
ARC
  5
26B93
  8
0
 10
4892.171914526393266
 20
10.1038288307941198
 30
0.0
 40
0.013675768838039
 50
219.7576150338651075
 51
245.7405433374227925
  0
ARC
  5
26B94
  8
0
 10
4892.2290377637173151
 20
10.1513505708407301
 30
0.0
 40
0.0879817579597773
 50
209.2600188995135966
 51
219.7576150338653918
  0
ARC
  5
26B95
  8
0
 10
4892.46194352720795
 20
10.2915740498959494
 30
0.0
 40
0.3598090441849397
 50
196.2523978669734959
 51
210.6127571438410939
  0
ARC
  5
26B96
  8
0
 10
4892.1263335399398784
 20
10.1932352702003506
 30
0.0
 40
0.0101001720584035
 50
122.5131957947409944
 51
193.5166192738647908
  0
LINE
  5
26B97
  8
0
 10
4892.1209047597194512
 20
10.2017524188388204
 30
0.0
 11
4892.1416740286113054
 21
10.2133373104339995
 31
0.0
  0
ARC
  5
26B98
  8
0
 10
4892.2547775837301742
 20
10.2832156479476797
 30
0.0
 40
0.1329488481866724
 50
211.7088579803231028
 51
216.5301508475147898
  0
ARC
  5
26B99
  8
0
 10
4892.1737982319682487
 20
10.2232281072653297
 30
0.0
 40
0.0321710706319399
 50
216.5301508475141929
 51
231.6931172839690873
  0
ARC
  5
26B9A
  8
0
 10
4892.1599766063536663
 20
10.2057312154435706
 30
0.0
 40
0.009873569471189
 50
231.6931172839657052
 51
292.1104583055562216
  0
LINE
  5
26B9B
  8
0
 10
4892.1636929525193409
 20
10.1965837488388207
 30
0.0
 11
4892.2102315063093556
 21
10.2182345571347302
 31
0.0
  0
ARC
  5
26B9C
  8
0
 10
4892.1220304690223202
 20
10.1910465298214206
 30
0.0
 40
0.0922963260793519
 50
359.2345708197556178
 51
17.1319484206866015
  0
ARC
  5
26B9D
  8
0
 10
4892.2382957465351865
 20
10.2343343356254106
 30
0.0
 40
0.0505668403012873
 50
208.0773392471884051
 51
241.6947949386380117
  0
ARC
  5
26B9E
  8
0
 10
4891.7002269299700856
 20
10.0551405476658502
 30
0.0
 40
0.5354477788023955
 50
17.733720408301739
 51
31.2277374555143012
  0
ARC
  5
26B9F
  8
0
 10
4892.0773288046866583
 20
10.2837711512538892
 30
0.0
 40
0.0944514332253672
 50
31.2277374555154985
 51
50.1885713373283977
  0
ARC
  5
26BA0
  8
0
 10
4892.2913779789114415
 20
10.3542729656854195
 30
0.0
 40
0.1535891254292903
 50
179.234634825672714
 51
191.6775683476863037
  0
LINE
  5
26BA1
  8
0
 10
4892.1580954888013366
 20
10.3327386504285492
 30
0.0
 11
4892.1121067621197653
 21
10.3070810221388207
 31
0.0
  0
ARC
  5
26BA2
  8
0
 10
4892.1172342372210551
 20
10.2989210191463592
 30
0.0
 40
0.009637253226573
 50
122.1438910967518012
 51
174.3829747024865071
  0
ARC
  5
26BA3
  8
0
 10
4892.1324075095981243
 20
10.2974287146028196
 30
0.0
 40
0.0248837337214303
 50
174.3829747024904009
 51
185.3955782923781044
  0
ARC
  5
26BA4
  8
0
 10
4892.1459409343369771
 20
10.2987069461472398
 30
0.0
 40
0.0384773888972015
 50
185.3955782923752054
 51
199.331828068500414
  0
ARC
  5
26BA5
  8
0
 10
4892.4018608137002957
 20
10.3721243776347407
 30
0.0
 40
0.3046633598935927
 50
196.4266310452676976
 51
207.7105245320335882
  0
ARC
  5
26BA6
  8
0
 10
4892.3679630794422337
 20
10.3505931427655309
 30
0.0
 40
0.2646618560255652
 50
206.9962785453201946
 51
211.2389444975900119
  0
ARC
  5
26BA7
  8
0
 10
4892.0249515154127948
 20
10.1987046382486408
 30
0.0
 40
0.1234391626126609
 50
8.2553243429247463
 51
42.1040974733389035
  0
ARC
  5
26BA8
  8
0
 10
4892.2353902443874176
 20
10.2976385831384096
 30
0.0
 40
0.1199507365853321
 50
187.747602376295788
 51
222.6118194399761023
  0
ARC
  5
26BA9
  8
0
 10
4891.8050470564649004
 20
9.9971074470699932
 30
0.0
 40
0.4254517990340946
 50
23.6861821774024115
 51
28.9358971464153711
  0
ARC
  5
26BAA
  8
0
 10
4891.6130187384551391
 20
9.8935486704535744
 30
0.0
 40
0.6431492911742377
 50
19.9024563450109113
 51
25.2624942546363904
  0
ARC
  5
26BAB
  8
0
 10
4892.1363611283650243
 20
10.0804624024829295
 30
0.0
 40
0.0874682465059197
 50
3.53821434182474
 51
21.4787684222540989
  0
ARC
  5
26BAC
  8
0
 10
4892.24415222348307
 20
10.1233417713192004
 30
0.0
 40
0.0427161905229299
 50
203.3621099990417918
 51
241.3363009839858933
  0
ARC
  5
26BAD
  8
0
 10
4891.9970486362981319
 20
10.0742440031579097
 30
0.0
 40
0.1619282702637641
 50
15.5589887097135495
 51
35.6230095656077879
  0
ARC
  5
26BAE
  8
0
 10
4892.2435751854882255
 20
10.1923121200610307
 30
0.0
 40
0.1173299379935331
 50
191.6800843497379958
 51
219.5019139255992116
  0
ARC
  5
26BAF
  8
0
 10
4891.2009223263894455
 20
9.5845523843857396
 30
0.0
 40
1.1182069328882831
 50
22.4228974573007207
 51
27.4883544705237206
  0
LINE
  5
26BB0
  8
0
 10
4892.141575309223299
 20
10.0718071601834893
 30
0.0
 11
4892.13005594837432
 21
10.0664024414989193
 31
0.0
  0
ARC
  5
26BB1
  8
0
 10
4892.1269547569208953
 20
10.0730121737537193
 30
0.0
 40
0.0073010923095773
 50
237.0477055300866027
 51
295.1352953043357843
  0
ARC
  5
26BB2
  8
0
 10
4892.1290735259581197
 20
10.0762807467923601
 30
0.0
 40
0.01119631399051
 50
216.5723718929218933
 51
237.0477055300906102
  0
ARC
  5
26BB3
  8
0
 10
4893.1838977021861865
 20
10.6413330550139094
 30
0.0
 40
1.207713631461284
 50
201.9138625062496999
 51
208.2547868534923055
  0
ARC
  5
26BB4
  8
0
 10
4892.0712602275034442
 20
10.1924893905536997
 30
0.0
 40
0.0080392871297803
 50
119.139194157761807
 51
193.5962774668321913
  0
LINE
  5
26BB5
  8
0
 10
4892.0673456334197908
 20
10.1995112201388203
 30
0.0
 11
4892.1064054978851345
 21
10.2212866723133207
 31
0.0
  0
LINE
  5
26BB6
  8
0
 10
4892.1177047145074539
 20
10.1984847318167908
 30
0.0
 11
4892.1064047729059894
 21
10.2212862681462493
 31
0.0
  0
ARC
  5
26BB7
  8
0
 10
4891.8196539466980539
 20
10.0791788441978092
 30
0.0
 40
0.3200321175648395
 50
26.3620070140128604
 51
31.8826269077329592
  0
ARC
  5
26BB8
  8
0
 10
4892.425911857925712
 20
10.3565533439443094
 30
0.0
 40
0.3516153792190819
 50
197.9459559494713972
 51
203.0282350912883089
  0
ARC
  5
26BB9
  8
0
 10
4891.1010542869571509
 20
9.6571293649440122
 30
0.0
 40
1.0988430139541041
 50
23.5776195706650995
 51
27.4054846647715209
  0
ARC
  5
26BBA
  8
0
 10
4892.4812431046420897
 20
10.3151958820420298
 30
0.0
 40
0.4323733932627484
 50
200.622489002819691
 51
210.3606152326372012
  0
ARC
  5
26BBB
  8
0
 10
4892.0782310973208951
 20
10.1669839423171595
 30
0.0
 40
0.0077601386357429
 50
199.2391791272972057
 51
257.1037042231185978
  0
ARC
  5
26BBC
  8
0
 10
4134.7697300291056308
 20
-335.5388848023729906
 30
0.0
 40
832.4757343853849534
 50
24.5364050604909991
 51
24.5454107954133001
  0
ARC
  5
26BBD
  8
0
 10
4892.0237443056194024
 20
10.2866720236388201
 30
0.0
 40
0.0078740194000004
 50
119.1403869881441011
 51
204.114514788782202
  0
LINE
  5
26BBE
  8
0
 10
4892.0199100426661971
 20
10.2935494220650199
 30
0.0
 11
4892.025526978994094
 21
10.2966096549892896
 31
0.0
  0
ARC
  5
26BBF
  8
0
 10
7817.0471681698063549
 20
1345.0473565016989141
 30
0.0
 40
3215.1327913249938319
 50
204.5295067309413923
 51
204.5300698519266973
  0
LINE
  5
26BC0
  8
0
 10
4892.1059863798545848
 20
10.2555197998094005
 30
0.0
 11
4892.0642733245185809
 21
10.2359355694819598
 31
0.0
  0
ARC
  5
26BC1
  8
0
 10
4892.0613182381266597
 20
10.2438345892764104
 30
0.0
 40
0.0084336853921725
 50
237.962602394641408
 51
290.5112245423964055
  0
ARC
  5
26BC2
  8
0
 10
4892.0669420298008845
 20
10.2502441126164996
 30
0.0
 40
0.0169056959240676
 50
210.3221163550932999
 51
233.3238268157695927
  0
ARC
  5
26BC3
  8
0
 10
4892.555970251330109
 20
10.5217589611756601
 30
0.0
 40
0.5762484492321509
 50
198.6651327901494142
 51
209.0772284859600916
  0
ARC
  5
26BC4
  8
0
 10
4892.0179814860766783
 20
10.3398335168262197
 30
0.0
 40
0.0083342728682754
 50
118.5667107334361958
 51
197.4202449210359021
  0
LINE
  5
26BC5
  8
0
 10
4892.0139961896202294
 20
10.3471531832388202
 30
0.0
 11
4892.0547863236197372
 21
10.3699033269388199
 31
0.0
  0
ARC
  5
26BC6
  8
0
 10
4892.1798702784626585
 20
10.4213892657251801
 30
0.0
 40
0.1433743919199222
 50
190.0330448115653894
 51
202.7575591965467083
  0
ARC
  5
26BC7
  8
0
 10
4891.9283755265387299
 20
10.3112774843856503
 30
0.0
 40
0.1393437441498877
 50
24.880570288153649
 51
37.6590514647769794
  0
ARC
  5
26BC8
  8
0
 10
4890.8534889056181783
 20
9.7635309268511001
 30
0.0
 40
1.345660794585372
 50
21.4452116693176009
 51
26.7830274690267807
  0
ARC
  5
26BC9
  8
0
 10
4892.0107420413578438
 20
10.2111953488392704
 30
0.0
 40
0.1050530388405278
 50
9.9086610737344341
 51
24.9561490183738286
  0
ARC
  5
26BCA
  8
0
 10
4892.1757885085089583
 20
10.2874497453346798
 30
0.0
 40
0.0847010269272387
 50
204.6343767812508077
 51
223.3814391842975056
  0
ARC
  5
26BCB
  8
0
 10
4891.6622610500317023
 20
10.1158881445121605
 30
0.0
 40
0.4099366650680331
 50
20.9863302813533288
 51
28.8498788610247487
  0
ARC
  5
26BCC
  8
0
 10
4892.189388216927
 20
10.3607749115460201
 30
0.0
 40
0.1745400828046755
 50
195.6505609335355871
 51
214.1856482088643077
  0
LINE
  5
26BCD
  8
0
 10
4891.7139357694877617
 20
11.1920125085239999
 30
0.0
 11
4891.6755898735191295
 21
11.1706176675388207
 31
0.0
  0
ARC
  5
26BCE
  8
0
 10
4891.6794280901121965
 20
11.1637398362040301
 30
0.0
 40
0.0078763234114598
 50
119.1639737399762993
 51
198.6914169220538042
  0
ARC
  5
26BCF
  8
0
 10
4907.9096492027820204
 20
16.70051418484843
 30
0.0
 40
17.1565190302751311
 50
198.8364847925759875
 51
199.1948836389385065
  0
ARC
  5
26BD0
  8
0
 10
4891.7145450863818041
 20
11.0627897997526397
 30
0.0
 40
0.0081938899315689
 50
201.7451388716484928
 51
292.7310774906430879
  0
LINE
  5
26BD1
  8
0
 10
4891.7177112576828222
 20
11.0552323404238297
 30
0.0
 11
4891.7272855321198222
 21
11.0597276980388202
 31
0.0
  0
LINE
  5
26BD2
  8
0
 10
4891.7720186559508875
 20
11.0858949312186095
 30
0.0
 11
4891.7302432040187341
 21
11.0625952398537297
 31
0.0
  0
ARC
  5
26BD3
  8
0
 10
4891.7341289163650799
 20
11.0556283068270407
 30
0.0
 40
0.0079772749874404
 50
119.1500000352639006
 51
149.0771340440713004
  0
ARC
  5
26BD4
  8
0
 10
4891.735310844185733
 20
11.0549202968197395
 30
0.0
 40
0.0093550382284562
 50
149.0771340440674919
 51
190.1564935097676141
  0
ARC
  5
26BD5
  8
0
 10
4892.0470682197028509
 20
11.1107699446421506
 30
0.0
 40
0.3260754896530483
 50
190.1564935097676994
 51
209.1248823430856874
  0
ARC
  5
26BD6
  8
0
 10
4891.7703891004948673
 20
10.9566149047346109
 30
0.0
 40
0.0093498807507175
 50
209.1248823430894106
 51
289.6309723813146206
  0
LINE
  5
26BD7
  8
0
 10
4891.7735302936198423
 20
10.9478084766388193
 30
0.0
 11
4891.8146913259870416
 21
10.9654266052098404
 31
0.0
  0
ARC
  5
26BD8
  8
0
 10
4892.0458868584119045
 20
11.1608685082334098
 30
0.0
 40
0.2920691523706969
 50
189.1760821811924984
 51
195.7023678542830964
  0
ARC
  5
26BD9
  8
0
 10
4891.043220933928751
 20
10.7325890903908299
 30
0.0
 40
0.8099204509006678
 50
25.8631339084266791
 51
28.1177453361069603
  0
ARC
  5
26BDA
  8
0
 10
4890.5320747929235949
 20
10.5788471877789494
 30
0.0
 40
1.3396112113544429
 50
16.7727656116045587
 51
22.2410265318026603
  0
ARC
  5
26BDB
  8
0
 10
4890.7306645278549695
 20
10.7121555353504991
 30
0.0
 40
1.1132241852817799
 50
11.7458854570529301
 51
13.1506582349895194
  0
ARC
  5
26BDC
  8
0
 10
4891.8822401856477882
 20
10.9873654233405098
 30
0.0
 40
0.0785057369770737
 50
198.4878685771475091
 51
218.2377405435252911
  0
ARC
  5
26BDD
  8
0
 10
4891.3082023571823811
 20
10.8425493024021993
 30
0.0
 40
0.4669320242557505
 50
15.59648082861648
 51
24.4375328165984591
  0
ARC
  5
26BDE
  8
0
 10
4891.9095353709026313
 20
11.0616187782628295
 30
0.0
 40
0.1781250253963118
 50
188.3604094039131098
 51
211.6736042413095049
  0
ARC
  5
26BDF
  8
0
 10
4900.1315016862854463
 20
14.0150977531947003
 30
0.0
 40
8.8786885455230511
 50
200.1443292927390019
 51
201.2125475853833052
  0
LINE
  5
26BE0
  8
0
 10
4891.8206410559705546
 20
10.89088491283111
 30
0.0
 11
4891.7828753434196187
 21
10.8698215992388203
 31
0.0
  0
ARC
  5
26BE1
  8
0
 10
4891.7867107584170299
 20
10.8629448474075794
 30
0.0
 40
0.007874015744993
 50
119.149999975781796
 51
200.5543725280267893
  0
ARC
  5
26BE2
  8
0
 10
4901.0582299246789262
 20
14.3394558023159409
 30
0.0
 40
9.9097524269333945
 50
200.554372528026903
 51
201.1737021593208112
  0
ARC
  5
26BE3
  8
0
 10
4891.8248306629584476
 20
10.7629309603071199
 30
0.0
 40
0.0078742277309508
 50
201.1737021593334021
 51
292.1626240401657242
  0
LINE
  5
26BE4
  8
0
 10
4891.8657272359378112
 20
10.8088549538492291
 30
0.0
 11
4891.8251678249025645
 21
10.7862334928150894
 31
0.0
  0
ARC
  5
26BE5
  8
0
 10
4891.8291426684663747
 20
10.7791067509274399
 30
0.0
 40
0.0081602592661623
 50
119.1500000089509967
 51
188.0968540054718972
  0
ARC
  5
26BE6
  8
0
 10
4891.9842777975536592
 20
10.8151279412013697
 30
0.0
 40
0.1673931669008548
 50
192.8297784665747088
 51
200.8064992820677048
  0
ARC
  5
26BE7
  8
0
 10
4892.5723210292317162
 20
11.0160103175897301
 30
0.0
 40
0.7887256690955046
 50
199.2736340601979066
 51
205.4582044762834983
  0
ARC
  5
26BE8
  8
0
 10
4891.8679218609795498
 20
10.6805182906172593
 30
0.0
 40
0.0085131476261796
 50
204.5990535690590946
 51
294.4025438445985969
  0
LINE
  5
26BE9
  8
0
 10
4891.8714390241848378
 20
10.6727656623210692
 30
0.0
 11
4891.8997873928819899
 21
10.6860194292212807
 31
0.0
  0
ARC
  5
26BEA
  8
0
 10
4892.4764037772956726
 20
10.9368889221023302
 30
0.0
 40
0.6288258560050148
 50
203.512496434684806
 51
205.6424732859140931
  0
ARC
  5
26BEB
  8
0
 10
4892.0287524743052927
 20
10.7220021896358499
 30
0.0
 40
0.1322697193411324
 50
205.64247328591361
 51
212.903709517358692
  0
ARC
  5
26BEC
  8
0
 10
4891.9351630926930738
 20
10.6614479078368092
 30
0.0
 40
0.0207986764873901
 50
212.9037095173571004
 51
230.7016406944239009
  0
ARC
  5
26BED
  8
0
 10
4891.927621675876253
 20
10.6522335586399706
 30
0.0
 40
0.0088916534032077
 50
230.7016406944308926
 51
269.7677461578916791
  0
ARC
  5
26BEE
  8
0
 10
4891.9276240404024065
 20
10.65281687146582
 30
0.0
 40
0.0094749710214813
 50
269.7677461578916791
 51
291.1626497788432744
  0
LINE
  5
26BEF
  8
0
 10
4891.9310446634190157
 20
10.6439808987388194
 30
0.0
 11
4891.9755515935194126
 21
10.6636878008388205
 31
0.0
  0
ARC
  5
26BF0
  8
0
 10
4892.0797049193752173
 20
10.7412520437897392
 30
0.0
 40
0.1452501463827486
 50
215.3008563801494972
 51
226.0562706140042906
  0
ARC
  5
26BF1
  8
0
 10
4891.769837158341943
 20
10.6244124473333699
 30
0.0
 40
0.2094301368996031
 50
3.3550000198413499
 51
10.8089290114638708
  0
ARC
  5
26BF2
  8
0
 10
4891.3087367995403838
 20
10.4704785722686804
 30
0.0
 40
0.6942418710394304
 50
16.1589170028318208
 51
26.6598187660530499
  0
ARC
  5
26BF3
  8
0
 10
4891.6608289626374244
 20
10.6142368747744804
 30
0.0
 40
0.316457257375408
 50
32.0098067574284002
 51
37.807574548675511
  0
ARC
  5
26BF4
  8
0
 10
4892.0653813904846174
 20
10.8052785319010294
 30
0.0
 40
0.1545559446467015
 50
178.9062274717686876
 51
191.8350345388899996
  0
LINE
  5
26BF5
  8
0
 10
4891.929171230319298
 20
10.7819796037392805
 30
0.0
 11
4891.8847548208195803
 21
10.7572068764388202
 31
0.0
  0
ARC
  5
26BF6
  8
0
 10
4891.8890032182853247
 20
10.7495896868058196
 30
0.0
 40
0.0087218380479996
 50
119.1500764779988941
 51
168.7523048182418108
  0
ARC
  5
26BF7
  8
0
 10
4891.8976329910838103
 20
10.7478734791479997
 30
0.0
 40
0.0175206076932377
 50
168.752304818256107
 51
187.1498865530724913
  0
ARC
  5
26BF8
  8
0
 10
4891.9711306670997146
 20
10.7570930918051904
 30
0.0
 40
0.0915942847815081
 50
187.1498865530728892
 51
200.1725500539309905
  0
ARC
  5
26BF9
  8
0
 10
4892.3253543134187566
 20
10.8661720871560608
 30
0.0
 40
0.4621278870384422
 50
197.7212138627506874
 51
202.9441028295948115
  0
ARC
  5
26BFA
  8
0
 10
4891.7089906463916122
 20
10.6171154597139807
 30
0.0
 40
0.211908576542764
 50
13.0191244809302908
 51
32.2230754229601004
  0
ARC
  5
26BFB
  8
0
 10
4892.0184590636417852
 20
10.7460684622769307
 30
0.0
 40
0.1311728477732485
 50
186.9884665429929953
 51
218.2537333608991048
  0
ARC
  5
26BFC
  8
0
 10
4890.3524777412030744
 20
10.1543069548808003
 30
0.0
 40
1.6487441027040111
 50
21.4879206914410403
 51
23.390638346760511
  0
ARC
  5
26BFD
  8
0
 10
4891.6481460704462734
 20
10.7147413810481993
 30
0.0
 40
0.2370631311530368
 50
23.3906383467605785
 51
30.7962638230925592
  0
ARC
  5
26BFE
  8
0
 10
4891.9957931271474081
 20
10.8599258866894193
 30
0.0
 40
0.1459666632354284
 50
189.3885231087305101
 51
201.7382072980446992
  0
LINE
  5
26BFF
  8
0
 10
4891.9870188079703439
 20
10.5742529335388191
 30
0.0
 11
4891.9447341629193033
 21
10.5499232357388202
 31
0.0
  0
ARC
  5
26C00
  8
0
 10
4891.9491356072621784
 20
10.5422735923585407
 30
0.0
 40
0.0088255173300808
 50
119.9152196741459022
 51
185.8960266327543991
  0
ARC
  5
26C01
  8
0
 10
4891.9928987077046258
 20
10.5467930015692293
 30
0.0
 40
0.0528213582693403
 50
185.8960266327505906
 51
198.0918485598855057
  0
ARC
  5
26C02
  8
0
 10
4892.2106612266361481
 20
10.6121693843466307
 30
0.0
 40
0.2801733403181208
 50
196.971097516084086
 51
200.6166515476222969
  0
ARC
  5
26C03
  8
0
 10
4892.3695172322995859
 20
10.6625970837175306
 30
0.0
 40
0.4466975079195213
 50
199.4959005038068085
 51
208.8794982429292872
  0
ARC
  5
26C04
  8
0
 10
4892.0122843314729835
 20
10.4655606743374392
 30
0.0
 40
0.0387285237368529
 50
208.8794982429305094
 51
220.1569934512693862
  0
ARC
  5
26C05
  8
0
 10
4891.9911455872888837
 20
10.4477242312273901
 30
0.0
 40
0.0110701577601697
 50
220.1569934512710915
 51
247.9609884897730012
  0
ARC
  5
26C06
  8
0
 10
4891.9899783187356661
 20
10.4448407942189796
 30
0.0
 40
0.0079594143032366
 50
247.960988489773996
 51
292.9314682392791269
  0
LINE
  5
26C07
  8
0
 10
4891.9930795439686335
 20
10.4375104000888204
 30
0.0
 11
4892.0360817079135813
 21
10.4576740949363707
 31
0.0
  0
ARC
  5
26C08
  8
0
 10
4892.0772009453303326
 20
10.4801271206561708
 30
0.0
 40
0.0605455955012976
 50
207.8408773714139954
 51
233.5414191795869101
  0
ARC
  5
26C09
  8
0
 10
4891.8796707884011994
 20
10.4134110391253305
 30
0.0
 40
0.1625533569471121
 50
6.3646811786062267
 51
15.8010944116703005
  0
ARC
  5
26C0A
  8
0
 10
4891.5383905331127607
 20
10.3168314202964595
 30
0.0
 40
0.517236081959549
 50
15.80109441167013
 51
29.8470702516469402
  0
ARC
  5
26C0B
  8
0
 10
4891.7623755105969394
 20
10.4453533059620405
 30
0.0
 40
0.258997538683125
 50
29.8470702516473416
 51
36.2006846716419517
  0
ARC
  5
26C0C
  8
0
 10
4892.0767151083173303
 20
10.6037200200706696
 30
0.0
 40
0.1054789469159456
 50
182.9338917382013108
 51
199.3448900235223107
  0
ARC
  5
26C0D
  8
0
 10
4891.9975940383428679
 20
10.5722704324333403
 30
0.0
 40
0.0439733601523916
 50
190.0659846950042891
 51
200.7654982660149017
  0
ARC
  5
26C0E
  8
0
 10
4892.4507419064975693
 20
10.9235467864516398
 30
0.0
 40
0.612626145757286
 50
215.8694188978988961
 51
216.6164291071690116
  0
ARC
  5
26C0F
  8
0
 10
4891.7409636086604223
 20
10.3934765850126904
 30
0.0
 40
0.243910618295493
 50
17.406556591111741
 51
30.3154087178519092
  0
ARC
  5
26C10
  8
0
 10
4892.0721805305311136
 20
10.5399819584079104
 30
0.0
 40
0.1229047085457392
 50
190.9704501191966983
 51
216.7515151897424062
  0
LINE
  5
26C11
  8
0
 10
4891.9450168608200329
 20
10.5231093746388193
 30
0.0
 11
4891.9285748596194026
 21
10.5138741434388194
 31
0.0
  0
ARC
  5
26C12
  8
0
 10
4891.9333895986583229
 20
10.5073603960150503
 30
0.0
 40
0.0081000381175831
 50
126.4705431258073958
 51
180.7112410557506053
  0
ARC
  5
26C13
  8
0
 10
4891.883839150374115
 20
10.5015379036344392
 30
0.0
 40
0.041844102289219
 50
5.0237984795304449
 51
7.8595001223941221
  0
ARC
  5
26C14
  8
0
 10
4892.0287395904342702
 20
10.5338359124046903
 30
0.0
 40
0.1071151617863954
 50
195.504695578087194
 51
201.7668789546827099
  0
ARC
  5
26C15
  8
0
 10
4893.0343043933626177
 20
10.9220492089193897
 30
0.0
 40
1.1850095560344649
 50
201.1692165347880916
 51
203.2532793436280087
  0
ARC
  5
26C16
  8
0
 10
4892.4705422319293575
 20
10.6686976724114402
 30
0.0
 40
0.5671120280537608
 50
202.222695074515201
 51
207.7285478329949058
  0
ARC
  5
26C17
  8
0
 10
4891.3051751124003204
 20
10.1534329801962304
 30
0.0
 40
0.7611037968152355
 50
18.4381764125066603
 51
22.4981434445689992
  0
ARC
  5
26C18
  8
0
 10
4892.2311036747541948
 20
10.5210606334470604
 30
0.0
 40
0.2401630188289173
 50
205.1316288442413907
 51
211.8981678712380869
  0
LINE
  5
26C19
  8
0
 10
4892.0177121403621641
 20
10.4209586300131907
 30
0.0
 11
4892.0136758102717067
 21
10.4190635778060301
 31
0.0
  0
LINE
  5
26C1A
  8
0
 10
4892.0136758102717067
 20
10.4190635778060301
 30
0.0
 11
4891.9783017988193023
 21
10.4024555212388208
 31
0.0
  0
ARC
  5
26C1B
  8
0
 10
4891.9749033863254226
 20
10.40969390473286
 30
0.0
 40
0.0079964619110244
 50
217.4635138001868881
 51
295.1499999534540848
  0
ARC
  5
26C1C
  8
0
 10
4891.2351339624174216
 20
10.1395054903774202
 30
0.0
 40
0.7795585554741314
 50
21.9311763928090606
 51
25.9677620105406817
  0
ARC
  5
26C1D
  8
0
 10
4892.1910297228496347
 20
10.5640879542693007
 30
0.0
 40
0.2682814552663819
 50
198.0757468995170996
 51
209.8231915038510067
  0
ARC
  5
26C1E
  8
0
 10
4891.9443731778392248
 20
10.4683960535068099
 30
0.0
 40
0.0078543535802189
 50
202.9587177568120921
 51
258.3580494661388229
  0
LINE
  5
26C1F
  8
0
 10
4891.9371409979194141
 20
10.4653323231388207
 30
0.0
 11
4891.8958855718319683
 21
10.5639495095397606
 31
0.0
  0
ARC
  5
26C20
  8
0
 10
4891.9033859313567518
 20
10.5666216416668401
 30
0.0
 40
0.0079621406113102
 50
119.695560960893701
 51
199.6093160390502135
  0
LINE
  5
26C21
  8
0
 10
4891.8994415556198874
 20
10.5735381135388202
 30
0.0
 11
4891.9369636769561112
 21
10.5944655673907704
 31
0.0
  0
LINE
  5
26C22
  8
0
 10
4891.9534762509274515
 20
10.5549532498047896
 30
0.0
 11
4891.8996550235578979
 21
10.6859572819795901
 31
0.0
  0
ARC
  5
26C23
  8
0
 10
4891.701879761138116
 20
10.6701782872130408
 30
0.0
 40
0.1531935651436889
 50
11.2192817404629501
 51
32.3337040226192016
  0
ARC
  5
26C24
  8
0
 10
4892.0289974375473321
 20
10.8008603696391106
 30
0.0
 40
0.2035988613969919
 50
193.852584601194792
 51
209.7004011618861057
  0
ARC
  5
26C25
  8
0
 10
4901.1189299613142794
 20
14.36708035055468
 30
0.0
 40
9.9270488769797751
 50
203.4419081432691883
 51
203.8080800591220054
  0
LINE
  5
26C26
  8
0
 10
4892.3232667911979661
 20
9.8409030314261958
 30
0.0
 11
4892.2815293462690533
 21
9.8176245379657505
 31
0.0
  0
ARC
  5
26C27
  8
0
 10
4892.2863301257812054
 20
9.8102858436592175
 30
0.0
 40
0.0087694879004153
 50
123.191649228498207
 51
184.7368889765513984
  0
ARC
  5
26C28
  8
0
 10
4892.6405592605633501
 20
9.936050189918431
 30
0.0
 40
0.3843769035857165
 50
199.2125944086787968
 51
215.7740409068858014
  0
ARC
  5
26C29
  8
0
 10
4892.3347679569988031
 20
9.7180840086816307
 30
0.0
 40
0.0090644940774433
 50
228.0050699039373114
 51
296.604104797081618
  0
LINE
  5
26C2A
  8
0
 10
4892.3388272472520839
 20
9.7099792436932635
 30
0.0
 11
4892.353765014219789
 21
9.7169925076388228
 31
0.0
  0
ARC
  5
26C2B
  8
0
 10
4890.7164624236265809
 20
9.039870737539891
 30
0.0
 40
1.7602592542855131
 50
26.4444077091246612
 51
27.1688882090918788
  0
LINE
  5
26C2C
  8
0
 10
4892.3665992581945829
 20
9.8261213299247725
 30
0.0
 11
4892.3227351584191638
 21
9.8016351286388232
 31
0.0
  0
ARC
  5
26C2D
  8
0
 10
4892.3261029029326892
 20
9.7956022172993631
 30
0.0
 40
0.0069092490434516
 50
119.1715104327003019
 51
159.5392032804199118
  0
ARC
  5
26C2E
  8
0
 10
4892.3331381922607761
 20
9.792977315642295
 30
0.0
 40
0.0144182705921218
 50
159.5392032804176097
 51
185.4042612982505034
  0
ARC
  5
26C2F
  8
0
 10
4892.3395471527219343
 20
9.7935836216953245
 30
0.0
 40
0.020855846317214
 50
185.4042612982480023
 51
197.519612458708508
  0
ARC
  5
26C30
  8
0
 10
4892.664780972936569
 20
9.9112837348210601
 30
0.0
 40
0.3667151585409367
 50
199.7598299078302944
 51
211.9929625049450976
  0
ARC
  5
26C31
  8
0
 10
4892.4810431090090788
 20
9.7937798960902196
 30
0.0
 40
0.1486472886564717
 50
211.1027502686253001
 51
220.6769201100993882
  0
ARC
  5
26C32
  8
0
 10
4892.3797763062302693
 20
9.7083230173789854
 30
0.0
 40
0.016190803924423
 50
224.908739685921006
 51
240.2532697391625049
  0
ARC
  5
26C33
  8
0
 10
4892.3763304171670825
 20
9.7021759750792302
 30
0.0
 40
0.0091442235976672
 50
239.888943613024793
 51
279.8049580352137014
  0
ARC
  5
26C34
  8
0
 10
4892.3759496456768829
 20
9.7033436437539322
 30
0.0
 40
0.0103611807932206
 50
280.7802592533607822
 51
295.0384041548326763
  0
LINE
  5
26C35
  8
0
 10
4892.3803347631092038
 20
9.6939561620610508
 30
0.0
 11
4892.4035373420192627
 21
9.7048497454388212
 31
0.0
  0
ARC
  5
26C36
  8
0
 10
4892.5343104014436904
 20
9.7895588828223534
 30
0.0
 40
0.1558115240517788
 50
212.9334224583658965
 51
220.4159195531233877
  0
ARC
  5
26C37
  8
0
 10
4892.4328416737480438
 20
9.7031536016857132
 30
0.0
 40
0.0225382134893868
 50
220.415919553124894
 51
245.5949382447248013
  0
ARC
  5
26C38
  8
0
 10
4892.4269841948016619
 20
9.6913531676742082
 30
0.0
 40
0.0093831607594396
 50
248.3947572901369085
 51
294.6153130743433053
  0
LINE
  5
26C39
  8
0
 10
4892.4308925044197167
 20
9.6828227033388234
 30
0.0
 11
4892.478262914676634
 21
9.7051537507730732
 31
0.0
  0
LINE
  5
26C3A
  8
0
 10
4892.418797445268865
 20
9.816482385738821
 30
0.0
 11
4892.3738665959190257
 21
9.7905611343388248
 31
0.0
  0
ARC
  5
26C3B
  8
0
 10
4892.3788783856625741
 20
9.7818739005924851
 30
0.0
 40
0.0100292605205965
 50
119.9812638840896994
 51
189.8146762642280976
  0
ARC
  5
26C3C
  8
0
 10
4896.2611725010447117
 20
10.4534866965739806
 30
0.0
 40
3.9499875529479551
 50
189.8146762642280976
 51
189.911992212514491
  0
ARC
  5
26C3D
  8
0
 10
4892.6620993495425864
 20
9.8729843345347117
 30
0.0
 40
0.3084210625364095
 50
198.8071309177967123
 51
213.0346644430732113
  0
ARC
  5
26C3E
  8
0
 10
4892.4673056296724099
 20
9.8341707941710563
 30
0.0
 40
0.0704950668220402
 50
177.4236311972304065
 51
202.7128728278613892
  0
ARC
  5
26C3F
  8
0
 10
4892.3359262622552706
 20
9.7513484014593619
 30
0.0
 40
0.1054043114980275
 50
38.1661649172826571
 51
54.6687750670608494
  0
ARC
  5
26C40
  8
0
 10
4891.9854678209876511
 20
9.5134763079759477
 30
0.0
 40
0.5287601029217293
 50
21.2540307304643612
 51
34.9631998918232298
  0
ARC
  5
26C41
  8
0
 10
4892.402433837092758
 20
9.6756592938130925
 30
0.0
 40
0.081363210350663
 50
0.4801710257033622
 51
21.2540307304645992
  0
ARC
  5
26C42
  8
0
 10
4892.5011624893058979
 20
9.7217192712035203
 30
0.0
 40
0.0485883853851374
 50
211.4065476526583041
 51
249.0558451577132928
  0
ARC
  5
26C43
  8
0
 10
4892.2687956312756796
 20
9.6689319514926062
 30
0.0
 40
0.1470712566510166
 50
14.0237052225545096
 51
41.5301873760864666
  0
ARC
  5
26C44
  8
0
 10
4892.4855658507458429
 20
9.7831104805502971
 30
0.0
 40
0.1079661195846146
 50
188.8810201711457069
 51
226.6728724274890112
  0
ARC
  5
26C45
  8
0
 10
4891.9315797578574347
 20
9.5372658828564933
 30
0.0
 40
0.5221871647265557
 50
29.8048034533063415
 51
33.5843888875197507
  0
ARC
  5
26C46
  8
0
 10
4892.2861777855960099
 20
9.7727210101591933
 30
0.0
 40
0.0965360420337463
 50
33.5843888875202623
 51
50.3025371673480706
  0
ARC
  5
26C47
  8
0
 10
4892.5410998568877403
 20
9.8680329449879611
 30
0.0
 40
0.1944025589279009
 50
186.211581513935414
 51
194.7349411535371075
  0
ARC
  5
26C48
  8
0
 10
4891.6646380980209869
 20
9.4355754693355234
 30
0.0
 40
0.7733577361767359
 50
29.0868286672649212
 51
31.6086125649863412
  0
ARC
  5
26C49
  8
0
 10
4892.2181408193127936
 20
9.7762073169236405
 30
0.0
 40
0.1234382657280284
 50
31.6086125649855205
 51
44.6068232946250092
  0
ARC
  5
26C4A
  8
0
 10
4896.135428841290377
 20
10.6230387569692599
 30
0.0
 40
3.9041240034009261
 50
191.2274305051923875
 51
191.6526714775887115
  0
ARC
  5
26C4B
  8
0
 10
4892.2337928601264139
 20
9.6858387920329374
 30
0.0
 40
0.1284436942301193
 50
15.8454058757560805
 51
40.1529906301262471
  0
ARC
  5
26C4C
  8
0
 10
4892.4240429986803065
 20
9.7869931702655304
 30
0.0
 40
0.0938841190056125
 50
191.2587395292960082
 51
224.7396569765967058
  0
ARC
  5
26C4D
  8
0
 10
4892.1443442729287199
 20
9.6742591114113825
 30
0.0
 40
0.1831592484264481
 50
19.7527784187831088
 51
37.1449051071553882
  0
ARC
  5
26C4E
  8
0
 10
4892.3855699412706599
 20
9.8049552166649292
 30
0.0
 40
0.0973253009937261
 50
191.9178331611161923
 51
224.9798503648154053
  0
LINE
  5
26C4F
  8
0
 10
4892.4348412408144213
 20
9.5804711972986834
 30
0.0
 11
4892.3937931455193393
 21
9.5611995485388253
 31
0.0
  0
ARC
  5
26C50
  8
0
 10
4892.3903630523645916
 20
9.5685055550157951
 30
0.0
 40
0.0080711380664261
 50
229.6217177251079136
 51
295.1495613773827813
  0
ARC
  5
26C51
  8
0
 10
4893.0111472475800838
 20
9.9771626747637843
 30
0.0
 40
0.7509699464533602
 50
203.0028444032932953
 51
213.5290537895247098
  0
ARC
  5
26C52
  8
0
 10
4892.3265625211888619
 20
9.6845096490442391
 30
0.0
 40
0.0067210078328424
 50
112.3367654493338961
 51
186.9101804676747065
  0
LINE
  5
26C53
  8
0
 10
4892.3240082037182219
 20
9.6907263530388246
 30
0.0
 11
4892.3583395697642118
 21
9.7098760351444362
 31
0.0
  0
LINE
  5
26C54
  8
0
 10
4892.3496412978493026
 20
9.7150564276742255
 30
0.0
 11
4892.3537104506767719
 21
9.7072939602325032
 31
0.0
  0
ARC
  5
26C55
  8
0
 10
4891.7659964567701536
 20
9.3029791473632049
 30
0.0
 40
0.6689290743347152
 50
25.5232968882109894
 51
31.7479982407054386
  0
ARC
  5
26C56
  8
0
 10
4893.0182749997929932
 20
9.9867546485696064
 30
0.0
 40
0.7597235006773123
 50
205.8955565338181088
 51
211.3757385950902119
  0
ARC
  5
26C57
  8
0
 10
4889.0134943317416401
 20
7.7818326919482512
 30
0.0
 40
3.8664947604096249
 50
29.1989130540880915
 51
29.6265789914182704
  0
ARC
  5
26C58
  8
0
 10
4890.6345512566758771
 20
8.6877704270309675
 30
0.0
 40
2.0094679071521142
 50
26.3752024524755484
 51
29.1989130540880204
  0
ARC
  5
26C59
  8
0
 10
4892.0599125012777222
 20
9.3945571504774392
 30
0.0
 40
0.4184926873399413
 50
23.4624137336840093
 51
26.3752024524753885
  0
LINE
  5
26C5A
  8
0
 10
4892.4593000069253321
 20
9.5698211491418714
 30
0.0
 11
4892.4438048234196685
 21
9.5611789208389144
 31
0.0
  0
LINE
  5
26C5B
  8
0
 10
4892.4438048234196685
 20
9.5611789208389144
 30
0.0
 11
4892.4187943891192845
 21
9.5472296876388238
 31
0.0
  0
ARC
  5
26C5C
  8
0
 10
4892.4228816699469462
 20
9.5399013515843105
 30
0.0
 40
0.0083910889572152
 50
119.1500050937889057
 51
194.7228608252850961
  0
ARC
  5
26C5D
  8
0
 10
4892.8425544971432828
 20
9.7150611209679951
 30
0.0
 40
0.4630717927285643
 50
202.5110371386940926
 51
215.9837126458295984
  0
ARC
  5
26C5E
  8
0
 10
4892.4747668041900397
 20
9.4496128906823795
 30
0.0
 40
0.0095867863618438
 50
223.771888959211509
 51
290.3574282491184135
  0
LINE
  5
26C5F
  8
0
 10
4892.4781018126195704
 20
9.4406248880388244
 30
0.0
 11
4892.5208732395203697
 21
9.4607051173388221
 31
0.0
  0
ARC
  5
26C60
  8
0
 10
4892.3820128429260876
 20
9.390922402342424
 30
0.0
 40
0.1554086131929327
 50
16.2555190248711803
 51
26.6812957092327103
  0
ARC
  5
26C61
  8
0
 10
4892.6046956416121247
 20
9.5206677979802752
 30
0.0
 40
0.1133058781217736
 50
214.6262156998116097
 51
229.5660088351596073
  0
ARC
  5
26C62
  8
0
 10
4891.5914752440130542
 20
9.0081845072746471
 30
0.0
 40
1.0337095997469821
 50
25.9612875434408394
 51
32.9100347282857015
  0
ARC
  5
26C63
  8
0
 10
4892.3337023614849386
 20
9.4885371816568327
 30
0.0
 40
0.1496056546728476
 50
32.9100347282858294
 51
42.9493047204026865
  0
ARC
  5
26C64
  8
0
 10
4893.3466451547892575
 20
9.8345731832782572
 30
0.0
 40
0.9358343140588605
 50
195.1198483202240084
 51
196.7470803462647098
  0
ARC
  5
26C65
  8
0
 10
4891.9456496339853402
 20
9.2875310242056859
 30
0.0
 40
0.5589694514784853
 50
28.7747818275890701
 51
31.0304037182096195
  0
ARC
  5
26C66
  8
0
 10
4892.2701139913187944
 20
9.3897998972940702
 30
0.0
 40
0.2013280371690972
 50
22.6575799784822998
 51
38.5680248759901474
  0
ARC
  5
26C67
  8
0
 10
4892.5562887336409403
 20
9.5591294883015632
 30
0.0
 40
0.1360125200140367
 50
198.7914539339917894
 51
222.4341509204757017
  0
LINE
  5
26C68
  8
0
 10
4892.4227559316395855
 20
9.5196010237005755
 30
0.0
 11
4892.4131518868198327
 21
9.5140210294388243
 31
0.0
  0
ARC
  5
26C69
  8
0
 10
4892.4172184365515932
 20
9.5070218598934577
 30
0.0
 40
0.00809476380468
 50
120.1567850033273999
 51
199.9303885689564879
  0
ARC
  5
26C6A
  8
0
 10
4894.3066334404647932
 20
10.5045374630477895
 30
0.0
 40
2.1445870480900862
 50
207.8020593243585097
 51
211.3704632454513899
  0
ARC
  5
26C6B
  8
0
 10
4892.4820387391264376
 20
9.3934359492690138
 30
0.0
 40
0.0083863414492304
 50
219.2421340008312995
 51
292.7074851760376077
  0
LINE
  5
26C6C
  8
0
 10
4892.4852760896692416
 20
9.3856996527155001
 30
0.0
 11
4892.5156015794191262
 21
9.3999374344388595
 31
0.0
  0
LINE
  5
26C6D
  8
0
 10
4892.5587821221197373
 20
9.4430496588388255
 30
0.0
 11
4892.5159414425188515
 21
9.4191005377388226
 31
0.0
  0
ARC
  5
26C6E
  8
0
 10
4892.521257353965666
 20
9.4119037433393604
 30
0.0
 40
0.0089472210288823
 50
126.4514248927305005
 51
176.8193016452279096
  0
ARC
  5
26C6F
  8
0
 10
4892.5600353053041545
 20
9.4157903238282383
 30
0.0
 40
0.0478316812817954
 50
184.0643325374275037
 51
190.114586878737299
  0
ARC
  5
26C70
  8
0
 10
4892.5725398213080553
 20
9.4244171371255092
 30
0.0
 40
0.0619775704016673
 50
195.9457218736920083
 51
203.2645274043206882
  0
ARC
  5
26C71
  8
0
 10
4892.6235931007313411
 20
9.4765400426516297
 30
0.0
 40
0.085607087612905
 50
188.5963662478320941
 51
207.6050460467778009
  0
ARC
  5
26C72
  8
0
 10
4892.482347066940747
 20
9.3896435691387747
 30
0.0
 40
0.093244453402178
 50
34.9424617662537287
 51
52.6261085175978565
  0
ARC
  5
26C73
  8
0
 10
4891.9054512286938916
 20
8.9865595285987112
 30
0.0
 40
0.7970097210345753
 50
25.8938629157092706
 51
34.9424617662537287
  0
ARC
  5
26C74
  8
0
 10
4892.5064362451375928
 20
9.2783026263915733
 30
0.0
 40
0.1289550637644774
 50
12.0053953386703398
 51
25.8938629157095015
  0
ARC
  5
26C75
  8
0
 10
4892.6690032852893637
 20
9.3637280012419009
 30
0.0
 40
0.0690039644272517
 50
210.6080582148908036
 51
238.1311558193733049
  0
LINE
  5
26C76
  8
0
 10
4892.6224448086186385
 20
9.3346180032388215
 30
0.0
 11
4892.5776438446191605
 21
9.3135840035388231
 31
0.0
  0
ARC
  5
26C77
  8
0
 10
4892.5740423699389794
 20
9.3212548954181162
 30
0.0
 40
0.0084742670535462
 50
248.4930625994495017
 51
295.1500000094047209
  0
ARC
  5
26C78
  8
0
 10
4892.5761399243674532
 20
9.3265779573720611
 30
0.0
 40
0.0141956937236945
 50
219.7712393878211117
 51
248.493062599448308
  0
ARC
  5
26C79
  8
0
 10
4892.8893784766669341
 20
9.5687848333701933
 30
0.0
 40
0.4101446245433228
 50
204.3102694417156897
 51
217.7836778563251983
  0
ARC
  5
26C7A
  8
0
 10
4892.4062996963511978
 20
9.2834304394070184
 30
0.0
 40
0.1589612967140962
 50
20.3319906009169209
 51
40.963587021895961
  0
ARC
  5
26C7B
  8
0
 10
4892.6497593734047769
 20
9.4276863109680082
 30
0.0
 40
0.1297573513286106
 50
197.9753555384021126
 51
223.3202220843836869
  0
ARC
  5
26C7C
  8
0
 10
4899.0820519551962207
 20
13.0944015034779895
 30
0.0
 40
7.5240519391996052
 50
208.9662957831552035
 51
209.2373961358177041
  0
LINE
  5
26C7D
  8
0
 10
4892.5447857744447901
 20
9.3463562322037852
 30
0.0
 11
4892.5253348695196109
 21
9.3355034580388239
 31
0.0
  0
ARC
  5
26C7E
  8
0
 10
4892.5298650267995981
 20
9.3286657545445397
 30
0.0
 40
0.0082022261648562
 50
123.5255139743793933
 51
191.4030741419126969
  0
ARC
  5
26C7F
  8
0
 10
4893.0841508887533564
 20
9.5951595716329692
 30
0.0
 40
0.6229740312136616
 50
205.4916696650005861
 51
215.6095542919007926
  0
ARC
  5
26C80
  8
0
 10
4892.5838472613977501
 20
9.2379018251399412
 30
0.0
 40
0.0082532877778567
 50
221.5502165641574948
 51
295.8089277615113133
  0
LINE
  5
26C81
  8
0
 10
4892.5874405066942927
 20
9.2304717950328428
 30
0.0
 11
4892.6290114820203598
 21
9.2499103173388217
 31
0.0
  0
ARC
  5
26C82
  8
0
 10
4891.1665944758142359
 20
8.4507397749029263
 30
0.0
 40
1.666534444869175
 50
28.6553870854136008
 51
31.39770053778307
  0
ARC
  5
26C83
  8
0
 10
4892.4106605518209108
 20
9.1305875587905074
 30
0.0
 40
0.2488273486300617
 50
21.6777257035589592
 51
28.6553870854137287
  0
ARC
  5
26C84
  8
0
 10
4892.7469533666508141
 20
9.3248747093362656
 30
0.0
 40
0.1466927219171742
 50
212.0934265001633037
 51
224.2571703595710915
  0
ARC
  5
26C85
  8
0
 10
4888.8764749839447177
 20
6.8683077544695346
 30
0.0
 40
4.4332989241428891
 50
30.7067083922794311
 51
32.4202733247054766
  0
LINE
  5
26C86
  8
0
 10
4892.707837216419648
 20
9.1431002234388234
 30
0.0
 11
4892.6678903538204395
 21
9.1208195163388215
 31
0.0
  0
ARC
  5
26C87
  8
0
 10
4892.6719062162856062
 20
9.1136195156629558
 30
0.0
 40
0.0082442198590345
 50
119.1509699792768942
 51
190.8947192965551096
  0
ARC
  5
26C88
  8
0
 10
4892.6867858797022564
 20
9.1164834649748681
 30
0.0
 40
0.0233969948200247
 50
190.8947192965540012
 51
198.7319082066657927
  0
ARC
  5
26C89
  8
0
 10
4893.114168626184437
 20
9.3317442384915257
 30
0.0
 40
0.5017121508109704
 50
206.3611993564724969
 51
218.7029418034626929
  0
ARC
  5
26C8A
  8
0
 10
4892.7284850647210988
 20
9.0241627047086848
 30
0.0
 40
0.0084749557553235
 50
226.3322329533015136
 51
294.9109794716258079
  0
LINE
  5
26C8B
  8
0
 10
4892.7320547976187299
 20
9.0164762307388227
 30
0.0
 11
4892.7752527362772526
 21
9.0367576119190058
 31
0.0
  0
ARC
  5
26C8C
  8
0
 10
4892.6108871770202313
 20
8.9438204759592761
 30
0.0
 40
0.1888209424572113
 50
20.7337084620154499
 51
29.4850986195983289
  0
ARC
  5
26C8D
  8
0
 10
4892.8171430629963652
 20
9.0631689375929412
 30
0.0
 40
0.0603017787822367
 50
210.9601827642617025
 51
240.5330254025300007
  0
ARC
  5
26C8E
  8
0
 10
4891.7888102094475471
 20
8.4859461046584155
 30
0.0
 40
1.129806255679106
 50
29.1781939591552515
 51
35.5668227484882067
  0
ARC
  5
26C8F
  8
0
 10
4892.6058123914290263
 20
9.0701469440993652
 30
0.0
 40
0.1254242635243467
 50
35.5668227484887112
 51
46.9926033361145912
  0
ARC
  5
26C90
  8
0
 10
4892.7429831597273733
 20
9.1632185952889618
 30
0.0
 40
0.0516375187843219
 50
181.5016456954274986
 51
209.6502268173641141
  0
LINE
  5
26C91
  8
0
 10
4892.6870799880853156
 20
9.1340176426531539
 30
0.0
 11
4892.6467904983192057
 21
9.1151221236888258
 31
0.0
  0
ARC
  5
26C92
  8
0
 10
4892.6436201739734315
 20
9.1218819671500437
 30
0.0
 40
0.0074663538680753
 50
213.4440663368758919
 51
295.1262838808564197
  0
ARC
  5
26C93
  8
0
 10
4893.8679414418966189
 20
9.9305248163349322
 30
0.0
 40
1.4747310963833651
 50
209.1962231352956962
 51
213.4440663368758067
  0
ARC
  5
26C94
  8
0
 10
4892.5882189431986262
 20
9.2131761957471436
 30
0.0
 40
0.0079145779612711
 50
119.2103246896903954
 51
194.8493018677177133
  0
LINE
  5
26C95
  8
0
 10
4892.5843564949891515
 20
9.2200843096814697
 30
0.0
 11
4892.621516598078415
 21
9.2408175351061512
 31
0.0
  0
LINE
  5
26C96
  8
0
 10
4892.6192537291053668
 20
9.2395549828362267
 30
0.0
 11
4892.6164633194948692
 21
9.2440428163908006
 31
0.0
  0
ARC
  5
26C97
  8
0
 10
4892.2319533036807115
 20
9.0900160105486858
 30
0.0
 40
0.3713043004055624
 50
26.9228998789687601
 51
35.1617470770142475
  0
ARC
  5
26C98
  8
0
 10
4892.7388965785712571
 20
9.3951281543612648
 30
0.0
 40
0.2229360689769913
 50
204.170793103107286
 51
217.913853852839793
  0
LINE
  5
26C99
  8
0
 10
4892.667157497817243
 20
9.3213050173373997
 30
0.0
 11
4892.6231032581190448
 21
9.2959030357888235
 31
0.0
  0
ARC
  5
26C9A
  8
0
 10
4892.6290779230839689
 20
9.2880122597107704
 30
0.0
 40
0.0098975233547055
 50
127.1319408187454059
 51
193.4643140437057127
  0
ARC
  5
26C9B
  8
0
 10
4892.8936135544836361
 20
9.3889121785799023
 30
0.0
 40
0.2929427942685193
 50
200.6282061890152875
 51
221.957659049308802
  0
ARC
  5
26C9C
  8
0
 10
4892.6823329529261173
 20
9.2008320063765279
 30
0.0
 40
0.0101754063534059
 50
229.8344865734950986
 51
292.7428822034268023
  0
LINE
  5
26C9D
  8
0
 10
4892.6862667283348856
 20
9.1914477479889332
 30
0.0
 11
4892.7331592536193057
 21
9.2134637332388234
 31
0.0
  0
ARC
  5
26C9E
  8
0
 10
4892.7657138677641342
 20
9.2564201946329501
 30
0.0
 40
0.0728432000293391
 50
225.2629602544216993
 51
246.9383792219188933
  0
ARC
  5
26C9F
  8
0
 10
4892.6929026806956244
 20
9.194369864235389
 30
0.0
 40
0.0445552185161599
 50
353.5935081680090093
 51
25.3751905160485514
  0
ARC
  5
26CA0
  8
0
 10
4892.1949893125129165
 20
8.9582073710857397
 30
0.0
 40
0.5956363789510253
 50
25.3751905160482494
 51
37.5603080513945073
  0
ARC
  5
26CA1
  8
0
 10
4892.6210850093702902
 20
9.2858752433012928
 30
0.0
 40
0.058120074675616
 50
37.5603080513930365
 51
62.4464723760204521
  0
ARC
  5
26CA2
  8
0
 10
4892.8261286634042335
 20
9.3499582849321765
 30
0.0
 40
0.1786004724404955
 50
184.0310212421823053
 51
192.1717457221222105
  0
ARC
  5
26CA3
  8
0
 10
4892.5083449191970431
 20
9.1584323751258641
 30
0.0
 40
0.166350324822785
 50
18.66084760553926
 51
43.0016556193834205
  0
ARC
  5
26CA4
  8
0
 10
4892.7545188047515694
 20
9.3053635118305298
 30
0.0
 40
0.1289379743418193
 50
195.0484797789137872
 51
226.6140234460050067
  0
ARC
  5
26CA5
  8
0
 10
4892.4530271379708211
 20
8.9110880979595581
 30
0.0
 40
0.2872022316718623
 50
27.2257820826461305
 51
38.4154632405766421
  0
ARC
  5
26CA6
  8
0
 10
4892.8302767707500607
 20
9.1544011198601023
 30
0.0
 40
0.1654604840832893
 50
203.0777773206181962
 51
222.5634680025895022
  0
LINE
  5
26CA7
  8
0
 10
4892.7879939055192153
 20
8.9781383137388229
 30
0.0
 11
4892.7506396519283953
 21
8.9573044866614762
 31
0.0
  0
ARC
  5
26CA8
  8
0
 10
4892.7545181527520981
 20
8.9503504833067211
 30
0.0
 40
0.0079624701764017
 50
119.1499989639993942
 51
204.9611093160318944
  0
ARC
  5
26CA9
  8
0
 10
4893.0885659408459105
 20
9.1058435672345208
 30
0.0
 40
0.3764268834925746
 50
204.9611093160318092
 51
221.5142089192279968
  0
ARC
  5
26CAA
  8
0
 10
4892.8153271195460547
 20
8.8639814518145972
 30
0.0
 40
0.0115204073348875
 50
221.5142089192270021
 51
239.5906612807526983
  0
ARC
  5
26CAB
  8
0
 10
4892.8131960751379665
 20
8.8603505306162411
 30
0.0
 40
0.0073103076904723
 50
239.5906612807567058
 51
297.4726924294266723
  0
LINE
  5
26CAC
  8
0
 10
4892.8165685087196835
 20
8.8538646004388237
 30
0.0
 11
4892.8356389101054447
 21
8.8628181313319363
 31
0.0
  0
ARC
  5
26CAD
  8
0
 10
4893.3813225632966351
 20
9.2126744218257013
 30
0.0
 40
0.6482052710062045
 50
212.6653089231047034
 51
215.3119514090001019
  0
ARC
  5
26CAE
  8
0
 10
4893.175529422854197
 20
9.066900300117263
 30
0.0
 40
0.396013060155103
 50
215.3119514090001019
 51
219.0766776862573124
  0
ARC
  5
26CAF
  8
0
 10
4892.923742986958132
 20
8.8624491369074523
 30
0.0
 40
0.0716726719227849
 50
219.0766776862568861
 51
226.8821303496355029
  0
ARC
  5
26CB0
  8
0
 10
4892.8852092079841896
 20
8.8212967763742274
 30
0.0
 40
0.0152956473519655
 50
226.8821303496368955
 51
241.1552338772391124
  0
ARC
  5
26CB1
  8
0
 10
4892.8824116436817349
 20
8.8162174303963443
 30
0.0
 40
0.0094968438903073
 50
241.1552338772401924
 51
273.2364972286767966
  0
ARC
  5
26CB2
  8
0
 10
4892.8825304960982976
 20
8.8141156219113181
 30
0.0
 40
0.0073916776725274
 50
273.2364972286769103
 51
296.4355145185073184
  0
LINE
  5
26CB3
  8
0
 10
4892.8858211992710494
 20
8.8074968477473412
 30
0.0
 11
4892.9306425907188896
 21
8.8285404381388215
 31
0.0
  0
ARC
  5
26CB4
  8
0
 10
4892.8055481898445578
 20
8.7564574679183131
 30
0.0
 40
0.1443764652768011
 50
17.9269275342953414
 51
29.951775972145839
  0
ARC
  5
26CB5
  8
0
 10
4893.0055763464142728
 20
8.8934144848211432
 30
0.0
 40
0.1117402900983281
 50
219.0683106058478984
 51
235.8905707502053986
  0
ARC
  5
26CB6
  8
0
 10
4893.2552646698668468
 20
9.1326584812227676
 30
0.0
 40
0.4988983791002416
 50
211.1195395065296907
 51
212.7430447788381969
  0
ARC
  5
26CB7
  8
0
 10
4893.0634629810747356
 20
9.0168670746858037
 30
0.0
 40
0.2748547725166958
 50
207.6128464619237093
 51
211.1195395065294917
  0
ARC
  5
26CB8
  8
0
 10
4892.8966972570497092
 20
8.9296364451890415
 30
0.0
 40
0.0866527814743816
 50
200.5610001650063055
 51
207.6128464619237093
  0
ARC
  5
26CB9
  8
0
 10
4892.8244600726111457
 20
8.9025403752181145
 30
0.0
 40
0.0095009323489842
 50
170.3041389670657111
 51
200.5610001650036054
  0
ARC
  5
26CBA
  8
0
 10
4892.824086873161832
 20
8.9026041396215678
 30
0.0
 40
0.009122324730757
 50
121.8266472130948017
 51
170.3041389670808883
  0
ARC
  5
26CBB
  8
0
 10
4892.6096039449566888
 20
9.3069204425682148
 30
0.0
 40
0.4485829760726843
 50
297.8663182715371818
 51
303.8234084330892983
  0
ARC
  5
26CBC
  8
0
 10
4889.9358689921773475
 20
7.0244338105546236
 30
0.0
 40
3.4571054087303019
 50
33.1715796201679822
 51
34.411128856904277
  0
ARC
  5
26CBD
  8
0
 10
4892.3490197988348882
 20
8.6774412141835615
 30
0.0
 40
0.5320874101317484
 50
34.4111288569042131
 51
37.3402211020006476
  0
ARC
  5
26CBE
  8
0
 10
4892.9284980613219886
 20
9.0710570035352678
 30
0.0
 40
0.171751186422516
 50
204.3739096160514066
 51
213.3942566193821051
  0
ARC
  5
26CBF
  8
0
 10
4890.9095894653601135
 20
7.780578895296907
 30
0.0
 40
2.2233777026656529
 50
32.525696449948633
 51
34.0558386929994086
  0
ARC
  5
26CC0
  8
0
 10
4892.1529074599975502
 20
8.8855166473355833
 30
0.0
 40
0.5353394830532855
 50
28.4952207706894498
 51
34.3765295480570501
  0
ARC
  5
26CC1
  8
0
 10
4893.0685707077009283
 20
9.4452271338338978
 30
0.0
 40
0.5392451267358374
 50
208.5165378551002107
 51
214.3552124636485132
  0
ARC
  5
26CC2
  8
0
 10
4892.0141029740234444
 20
8.3964876969257833
 30
0.0
 40
0.9156091461930138
 50
31.8204545048284686
 51
35.2958556508682193
  0
ARC
  5
26CC3
  8
0
 10
4892.9551177344292228
 20
9.0207062655705048
 30
0.0
 40
0.215833972006712
 50
206.1671445718023108
 51
220.9491655838884014
  0
ARC
  5
26CC4
  8
0
 10
4892.6429833922729813
 20
8.7232874612069917
 30
0.0
 40
0.2448170516604944
 50
25.1674251519062011
 51
41.5119642731055123
  0
ARC
  5
26CC5
  8
0
 10
4892.9840659258834421
 20
8.9476752276063554
 30
0.0
 40
0.1695522863489938
 50
201.4955235054619038
 51
225.183865919542086
  0
ARC
  5
26CC6
  8
0
 10
4892.9047205029955876
 20
8.9650353583466096
 30
0.0
 40
0.0657920338814133
 50
190.5036261273079958
 51
213.9586337219789129
  0
ARC
  5
26CC7
  8
0
 10
4892.7578218559892775
 20
8.8494321106565526
 30
0.0
 40
0.1322620904984312
 50
39.8917336946836798
 51
51.5697232094427704
  0
ARC
  5
26CC8
  8
0
 10
4892.1269869333200404
 20
8.3631323024287187
 30
0.0
 40
0.9286910942373204
 50
30.0757271709249991
 51
37.950324371650602
  0
ARC
  5
26CC9
  8
0
 10
4900.0267224601548151
 20
13.6293849326814396
 30
0.0
 40
8.6080230611981943
 50
214.0379135795571131
 51
214.7897029176795911
  0
LINE
  5
26CCA
  8
0
 10
4892.9628636655852461
 20
8.7212733503534867
 30
0.0
 11
4892.9262152077199062
 21
8.6990417583388222
 31
0.0
  0
ARC
  5
26CCB
  8
0
 10
4892.9305446800690333
 20
8.6919046857943858
 30
0.0
 40
0.0083475826040062
 50
121.241728677304593
 51
207.2093053488571002
  0
ARC
  5
26CCC
  8
0
 10
4893.8085406979762411
 20
9.2439460125296105
 30
0.0
 40
1.045440905921893
 50
212.1202121456940972
 51
218.0493664546251864
  0
ARC
  5
26CCD
  8
0
 10
4892.991817539317708
 20
8.6056895335444228
 30
0.0
 40
0.008937432315364
 50
222.9602732514590002
 51
291.1482256219044871
  0
LINE
  5
26CCE
  8
0
 10
4892.9950420035193019
 20
8.5973540355388227
 30
0.0
 11
4893.0365943772221726
 21
8.6168628259556836
 31
0.0
  0
ARC
  5
26CCF
  8
0
 10
4892.6897848373910165
 20
8.3848798488339771
 30
0.0
 40
0.4172444829976971
 50
29.4707882685079383
 51
33.7788012698189135
  0
ARC
  5
26CD0
  8
0
 10
4893.6214219008143118
 20
9.0970454848539237
 30
0.0
 40
0.7615737050180444
 50
219.2953178428969068
 51
221.7269952383703924
  0
ARC
  5
26CD1
  8
0
 10
4890.7239705736519682
 20
7.0613921250210812
 30
0.0
 40
2.787085926074397
 50
33.9239556875955799
 51
36.5526743717503919
  0
ARC
  5
26CD2
  8
0
 10
4892.7521455335672727
 20
8.5650501378943371
 30
0.0
 40
0.2623124535213821
 50
36.5526743717506122
 51
41.9961506090961407
  0
ARC
  5
26CD3
  8
0
 10
4893.2731689162110342
 20
8.9047931060921055
 30
0.0
 40
0.3651003410384344
 50
206.733074019471502
 51
210.6088409101585057
  0
ARC
  5
26CD4
  8
0
 10
4893.2766076250863989
 20
8.8715487157264423
 30
0.0
 40
0.395396291916002
 50
209.9738341236223107
 51
220.225704068942008
  0
ARC
  5
26CD5
  8
0
 10
4876.4550870302828116
 20
-2.9507126924168339
 30
0.0
 40
20.1666006703841596
 50
34.9994014562317801
 51
35.2001367363358071
  0
LINE
  5
26CD6
  8
0
 10
4893.242351560032148
 20
8.4731155349360492
 30
0.0
 11
4893.1598995632948572
 21
8.4289977586733382
 31
0.0
  0
ARC
  5
26CD7
  8
0
 10
4893.1710220641089109
 20
8.4082108451317605
 30
0.0
 40
0.023575533905744
 50
118.1500000034858004
 51
204.3419451203133974
  0
ARC
  5
26CD8
  8
0
 10
4894.0340870785557854
 20
8.7986605366121484
 30
0.0
 40
0.9708517242215275
 50
204.3419451203133974
 51
209.8674382615866136
  0
ARC
  5
26CD9
  8
0
 10
4892.8726214425269063
 20
8.1524546016254167
 30
0.0
 40
0.3586086577237
 50
0.3140372837571849
 51
26.9859627164542815
  0
LINE
  5
26CDA
  8
0
 10
4893.2312247137479062
 20
8.1544201203059483
 30
0.0
 11
4893.2313834176702585
 21
8.0667742688388255
 31
0.0
  0
ARC
  5
26CDB
  8
0
 10
4893.2117870873662469
 20
8.0677988603726742
 30
0.0
 40
0.019623097339026
 50
270.6454052369477949
 51
357.0070230809957934
  0
LINE
  5
26CDC
  8
0
 10
4893.2120081260191
 20
8.0481770079858581
 30
0.0
 11
4893.0126791933998902
 21
8.0546374532944025
 31
0.0
  0
ARC
  5
26CDD
  8
0
 10
4893.0117911560419088
 20
8.07601530929165
 30
0.0
 40
0.0213962926085019
 50
174.9296869657576963
 51
272.3787023691829745
  0
LINE
  5
26CDE
  8
0
 10
4892.9904785873195578
 20
8.0779062751388206
 30
0.0
 11
4892.9891228479536949
 21
8.5971680116821378
 31
0.0
  0
LINE
  5
26CDF
  8
0
 10
4891.6578035936518063
 20
11.3626032525555498
 30
0.0
 11
4893.1617942347165808
 21
8.4300115448448363
 31
0.0
  0
ARC
  5
26CE0
  8
0
 10
4900.8763551924621424
 20
1.5027329293721949
 30
0.0
 40
10.0786171832041092
 50
137.2333142216278929
 51
138.4675546467846914
  0
ARC
  5
26CE1
  8
0
 10
4895.0577898080791783
 20
6.8057666347186236
 30
0.0
 40
2.2069839798181619
 50
123.7592078889825018
 51
135.7325348348043121
  0
ARC
  5
26CE2
  8
0
 10
4894.758295754775645
 20
7.2538352617963593
 30
0.0
 40
1.6680385442359651
 50
113.7528963886742019
 51
123.7592078889825018
  0
ARC
  5
26CE3
  8
0
 10
4894.9395123791282458
 20
6.8420456245005301
 30
0.0
 40
2.1179387224150612
 50
109.419249078824393
 51
113.7528963886742019
  0
ARC
  5
26CE4
  8
0
 10
4894.1936462065941669
 20
8.9577784095552797
 30
0.0
 40
0.1254162573163889
 50
289.4192490788244072
 51
307.135304753362675
  0
LINE
  5
26CE5
  8
0
 10
4892.7979477218377724
 20
11.9838428158262893
 30
0.0
 11
4894.3245017861372617
 21
9.0071035358790414
 31
0.0
  0
LINE
  5
26CE6
  8
0
 10
4892.7019368284190932
 20
12.0228318048388196
 30
0.0
 11
4894.3001389821165503
 21
8.9063802445189264
 31
0.0
  0
LINE
  5
26CE7
  8
0
 10
4893.4084231981196353
 20
13.4171224854680098
 30
0.0
 11
4893.4084231981196353
 21
10.9023828800500198
 31
0.0
  0
LINE
  5
26CE8
  8
0
 10
4894.1564546941190201
 20
13.4105286987332004
 30
0.0
 11
4894.1564546941190201
 21
9.3853723229107384
 31
0.0
  0
ARC
  5
26CE9
  8
0
 10
4893.29014423551871
 20
3.1739852187765218
 30
0.0
 40
0.0196850393999883
 50
180.1499999999687986
 51
270.1499999996286192
  0
LINE
  5
26CEA
  8
0
 10
4893.2901957707726979
 20
3.1543002468360601
 30
0.0
 11
4894.2646018803707193
 21
3.1543002468360601
 31
0.0
  0
ARC
  5
26CEB
  8
0
 10
4894.2645503450166871
 20
3.1739852190638418
 30
0.0
 40
0.0196850396875746
 50
270.1500002925409945
 51
0.1499991483649014
  0
ARC
  5
26CEC
  8
0
 10
4893.8543409546464318
 20
-26.2348503451542108
 30
0.0
 40
0.3250000010742847
 50
180.1501474620889951
 51
359.9998525458797189
  0
LINE
  5
26CED
  8
0
 10
4893.529342069519771
 20
-26.2357020286447309
 30
0.0
 11
4893.4655982744134235
 21
-1.8874226785282611
 31
0.0
  0
LINE
  5
26CEE
  8
0
 10
4894.1564546941190201
 20
-1.8856191663611761
 30
0.0
 11
4893.4267070464193239
 21
-1.8875244957611761
 31
0.0
  0
ARC
  5
26CEF
  8
0
 10
4893.4266049439011113
 20
-1.848524296689422
 30
0.0
 40
0.0390003327237195
 50
182.2319352213789898
 51
270.1500000051523216
  0
LINE
  5
26CF0
  8
0
 10
4893.3876341982022495
 20
-1.850043155561222
 30
0.0
 11
4893.3343623071723414
 21
-0.4831977186661991
 31
0.0
  0
ARC
  5
26CF1
  8
0
 10
4893.3511256148876782
 20
-0.4845433354700788
 30
0.0
 40
0.016817228373267
 50
106.5554477226780961
 51
175.4106189725640093
  0
LINE
  5
26CF2
  8
0
 10
4893.3463336616196102
 20
-0.4684232748611806
 30
0.0
 11
4894.2274733179192481
 21
-0.4684232748611752
 31
0.0
  0
ARC
  5
26CF3
  8
0
 10
4894.2274733179192481
 20
-0.4804232748611668
 30
0.0
 40
0.0119999999999863
 50
359.9999999999491251
 51
90.0000000000521254
  0
LINE
  5
26CF4
  8
0
 10
4894.2394733179198738
 20
-0.4804232748611775
 30
0.0
 11
4894.1932842880178214
 21
-1.8494271094943779
 31
0.0
  0
ARC
  5
26CF5
  8
0
 10
4894.1542760945530972
 20
-1.8465669807954841
 30
0.0
 40
0.039112906994077
 50
273.1930430488961861
 51
355.8065070107278984
  0
LINE
  5
26CF6
  8
0
 10
4893.4084231981196353
 20
-1.8830273221703391
 30
0.0
 11
4893.4084231981196353
 21
-9.0481533519611759
 31
0.0
  0
LINE
  5
26CF7
  8
0
 10
4893.4843433325686419
 20
-9.0474908069131086
 30
0.0
 11
4893.3677044229198145
 21
-9.0485086992611752
 31
0.0
  0
ARC
  5
26CF8
  8
0
 10
4893.3680478847500126
 20
-9.0878655265915071
 30
0.0
 40
0.0393583259747956
 50
90.5000000021020838
 51
179.0957831738400046
  0
LINE
  5
26CF9
  8
0
 10
4893.3286944599203707
 20
-9.0872444165611768
 30
0.0
 11
4893.3286880964506054
 21
-10.5425007492770906
 31
0.0
  0
ARC
  5
26CFA
  8
0
 10
4893.3688887557173075
 20
-10.5420138211322705
 30
0.0
 40
0.0402036081029443
 50
180.6939578576850067
 51
223.4426641942714866
  0
ARC
  5
26CFB
  8
0
 10
4893.3677219514702301
 20
-10.5431188600230801
 30
0.0
 40
0.0385965788250994
 50
223.4426641942714866
 51
269.9739572773196983
  0
LINE
  5
26CFC
  8
0
 10
4893.3677044081196073
 20
-10.5817154348611702
 30
0.0
 11
4893.4883626893142718
 21
-10.5827684037105207
 31
0.0
  0
LINE
  5
26CFD
  8
0
 10
4893.4084231981196353
 20
-10.5820707823611695
 30
0.0
 11
4893.4084231981196353
 21
-11.4004850424611703
 31
0.0
  0
ARC
  5
26CFE
  8
0
 10
4893.4477932768204482
 20
-11.4004850424611703
 30
0.0
 40
0.0393700787000029
 50
179.9999999999976126
 51
266.7461279936787264
  0
ARC
  5
26CFF
  8
0
 10
4893.7886596683883909
 20
-5.4047959570951001
 30
0.0
 40
6.0447408004188672
 50
266.7461279936787264
 51
267.1737805845552884
  0
LINE
  5
26D00
  8
0
 10
4893.4455586209951434
 20
-11.4397916501778099
 30
0.0
 11
4893.4906063761718542
 21
-11.4397916501778099
 31
0.0
  0
ARC
  5
26D01
  8
0
 10
4893.7808182763483273
 20
-0.9321461601127634
 30
0.0
 40
0.9530725869373842
 50
267.8173893010405209
 51
270.0603211101213788
  0
ARC
  5
26D02
  8
0
 10
4893.7652556977373024
 20
-1.3404822507883949
 30
0.0
 40
0.5444400419764392
 50
263.9907520635077844
 51
267.8173893010405209
  0
ARC
  5
26D03
  8
0
 10
4893.7315515518566826
 20
-1.6606586483122161
 30
0.0
 40
0.2224945574904844
 50
257.5470123556995077
 51
263.9907520635077844
  0
ARC
  5
26D04
  8
0
 10
4893.7140411068448884
 20
-1.7399510004479051
 30
0.0
 40
0.1412917694119342
 50
249.9577951426470861
 51
257.547012355699394
  0
ARC
  5
26D05
  8
0
 10
4893.6886536193005668
 20
-1.809543006051374
 30
0.0
 40
0.0672136230549655
 50
234.6281827461108094
 51
249.9577951426468019
  0
ARC
  5
26D06
  8
0
 10
4893.6660720920626773
 20
-1.8413514251876659
 30
0.0
 40
0.0282046381876912
 50
210.8210193329597928
 51
234.628182746109502
  0
ARC
  5
26D07
  8
0
 10
4893.6550587150250067
 20
-1.84792219284056
 30
0.0
 40
0.015380073426309
 50
185.4532895310161962
 51
210.821019332958798
  0
LINE
  5
26D08
  8
0
 10
4893.639748251718629
 20
-1.8493838261611759
 30
0.0
 11
4893.6245316670811007
 21
-1.6899916191849551
 31
0.0
  0
LINE
  5
26D09
  8
0
 10
4893.6245316670811007
 20
-1.6899916191849551
 30
0.0
 11
4893.9537804999981745
 21
-1.689143942389268
 31
0.0
  0
LINE
  5
26D0A
  8
0
 10
4893.9537804999981745
 20
-1.689143942389268
 30
0.0
 11
4893.9392459406199123
 21
-1.848596225961175
 31
0.0
  0
ARC
  5
26D0B
  8
0
 10
4893.9236792708843495
 20
-1.847177276790064
 30
0.0
 40
0.0156312067171249
 50
327.3721622580862913
 51
354.7917090696499258
  0
ARC
  5
26D0C
  8
0
 10
4893.9114923025326789
 20
-1.839375039894702
 30
0.0
 40
0.0301017664210547
 50
305.7186083710698199
 51
327.3721622580878829
  0
ARC
  5
26D0D
  8
0
 10
4893.8911941648530046
 20
-1.8111465432091201
 30
0.0
 40
0.0648704652518255
 50
289.0539337852658264
 51
305.718608371069422
  0
ARC
  5
26D0E
  8
0
 10
4893.8555770387947632
 20
-1.7080223462824919
 30
0.0
 40
0.1739721593743047
 50
282.0296293999830937
 51
289.0539337852659969
  0
ARC
  5
26D0F
  8
0
 10
4893.8483029250855907
 20
-1.6738871413984251
 30
0.0
 40
0.2088738060794439
 50
275.5919667876227095
 51
282.0296293999830937
  0
ARC
  5
26D10
  8
0
 10
4893.7975650166617925
 20
-1.155673798181462
 30
0.0
 40
0.7295650816346787
 50
272.961883041088015
 51
275.5919667876227095
  0
ARC
  5
26D11
  8
0
 10
4893.8025623763205658
 20
-1.2522584754010451
 30
0.0
 40
0.632851207360241
 50
270.3127304184041009
 51
272.961883041088015
  0
ARC
  5
26D12
  8
0
 10
4893.6926956139750473
 20
18.87638558425963
 30
0.0
 40
20.7617951037990593
 50
270.245959594416604
 51
270.3127304184041009
  0
LINE
  5
26D13
  8
0
 10
4894.1564546941190201
 20
-1.8856191663611761
 30
0.0
 11
4894.1564546941190201
 21
-9.0416253799611752
 31
0.0
  0
LINE
  5
26D14
  8
0
 10
4894.1155960594469434
 20
-1.885725845921064
 30
0.0
 11
4894.1793409557194536
 21
-26.2348511815611793
 31
0.0
  0
ARC
  5
26D15
  8
0
 10
4894.1171025959265535
 20
-11.4004927835215604
 30
0.0
 40
0.0393520978051212
 50
306.6410928088191099
 51
0.002769648834064
  0
LINE
  5
26D16
  8
0
 10
4894.1564546936851912
 20
-11.4004908812611792
 30
0.0
 11
4894.1564154472343944
 21
-10.5885987552141607
 31
0.0
  0
LINE
  5
26D17
  8
0
 10
4894.1383797665203019
 20
-10.5884410167611698
 30
0.0
 11
4895.7509428831190235
 21
-10.6025136419655404
 31
0.0
  0
LINE
  5
26D18
  8
0
 10
4895.7509428831190235
 20
-10.6025136419655404
 30
0.0
 11
4895.7509428835201106
 21
-9.0277104923611766
 31
0.0
  0
LINE
  5
26D19
  8
0
 10
4895.7509428835201106
 20
-9.0277104923611766
 30
0.0
 11
4894.1343307088191068
 21
-9.0418184530611754
 31
0.0
  0
ARC
  5
26D1A
  8
0
 10
4894.8060690703923683
 20
-10.5832115642469091
 30
0.0
 40
0.0197036541697615
 50
213.6324223632954897
 51
269.9765128735136841
  0
LINE
  5
26D1B
  8
0
 10
4894.806060993319079
 20
-10.6029152167611702
 30
0.0
 11
4895.0422815817719311
 21
-10.6030120501264395
 31
0.0
  0
ARC
  5
26D1C
  8
0
 10
4895.0422895561296173
 20
-10.5835589665518501
 30
0.0
 40
0.0194530852090519
 50
269.9765128735136841
 51
318.4707511715188275
  0
ARC
  5
26D1D
  8
0
 10
4893.3508832658117171
 20
2.7840383760677869
 30
0.0
 40
0.0395528797392435
 50
357.7225971990330891
 51
114.8685791754678007
  0
ARC
  5
26D1E
  8
0
 10
4893.7799068711647124
 20
2.186066871786426
 30
0.0
 40
0.7730651039817067
 50
125.7688898053555988
 51
145.395164668493095
  0
ARC
  5
26D1F
  8
0
 10
4893.7799350722198142
 20
2.1860392379388141
 30
0.0
 40
0.7731040096000302
 50
145.3946659473492105
 51
175.932526152903506
  0
ARC
  5
26D20
  8
0
 10
4893.7799350722198142
 20
2.1860392379388158
 30
0.0
 40
0.7731040095999882
 50
175.932526152903705
 51
235.1459074215499925
  0
ARC
  5
26D21
  8
0
 10
4893.7833695469444137
 20
2.1912900109050719
 30
0.0
 40
0.7793756309332189
 50
235.1593159815593026
 51
241.5767337901523035
  0
ARC
  5
26D22
  8
0
 10
4893.4170760832203086
 20
1.5145308210366399
 30
0.0
 40
0.0098472772253807
 50
241.6581007099131
 51
1.6101826853879739
  0
ARC
  5
26D23
  8
0
 10
-29971.2655872176292178
 20
-1002.1090700024459466
 30
0.0
 40
34879.1348011037625838
 50
1.6488754894944679
 51
1.6493062760268471
  0
LINE
  5
26D24
  8
0
 10
4893.4193725966679267
 20
1.7769426828944981
 30
0.0
 11
4893.3904049045186184
 21
2.7824666351388219
 31
0.0
  0
LINE
  5
26D25
  8
0
 10
4894.2181797781186106
 20
3.0671396772781772
 30
0.0
 11
4893.3370721666196914
 21
3.0671396772781772
 31
0.0
  0
ARC
  5
26D26
  8
0
 10
4893.3371035840982586
 20
3.0551391119165192
 30
0.0
 40
0.0120006064870649
 50
90.1499999998370214
 51
182.2285768162128932
  0
LINE
  5
26D27
  8
0
 10
4893.3251120543191064
 20
3.0546724539781751
 30
0.0
 11
4893.3342382571381677
 21
2.819915277573473
 31
0.0
  0
ARC
  5
26D28
  8
0
 10
4893.7812591250731202
 20
2.1839614969002241
 30
0.0
 40
0.800839929032219
 50
124.0240056181877009
 51
242.2486312846473027
  0
LINE
  5
26D29
  8
0
 10
4893.4563367792197823
 20
1.6502024077247821
 30
0.0
 11
4893.4618833409676881
 21
-0.4684232748611788
 31
0.0
  0
LINE
  5
26D2A
  8
0
 10
4893.4084231981196353
 20
-0.4684232748611806
 30
0.0
 11
4893.4084231981196353
 21
1.4849567468886411
 31
0.0
  0
ARC
  5
26D2B
  8
0
 10
4893.799777095618083
 20
2.2419253482365979
 30
0.0
 40
0.8521498321975274
 50
242.6609686897849087
 51
246.2682410340950128
  0
ARC
  5
26D2C
  8
0
 10
4893.8746728579280898
 20
2.386791007693553
 30
0.0
 40
1.0152308994671619
 50
238.9650634825642044
 51
242.6609686897849087
  0
ARC
  5
26D2D
  8
0
 10
4893.6437666163546965
 20
1.90909655522091
 30
0.0
 40
0.4892733203702818
 50
233.2846898219094953
 51
241.2488718397513878
  0
LINE
  5
26D2E
  8
0
 10
4893.4230253236191857
 20
1.650115198338824
 30
0.0
 11
4894.1396459895186126
 21
1.6519913111388229
 31
0.0
  0
LINE
  5
26D2F
  8
0
 10
4893.411229590219591
 20
3.0673338213781771
 30
0.0
 11
4893.411195613700329
 21
3.080311852878129
 31
0.0
  0
ARC
  5
26D30
  8
0
 10
4893.3714047144958386
 20
3.0802759368455588
 30
0.0
 40
0.039790915413721
 50
0.0517162608905277
 51
88.0578869262162982
  0
LINE
  5
26D31
  8
0
 10
4893.3310560316203919
 20
3.154407219031135
 30
0.0
 11
4893.3309233122863589
 21
3.1329422220368879
 31
0.0
  0
ARC
  5
26D32
  8
0
 10
4893.3427341155284012
 20
3.1328700730457539
 30
0.0
 40
0.0118110236089932
 50
179.6499999886092951
 51
268.6499968707586845
  0
LINE
  5
26D33
  8
0
 10
4893.3424558499436898
 20
3.1210623278352081
 30
0.0
 11
4894.2125179170698175
 21
3.1210623278462761
 31
0.0
  0
LINE
  5
26D34
  8
0
 10
4894.2125179170188858
 20
3.1210623278202352
 30
0.0
 11
4894.1822247010295541
 21
3.1201897046184288
 31
0.0
  0
LINE
  5
26D35
  8
0
 10
4894.1822247010295541
 20
3.1201897046184288
 30
0.0
 11
4893.3727532197153778
 21
3.1200439953798682
 31
0.0
  0
LINE
  5
26D36
  8
0
 10
4893.3727532197153778
 20
3.1200439953798682
 30
0.0
 11
4893.3424558505803361
 21
3.1210623278202352
 31
0.0
  0
LINE
  5
26D37
  8
0
 10
4893.4084231981196353
 20
3.0673264742683681
 30
0.0
 11
4893.4084231981196353
 21
3.094477025773203
 31
0.0
  0
LINE
  5
26D38
  8
0
 10
4894.2237416196194317
 20
3.154193274725178
 30
0.0
 11
4894.2239880946190169
 21
3.1349759302240301
 31
0.0
  0
ARC
  5
26D39
  8
0
 10
4894.2102998068821762
 20
3.13457563393328
 30
0.0
 40
0.0136941395606221
 50
279.321563086139804
 51
1.675063657579505
  0
ARC
  5
26D3A
  8
0
 10
4894.1821747371777747
 20
3.0819686004175249
 30
0.0
 40
0.038221136860772
 50
89.9251001303779134
 51
168.7481300790311138
  0
LINE
  5
26D3B
  8
0
 10
4894.1839259791977383
 20
3.0670500008375341
 30
0.0
 11
4894.1446882521204316
 21
3.0894263977388219
 31
0.0
  0
LINE
  5
26D3C
  8
0
 10
4894.1564546941190201
 20
3.083334280038823
 30
0.0
 11
4894.1564546941190201
 21
3.1095796087783838
 31
0.0
  0
ARC
  5
26D3D
  8
0
 10
4893.3273503379323301
 20
19.0467243726207407
 30
0.0
 40
15.9821232878261803
 50
271.0212278162885013
 51
272.2909221405892026
  0
ARC
  5
26D3E
  8
0
 10
4893.835888098086798
 20
6.3350141993157516
 30
0.0
 40
3.260245038777811
 50
272.2909221405892026
 51
275.4350232688817073
  0
ARC
  5
26D3F
  8
0
 10
4894.2182118230794003
 20
3.0551397201993331
 30
0.0
 40
0.011999999865563
 50
358.0684196064069056
 51
90.1530035935290357
  0
LINE
  5
26D40
  8
0
 10
4894.2302050044190764
 20
3.054735247578177
 30
0.0
 11
4894.2222950039267744
 21
2.822254713811537
 31
0.0
  0
ARC
  5
26D41
  8
0
 10
4894.2057541455887986
 20
2.7866062182355971
 30
0.0
 40
0.0393048193550592
 50
54.4105979048791113
 51
178.8352879508043998
  0
ARC
  5
26D42
  8
0
 10
4893.5976446856493567
 20
1.9062308800827621
 30
0.0
 40
1.1092798566460691
 50
51.8121068184315376
 51
55.33181619548904
  0
ARC
  5
26D43
  8
0
 10
4893.959632520814921
 20
2.441225920985242
 30
0.0
 40
0.4672775755987328
 50
46.1332080133082982
 51
55.7713418644224106
  0
ARC
  5
26D44
  8
0
 10
4893.7689618716776749
 20
2.171088490486544
 30
0.0
 40
0.81864639808421
 50
35.377279204017853
 51
56.2900884655261535
  0
ARC
  5
26D45
  8
0
 10
4893.7874956273208227
 20
2.184248686689839
 30
0.0
 40
0.7959155630288933
 50
329.5434940382269815
 51
35.377279204017853
  0
ARC
  5
26D46
  8
0
 10
4893.7731158887236234
 20
2.1927043032319999
 30
0.0
 40
0.8125971197072681
 50
298.1538889706541227
 51
329.5434940382269815
  0
LINE
  5
26D47
  8
0
 10
4894.1564546941190201
 20
1.4842457673046721
 30
0.0
 11
4894.1564546941190201
 21
-0.468423274861177
 31
0.0
  0
LINE
  5
26D48
  8
0
 10
4894.1118855685017479
 20
-0.468423274861177
 30
0.0
 11
4894.1063345517186463
 21
1.651904101738823
 31
0.0
  0
ARC
  5
26D49
  8
0
 10
4893.7275587305166482
 20
2.3333589593355759
 30
0.0
 40
0.9512859509505549
 50
293.4968047191829896
 51
296.7988187073988797
  0
ARC
  5
26D4A
  8
0
 10
4894.2086119959330972
 20
1.380986569762056
 30
0.0
 40
0.1156842513467209
 50
114.1294568353837064
 51
116.7988187073989934
  0
ARC
  5
26D4B
  8
0
 10
4894.141258328015283
 20
1.509403325783635
 30
0.0
 40
0.0304002013392946
 50
299.9918728594838058
 51
311.2944703564575093
  0
ARC
  5
26D4C
  8
0
 10
4893.3510171064381211
 20
2.781463122883733
 30
0.0
 40
0.0392782734990983
 50
1.7836232765940729
 51
125.807119949129401
  0
ARC
  5
26D4D
  8
0
 10
4893.6485910500387035
 20
2.3818220047197531
 30
0.0
 40
0.5440333869816567
 50
125.3262573936411002
 51
133.6036329668332883
  0
ARC
  5
26D4E
  8
0
 10
4893.4929952898874035
 20
2.5370720282941259
 30
0.0
 40
0.324351813791773
 50
119.3050533852468931
 51
132.6142389148685083
  0
ARC
  5
26D4F
  8
0
 10
4894.2058436333336431
 20
2.7832160667263501
 30
0.0
 40
0.0396083341222265
 50
55.0337471898531518
 51
173.9288851111786869
  0
LINE
  5
26D50
  8
0
 10
4894.1664574469195941
 20
2.7874051539385771
 30
0.0
 11
4894.1663370285186829
 21
2.7844980203388232
 31
0.0
  0
LINE
  5
26D51
  8
0
 10
4894.1663370285186829
 20
2.7844980203388232
 30
0.0
 11
4894.1367081254802542
 21
1.527184563699288
 31
0.0
  0
ARC
  5
26D52
  8
0
 10
4559.4694126127906202
 20
9.4137022787982527
 30
0.0
 40
334.7602064873432255
 50
358.648259616325106
 51
358.6500606099291986
  0
ARC
  5
26D53
  8
0
 10
4894.146293859729667
 20
1.5164328355584471
 30
0.0
 40
0.009836535979437
 50
178.6482596163170911
 51
299.2818843702200979
  0
ARC
  5
26D54
  8
0
 10
4893.7308498200609392
 20
2.2572941785006702
 30
0.0
 40
0.8592300134460469
 50
299.2818843702200979
 51
309.7841753378148155
  0
ARC
  5
26D55
  8
0
 10
4893.7799350722198142
 20
2.186039237938826
 30
0.0
 40
0.7731040093999975
 50
310.3678708376913846
 51
349.1834847439681084
  0
ARC
  5
26D56
  8
0
 10
4893.7799350722198142
 20
2.1860392379388229
 30
0.0
 40
0.7731040093999967
 50
349.1834847439683926
 51
47.7996292846498818
  0
ARC
  5
26D57
  8
0
 10
4893.8504968858205757
 20
2.2736910558964119
 30
0.0
 40
0.6608063774335937
 50
47.2268632806069135
 51
55.1033408218622185
  0
LINE
  5
26D58
  8
0
 10
4893.6161181214192766
 20
1.8476213903388219
 30
0.0
 11
4893.9454462263665846
 21
1.8476213903388219
 31
0.0
  0
LINE
  5
26D59
  8
0
 10
4893.9454462263665846
 20
1.8476213903388219
 30
0.0
 11
4893.9309872801823076
 21
1.689031456584613
 31
0.0
  0
ARC
  5
26D5A
  8
0
 10
4893.9142369063511069
 20
1.6905586200562419
 30
0.0
 40
0.016819846959106
 50
314.765972885806093
 51
354.7906368033434887
  0
ARC
  5
26D5B
  8
0
 10
4893.887636171102713
 20
1.7173775514796601
 30
0.0
 40
0.054593570609664
 50
296.9825401588266232
 51
314.765972885806093
  0
ARC
  5
26D5C
  8
0
 10
4893.8760963153226839
 20
1.740042865662655
 30
0.0
 40
0.0800274994928234
 50
285.0793876763938215
 51
296.9825401588270211
  0
ARC
  5
26D5D
  8
0
 10
4893.8327710138009934
 20
1.900843554108838
 30
0.0
 40
0.2465626103753181
 50
278.2449548575577865
 51
285.0793876763938215
  0
ARC
  5
26D5E
  8
0
 10
4893.8133580596977481
 20
2.034815438490333
 30
0.0
 40
0.3819336877580761
 50
270.0939592415688821
 51
278.2449548575577865
  0
ARC
  5
26D5F
  8
0
 10
4893.7783590526150874
 20
2.9614674175810758
 30
0.0
 40
1.3090700012587539
 50
268.3612010253283984
 51
271.5594533626110092
  0
ARC
  5
26D60
  8
0
 10
4893.7536593408922272
 20
2.140743325804312
 30
0.0
 40
0.4879767482414862
 50
263.1631197345326996
 51
268.5042243344374242
  0
ARC
  5
26D61
  8
0
 10
4893.714721794101024
 20
1.8283636371976471
 30
0.0
 40
0.1731893907752058
 50
250.5555491436109889
 51
263.6507715190921886
  0
ARC
  5
26D62
  8
0
 10
4893.6791957322066082
 20
1.7258213338917541
 30
0.0
 40
0.0646723756620282
 50
234.2087371950229056
 51
249.9922843214135071
  0
ARC
  5
26D63
  8
0
 10
4893.6590064046113184
 20
1.695798507983989
 30
0.0
 40
0.0285363443249043
 50
195.3513257971360986
 51
231.835349776384902
  0
LINE
  5
26D64
  8
0
 10
4893.6314882184196904
 20
1.6882438818388219
 30
0.0
 11
4893.6161181214192766
 21
1.8476213903388219
 31
0.0
  0
ARC
  5
26D65
  8
0
 10
4894.2355786681564496
 20
2.9359232649523479
 30
0.0
 40
0.0789160088711847
 50
261.1949851838556924
 51
318.3572337092339239
  0
LINE
  5
26D66
  8
0
 10
4894.2945527846195546
 20
2.883484824438824
 30
0.0
 11
4894.3859678697008349
 21
2.9869515503221549
 31
0.0
  0
ARC
  5
26D67
  8
0
 10
4894.4443820036185571
 20
2.9344106904388219
 30
0.0
 40
0.0785668696000022
 50
319.5068577997478769
 51
138.0300577470457881
  0
LINE
  5
26D68
  8
0
 10
4894.5041308267882414
 20
2.8833927413556788
 30
0.0
 11
4894.4114801354553492
 21
2.7784894119059418
 31
0.0
  0
ARC
  5
26D69
  8
0
 10
4894.4717554247154112
 20
2.7273146929620822
 30
0.0
 40
0.0790693515486554
 50
139.6681915080843908
 51
207.8914868092116137
  0
ENDSEC
  0
EOF
