  0
SECTION
  2
HEADER
  9
$ACADVER
  1
AC1009
  9
$INSBASE
 10
4720.2999878211321629
 20
19.7225647202820191
 30
0.0
  9
$EXTMIN
 10
4702.3517987252653256
 20
19.6337047153807305
 30
-0.0015258207003583
  9
$EXTMAX
 10
4720.4857468364707529
 20
21.9180556632847185
 30
0.0000000349246037
  9
$LIMMIN
 10
0.0
 20
0.0
  9
$LIMMAX
 10
11.6929133858000007
 20
8.2677165353999982
  9
$ORTHOMODE
 70
     0
  9
$REGENMODE
 70
     1
  9
$FILLMODE
 70
     1
  9
$QTEXTMODE
 70
     0
  9
$MIRRTEXT
 70
     0
  9
$DRAGMODE
 70
     2
  9
$LTSCALE
 40
0.6431102362
  9
$OSMODE
 70
  4095
  9
$ATTMODE
 70
     1
  9
$TEXTSIZE
 40
0.2
  9
$TRACEWID
 40
0.05
  9
$TEXTSTYLE
  7
STANDARD
  9
$CLAYER
  8
0
  9
$CELTYPE
  6
BYLAYER
  9
$CECOLOR
 62
   256
  9
$DIMSCALE
 40
1.0
  9
$DIMASZ
 40
0.1875
  9
$DIMEXO
 40
0.0625
  9
$DIMDLI
 40
0.4443307087
  9
$DIMRND
 40
0.0
  9
$DIMDLE
 40
0.0
  9
$DIMEXE
 40
0.125
  9
$DIMTP
 40
0.01
  9
$DIMTM
 40
0.01
  9
$DIMTXT
 40
2.0
  9
$DIMCEN
 40
0.1052362205
  9
$DIMTSZ
 40
0.0
  9
$DIMTOL
 70
     1
  9
$DIMLIM
 70
     0
  9
$DIMTIH
 70
     1
  9
$DIMTOH
 70
     1
  9
$DIMSE1
 70
     0
  9
$DIMSE2
 70
     0
  9
$DIMTAD
 70
     0
  9
$DIMZIN
 70
     0
  9
$DIMBLK
  1

  9
$DIMASO
 70
     1
  9
$DIMSHO
 70
     1
  9
$DIMPOST
  1
\X
  9
$DIMAPOST
  1

  9
$DIMALT
 70
     1
  9
$DIMALTD
 70
     2
  9
$DIMALTF
 40
25.3999999999999986
  9
$DIMLFAC
 40
1.0
  9
$DIMTOFL
 70
     0
  9
$DIMTVP
 40
0.0
  9
$DIMTIX
 70
     0
  9
$DIMSOXD
 70
     0
  9
$DIMSAH
 70
     0
  9
$DIMBLK1
  1

  9
$DIMBLK2
  1

  9
$DIMSTYLE
  2
STANDARD
  9
$DIMCLRD
 70
     0
  9
$DIMCLRE
 70
     0
  9
$DIMCLRT
 70
     0
  9
$DIMTFAC
 40
1.0
  9
$DIMGAP
 40
0.09
  9
$LUNITS
 70
     2
  9
$LUPREC
 70
     4
  9
$SKETCHINC
 40
0.1
  9
$FILLETRAD
 40
0.0
  9
$AUNITS
 70
     0
  9
$AUPREC
 70
     0
  9
$MENU
  1
.
  9
$ELEVATION
 40
0.0
  9
$PELEVATION
 40
0.0
  9
$THICKNESS
 40
0.0
  9
$LIMCHECK
 70
     0
  9
$BLIPMODE
 70
     0
  9
$CHAMFERA
 40
0.0
  9
$CHAMFERB
 40
0.0
  9
$SKPOLY
 70
     0
  9
$TDCREATE
 40
2458060.468368056230247
  9
$TDUPDATE
 40
2460509.7194097219035029
  9
$TDINDWG
 40
0.479659838
  9
$TDUSRTIMER
 40
0.479659838
  9
$USRTIMER
 70
     1
  9
$ANGBASE
 50
0.0
  9
$ANGDIR
 70
     0
  9
$PDMODE
 70
     0
  9
$PDSIZE
 40
0.3125
  9
$PLINEWID
 40
0.0
  9
$COORDS
 70
     1
  9
$SPLFRAME
 70
     0
  9
$SPLINETYPE
 70
     6
  9
$SPLINESEGS
 70
     8
  9
$ATTDIA
 70
     1
  9
$ATTREQ
 70
     1
  9
$HANDLING
 70
     1
  9
$HANDSEED
  5
14CCB
  9
$SURFTAB1
 70
     6
  9
$SURFTAB2
 70
     6
  9
$SURFTYPE
 70
     6
  9
$SURFU
 70
     6
  9
$SURFV
 70
     6
  9
$UCSNAME
  2

  9
$UCSORG
 10
0.0
 20
0.0
 30
0.0
  9
$UCSXDIR
 10
1.0
 20
0.0
 30
0.0
  9
$UCSYDIR
 10
0.0
 20
1.0
 30
0.0
  9
$PUCSNAME
  2

  9
$PUCSORG
 10
0.0
 20
0.0
 30
0.0
  9
$PUCSXDIR
 10
1.0
 20
0.0
 30
0.0
  9
$PUCSYDIR
 10
0.0
 20
1.0
 30
0.0
  9
$USERI1
 70
     0
  9
$USERI2
 70
     0
  9
$USERI3
 70
     0
  9
$USERI4
 70
     0
  9
$USERI5
 70
     0
  9
$USERR1
 40
0.0
  9
$USERR2
 40
0.0
  9
$USERR3
 40
0.0
  9
$USERR4
 40
0.0
  9
$USERR5
 40
0.0
  9
$WORLDVIEW
 70
     1
  9
$SHADEDGE
 70
     3
  9
$SHADEDIF
 70
    70
  9
$TILEMODE
 70
     1
  9
$MAXACTVP
 70
    64
  9
$PLIMCHECK
 70
     0
  9
$PEXTMIN
 10
1.0000000000000000E+20
 20
1.0000000000000000E+20
 30
1.0000000000000000E+20
  9
$PEXTMAX
 10
-1.0000000000000000E+20
 20
-1.0000000000000000E+20
 30
-1.0000000000000000E+20
  9
$PLIMMIN
 10
0.0
 20
0.0
  9
$PLIMMAX
 10
12.0
 20
9.0
  9
$UNITMODE
 70
     0
  9
$VISRETAIN
 70
     1
  9
$PLINEGEN
 70
     0
  9
$PSLTSCALE
 70
     1
  0
ENDSEC
  0
SECTION
  2
TABLES
  0
TABLE
  2
VPORT
 70
     1
  0
VPORT
  2
*ACTIVE
 70
     0
 10
0.0
 20
0.0
 11
1.0
 21
1.0
 12
919.0608626246183803
 22
-99.4047762437727442
 13
0.0
 23
0.0
 14
1.0
 24
1.0
 15
0.0
 25
0.0
 16
0.0
 26
0.0
 36
5.1040778033513332
 17
3792.35791015625
 27
120.1806564331053977
 37
0.0
 40
7.2049879864788711
 41
2.5251322751322749
 42
50.0
 43
0.0
 44
0.0
 50
0.0
 51
0.0
 71
     0
 72
   100
 73
     1
 74
     1
 75
     0
 76
     0
 77
     0
 78
     0
  0
ENDTAB
  0
TABLE
  2
LTYPE
 70
     2
  0
LTYPE
  2
CONTINUOUS
 70
     0
  3
Solid line
 72
    65
 73
     0
 40
0.0
  0
LTYPE
  2
PHANTOM2
 70
     0
  3
___ _ _ ___ _ _ ___ _ _ ___ _ _
 72
    65
 73
     6
 40
1.25
 49
0.625
 49
-0.125
 49
0.125
 49
-0.125
 49
0.125
 49
-0.125
  0
ENDTAB
  0
TABLE
  2
LAYER
 70
     2
  0
LAYER
  2
0
 70
     0
 62
   255
  6
CONTINUOUS
  0
LAYER
  2
DEFPOINTS
 70
     0
 62
     7
  6
CONTINUOUS
  0
ENDTAB
  0
TABLE
  2
STYLE
 70
     1
  0
STYLE
  2
STANDARD
 70
     0
 40
0.0
 41
0.8
 50
0.0
 71
     0
 42
0.2
  3
txt
  4

  0
ENDTAB
  0
TABLE
  2
VIEW
 70
     0
  0
ENDTAB
  0
TABLE
  2
UCS
 70
     0
  0
ENDTAB
  0
TABLE
  2
APPID
 70
     9
  0
APPID
  2
ACAD
 70
     0
  0
APPID
  2
ACAD_MLEADERVER
 70
     0
  0
APPID
  2
ACAD_EXEMPT_FROM_CAD_STANDARDS
 70
     0
  0
APPID
  2
ACAD_NAV_VCDISPLAY
 70
     0
  0
APPID
  2
ACAECLAYERSTANDARD
 70
     0
  0
APPID
  2
ACCMTRANSPARENCY
 70
     0
  0
APPID
  2
ACAD_DSTYLE_DIMJAG
 70
     0
  0
APPID
  2
ACAD_DSTYLE_DIMTALN
 70
     0
  0
APPID
  2
ACDBATTR
 70
     0
  0
ENDTAB
  0
TABLE
  2
DIMSTYLE
 70
     1
  0
DIMSTYLE
  2
STANDARD
 70
     0
  3

  4

  5

  6

  7

 40
1.0
 41
0.1875
 42
0.0625
 43
0.38
 44
0.125
 45
0.0
 46
0.0
 47
0.01
 48
0.01
140
0.15625
141
0.09
142
0.0
143
25.3999999999999986
144
1.0
145
0.0
146
1.0
147
0.09
 71
     1
 72
     0
 73
     1
 74
     1
 75
     0
 76
     0
 77
     0
 78
     4
170
     0
171
     2
172
     0
173
     0
174
     0
175
     0
176
     0
177
     0
178
     0
  0
ENDTAB
  0
ENDSEC
  0
SECTION
  2
BLOCKS
  0
BLOCK
  8
0
  2
$MODEL_SPACE
 70
     0
 10
0.0
 20
0.0
 30
0.0
  3
$MODEL_SPACE
  1

  0
ENDBLK
  5
21
  8
0
  0
BLOCK
 67
     1
  8
0
  2
$PAPER_SPACE
 70
     0
 10
0.0
 20
0.0
 30
0.0
  3
$PAPER_SPACE
  1

  0
ENDBLK
  5
1D
 67
     1
  8
0
  0
BLOCK
  8
0
  2
_FILLED
 70
     0
 10
0.0
 20
0.0
 30
0.0
  3
_FILLED
  1

  0
SOLID
  5
147AF
  8
0
  6
BYBLOCK
 62
     0
 10
0.0
 20
0.0
 30
0.0
 11
-1.0
 21
0.1666666667
 31
0.0
 12
-1.0
 22
-0.1666666667
 32
0.0
 13
-1.0
 23
-0.1666666667
 33
0.0
  0
ENDBLK
  5
147B0
  8
0
  6
BYBLOCK
 62
     0
  0
ENDSEC
  0
SECTION
  2
ENTITIES
  0
ATTDEF
  5
3930
  8
DEFPOINTS
 10
4720.2881454160033172
 20
19.7232497048178885
 30
0.0
 40
0.001
  1
K-35585
  3

  2
MODELNUMBER
 70
     0
1001
ACDBATTR
1070
     0
1070
     1
  0
ATTDEF
  5
3931
  8
DEFPOINTS
 10
4720.2881454160033172
 20
19.7215830381512198
 30
0.0
 40
0.001
  1
CACHET
  3

  2
TRADENAME
 70
     0
1001
ACDBATTR
1070
     0
1070
     1
  0
ATTDEF
  5
3932
  8
DEFPOINTS
 10
4720.2881454160033172
 20
19.7199163714845582
 30
0.0
 40
0.001
  1
TOILET SEAT
  3

  2
PRODUCT
 70
     0
1001
ACDBATTR
1070
     0
1070
     1
  0
LINE
  5
14BAF
  8
0
 10
4715.637997080219975
 20
19.6388067925016685
 30
0.0
 11
4715.495262909919802
 21
19.6388067925016685
 31
0.0
  0
LINE
  5
14BB0
  8
0
 10
4717.3827494526540249
 20
20.035772317182019
 30
0.0
 11
4718.6263505521055777
 21
20.2378731796588198
 31
0.0
  0
LINE
  5
14BB1
  8
0
 10
4717.5471291627527535
 20
19.7225647202820191
 30
0.0
 11
4720.143179243569648
 21
19.7225647202820191
 31
0.0
  0
LINE
  5
14BB2
  8
0
 10
4713.9886975808458374
 20
20.8855647202820194
 30
0.0
 11
4715.0812707400464205
 21
20.8855647202820194
 31
0.0
  0
LINE
  5
14BB3
  8
0
 10
4702.9001143528757893
 20
20.9855647202820101
 30
0.0
 11
4716.8317658408532225
 21
20.9855647202820101
 31
0.0
  0
LINE
  5
14BB4
  8
0
 10
4717.5590630586038969
 20
20.0643067846970808
 30
0.0
 11
4717.5471291627527535
 21
19.7225647202820191
 31
0.0
  0
LINE
  5
14BB5
  8
0
 10
4718.6170573407853226
 20
20.3124279814820312
 30
0.0
 11
4718.6170573407853226
 21
20.2832665943820096
 31
0.0
  0
LINE
  5
14BB6
  8
0
 10
4718.6905834424333079
 20
19.7225647202820191
 30
0.0
 11
4718.4721573636852554
 21
21.4748882659820204
 31
0.0
  0
ARC
  5
14BB7
  8
0
 10
4714.0009865030788205
 20
20.9791149590736801
 30
0.0
 40
0.0943539336097757
 50
193.0728765018095885
 51
262.5163759211761203
  0
ARC
  5
14BB8
  8
0
 10
4717.3506441047202316
 20
20.16400481969767
 30
0.0
 40
0.1321904991569707
 50
284.0561000780505765
 51
32.8547451096441208
  0
ARC
  5
14BB9
  8
0
 10
4716.8317658408532225
 20
20.4855647202820101
 30
0.0
 40
0.5
 50
32.0376227788135068
 51
90.0
  0
ARC
  5
14BBA
  8
0
 10
4715.0717702648944396
 20
20.9793325638461283
 30
0.0
 40
0.0942479045643422
 50
275.7854148677826061
 51
333.4296750608892808
  0
ARC
  5
14BBB
  8
0
 10
4718.7621807281848305
 20
19.813146338782019
 30
0.0
 40
0.0905816185
 50
227.6986810866008
 51
270.0
  0
ARC
  5
14BBC
  8
0
 10
4718.5618852489442361
 20
20.2833299178188291
 30
0.0
 40
0.0551721281807465
 50
279.3589146854337173
 51
359.9342391416997202
  0
ARC
  5
14BBD
  8
0
 10
4717.9726139360927846
 20
21.4141054890509785
 30
0.0
 40
0.5032277635634828
 50
6.9374565104504571
 51
91.5401339441064437
  0
LINE
  5
14BBE
  8
0
 10
4702.6228652080908432
 20
20.0339173744073697
 30
0.0
 11
4717.3453028038229604
 21
20.0339173744073697
 31
0.0
  0
LINE
  5
14BBF
  8
0
 10
4702.9576252209199083
 20
20.8309229952820196
 30
0.0
 11
4716.8624634419929862
 21
20.8309229952820196
 31
0.0
  0
ARC
  5
14BC0
  8
0
 10
4720.0207625015164012
 20
-297.1687325752021138
 30
0.0
 40
319.0925443954516254
 50
90.3701936550747149
 51
93.0267050466838441
  0
LINE
  5
14BC1
  8
0
 10
4702.6933237660341547
 20
21.2896143033820096
 30
0.0
 11
4718.4952516519770143
 21
21.2896143033820096
 31
0.0
  0
ARC
  5
14BC2
  8
0
 10
4713.8719544401828898
 20
20.95247147380935
 30
0.0
 40
0.0375001282213478
 50
8.1273712746082563
 51
61.9434199212778367
  0
ARC
  5
14BC3
  8
0
 10
4715.2260890847455812
 20
20.9107694011151217
 30
0.0
 40
0.0748383277002708
 50
91.9425567281410849
 51
159.3384667548075981
  0
ARC
  5
14BC4
  8
0
 10
4716.7873890110085995
 20
20.3075520867543098
 30
0.0
 40
0.5287279811781475
 50
30.1400727572310601
 51
81.8369468652242062
  0
ARC
  5
14BC5
  8
0
 10
4717.366196801881415
 20
19.8432678476417799
 30
0.0
 40
0.9835914248314342
 50
99.2181792211893168
 51
107.2347645384826933
  0
ARC
  5
14BC6
  8
0
 10
4717.0341920984328681
 20
21.0015264815597185
 30
0.0
 40
0.2225622131480683
 50
268.0334658762361073
 51
280.5052372760948742
  0
ARC
  5
14BC7
  8
0
 10
4717.3466200318416668
 20
20.3862303376548404
 30
0.0
 40
0.3523154256655041
 50
269.7857834869051885
 51
275.8859438284135877
  0
ARC
  5
14BC8
  8
0
 10
4719.0938810334391746
 20
21.5245046276053706
 30
0.0
 40
2.0796664461093139
 50
207.2266020978809991
 51
218.2947812083970121
  0
LINE
  5
14BC9
  8
0
 10
4702.6749869728191698
 20
21.2588354544820106
 30
0.0
 11
4702.6749869721197683
 21
21.2306270989820085
 31
0.0
  0
LINE
  5
14BCA
  8
0
 10
4705.9354840230462287
 20
20.9020747092117993
 30
0.0
 11
4705.9351792887837291
 21
20.9090542712820202
 31
0.0
  0
LINE
  5
14BCB
  8
0
 10
4707.1014917135826181
 20
20.9020751692820106
 30
0.0
 11
4707.103177191083887
 21
20.9406789501820185
 31
0.0
  0
LINE
  5
14BCC
  8
0
 10
4703.0615441800200642
 20
21.45367023898201
 30
0.0
 11
4702.6933237660341547
 21
21.2896143033820096
 31
0.0
  0
ARC
  5
14BCD
  8
0
 10
4702.9021199515027547
 20
21.0463087836794784
 30
0.0
 40
0.0607771640000708
 50
233.3966831199525984
 51
268.1089410061205172
  0
ARC
  5
14BCE
  8
0
 10
4702.7198827251568218
 20
21.2529399655366014
 30
0.0
 40
0.0452811811656553
 50
125.9114448095637044
 51
172.5190045180412994
  0
ARC
  5
14BCF
  8
0
 10
4705.8519135854930937
 20
20.9020737973054196
 30
0.0
 40
0.0835577905745168
 50
4.7921130397203138
 51
87.707649700656404
  0
ARC
  5
14BD0
  8
0
 10
4707.0295418024688843
 20
20.9024250852063496
 30
0.0
 40
0.0719507619867823
 50
276.4019221080196758
 51
359.7213541020896059
  0
ARC
  5
14BD1
  8
0
 10
4706.0065125116479976
 20
20.9019095886878112
 30
0.0
 40
0.0710286805309109
 50
179.8668042601080117
 51
268.0275008068771854
  0
LINE
  5
14BD2
  8
0
 10
4702.5713814199207263
 20
20.1075203699820086
 30
0.0
 11
4702.5713814199207263
 21
20.0838840362820186
 31
0.0
  0
LINE
  5
14BD3
  8
0
 10
4702.7155629261205831
 20
20.6456186331820106
 30
0.0
 11
4702.5713814199207263
 21
20.1075203699820086
 31
0.0
  0
ARC
  5
14BD4
  8
0
 10
4702.6398760612919432
 20
20.1029515444931803
 30
0.0
 40
0.0710991263380891
 50
195.5561157891405912
 51
256.1573996239840767
  0
ARC
  5
14BD5
  8
0
 10
4702.982222821272444
 20
20.5480366045771383
 30
0.0
 40
0.2839537849529559
 50
94.969496241388228
 51
159.9003099228781082
  0
ARC
  5
14BD6
  8
0
 10
4703.1862270997162341
 20
21.1594027143052905
 30
0.0
 40
0.319592250443123
 50
92.510432807593304
 51
112.9626655365007935
  0
ARC
  5
14BD7
  8
0
 10
4703.1821478102947367
 20
21.4626675037575509
 30
0.0
 40
0.5624849328189664
 50
206.4412624376440988
 51
235.7871770865077963
  0
ARC
  5
14BD8
  8
0
 10
4702.7326015590087991
 20
21.2320778809688591
 30
0.0
 40
0.0576328499277668
 50
181.4424493374592942
 51
200.1716331026916862
  0
ARC
  5
14BD9
  8
0
 10
4700.8953408955439954
 20
-22.8417277927453597
 30
0.0
 40
44.0900055400729372
 50
83.742163078360818
 51
87.6821147149878186
  0
ARC
  5
14BDA
  8
0
 10
4707.1531412632502906
 20
20.9368166733769812
 30
0.0
 40
0.0501131289138464
 50
103.4039269167815007
 51
175.5797646127489884
  0
LINE
  5
14BDB
  8
0
 10
4705.156983866912924
 20
19.6830837202820099
 30
0.0
 11
4705.1563132505862086
 21
19.7230837202820197
 31
0.0
  0
LINE
  5
14BDC
  8
0
 10
4706.0119589766127319
 20
19.6830837202820099
 30
0.0
 11
4706.0125891144571142
 21
19.7230837202820197
 31
0.0
  0
LINE
  5
14BDD
  8
0
 10
4705.156983866912924
 20
19.6830837202820099
 30
0.0
 11
4706.0119589766127319
 21
19.6830837202820099
 31
0.0
  0
LINE
  5
14BDE
  8
0
 10
4705.1495752851151337
 20
19.7230837202820197
 30
0.0
 11
4706.0193675584141602
 21
19.7230837202820197
 31
0.0
  0
ARC
  5
14BDF
  8
0
 10
4705.1495752851151337
 20
19.8330837202820192
 30
0.0
 40
0.11
 50
184.9999999999980957
 51
270.0
  0
ARC
  5
14BE0
  8
0
 10
4706.0235774613793183
 20
19.8333556595645994
 30
0.0
 40
0.1103522717306757
 50
267.8136542549182195
 51
346.1417308469839895
  0
ARC
  5
14BE1
  8
0
 10
4704.7716317736294513
 20
19.7665362822774
 30
0.0
 40
0.2743404643194862
 50
11.9832858185710105
 51
77.0669751246597627
  0
ARC
  5
14BE2
  8
0
 10
4705.2496131621210225
 20
39.2381074469908384
 30
0.0
 40
19.2298006753922408
 50
267.0426116944025807
 51
268.9433361634269772
  0
ARC
  5
14BE3
  8
0
 10
4706.4586533904966927
 20
19.69773385191003
 30
0.0
 40
0.3456362612314023
 50
103.4307911199765044
 51
161.5842112737003049
  0
ARC
  5
14BE4
  8
0
 10
4679.3798238938034046
 20
-867.8777968963006515
 30
0.0
 40
888.2511169475872066
 50
87.6697661820230962
 51
88.2670163810545176
  0
ARC
  5
14BE5
  8
0
 10
4715.6323233418461314
 20
19.7056578057491691
 30
0.0
 40
0.0670913502573581
 50
274.8511468505864741
 51
344.3926133868724264
  0
ARC
  5
14BE6
  8
0
 10
4716.0418406728986156
 20
19.6282053797475307
 30
0.0
 40
0.3499777771073564
 50
132.8410496805311993
 51
170.2278501439512013
  0
ARC
  5
14BE7
  8
0
 10
4713.1862394340560058
 20
19.8232931688004896
 30
0.0
 40
0.2652467144715011
 50
21.2651919551252711
 51
52.5674129583155008
  0
ARC
  5
14BE8
  8
0
 10
4713.6328118682813511
 20
19.9970920198071482
 30
0.0
 40
0.2139536398909117
 50
201.2651919551244077
 51
265.5241848101167079
  0
ARC
  5
14BE9
  8
0
 10
4713.6342374837922762
 20
20.0153044637936013
 30
0.0
 40
0.2322217951219656
 50
265.5241848101167079
 51
269.8275696383101945
  0
LINE
  5
14BEA
  8
0
 10
4713.6335386185692187
 20
19.7830837202820184
 30
0.0
 11
4713.7852718613030447
 21
19.7830837202430487
 31
0.0
  0
ARC
  5
14BEB
  8
0
 10
4713.7852321976160965
 20
19.9980342919952498
 30
0.0
 40
0.2149505754116619
 50
270.0105724858427152
 51
277.0978600208134139
  0
ARC
  5
14BEC
  8
0
 10
4713.7853532233557416
 20
19.9970623433355783
 30
0.0
 40
0.213971120753792
 50
277.0978600208134139
 51
334.0495970607931895
  0
ARC
  5
14BED
  8
0
 10
4714.2217554224898777
 20
19.784682199172881
 30
0.0
 40
0.2713660868079954
 50
113.3000134587502998
 51
154.0495970607931895
  0
ARC
  5
14BEE
  8
0
 10
4716.6698245798170319
 20
16.4631814156610083
 30
0.0
 40
3.5552476435982499
 50
90.1199133987574754
 51
99.4827132411198534
  0
ARC
  5
14BEF
  8
0
 10
4716.3315695019946361
 20
18.4882672457205786
 30
0.0
 40
1.5021063633205469
 50
99.4827132411198534
 51
105.0384495348953067
  0
ARC
  5
14BF0
  8
0
 10
4716.1417524076287009
 20
19.1947774706470504
 30
0.0
 40
0.7705414466937826
 50
105.0384495348953067
 51
112.6434963008716039
  0
ARC
  5
14BF1
  8
0
 10
4715.9597843944457054
 20
19.6309938539269098
 30
0.0
 40
0.2978924322407916
 50
112.6434963008716039
 51
121.560616017224504
  0
ARC
  5
14BF2
  8
0
 10
4716.9436883738189863
 20
34.2200802091084313
 30
0.0
 40
14.2044446834209008
 50
268.8652414673838962
 51
270.8002220790389174
  0
ARC
  5
14BF3
  8
0
 10
4717.2269664193008794
 20
13.6160842884528606
 30
0.0
 40
6.4014995901481058
 50
89.9897258839766607
 51
90.75989043654738
  0
ARC
  5
14BF4
  8
0
 10
4717.2281147274461546
 20
20.0198673091847112
 30
0.0
 40
0.0022835335393954
 50
269.9897258839765755
 51
357.4887509696778238
  0
ARC
  5
14BF5
  8
0
 10
4717.3370893410556164
 20
20.0150879385610487
 30
0.0
 40
0.1067958357044852
 50
169.844956145252894
 51
177.4887509696777954
  0
ARC
  5
14BF6
  8
0
 10
4720.8252824228202371
 20
22.6216162407623784
 30
0.0
 40
4.0301939036381427
 50
207.6584196363328942
 51
214.9768958774581904
  0
ARC
  5
14BF7
  8
0
 10
4717.9131740465363691
 20
20.63260611276689
 30
0.0
 40
0.505421961559881
 50
219.4698593081519959
 51
250.4398163705062075
  0
ARC
  5
14BF8
  8
0
 10
4717.8926157627183784
 20
20.4840614346550609
 30
0.0
 40
0.359849934348794
 50
245.6000378178426047
 51
267.9091768417183062
  0
LINE
  5
14BF9
  8
0
 10
4718.6227741670436444
 20
20.3673648951692705
 30
0.0
 11
4718.6990496718226495
 21
19.7461507604820206
 31
0.0
  0
LINE
  5
14BFA
  8
0
 10
4720.1431819358704161
 20
19.7225647202820191
 30
0.0
 11
4720.1530776667696045
 21
19.9140810906820214
 31
0.0
  0
ARC
  5
14BFB
  8
0
 10
4718.7600137768213244
 20
19.8131463387820013
 30
0.0
 40
0.0905816185
 50
227.6986810866011979
 51
270.0
  0
ARC
  5
14BFC
  8
0
 10
4718.5810357767149981
 20
15.4302799298148603
 30
0.0
 40
5.0626494950534173
 50
70.6375000116311043
 51
88.1962631994418444
  0
ARC
  5
14BFD
  8
0
 10
4720.2406179934996544
 20
20.1503065979001796
 30
0.0
 40
0.0593698276318704
 50
359.9624320983323855
 51
71.4296439302579955
  0
ARC
  5
14BFE
  8
0
 10
4720.277881934837751
 20
19.9069245007185316
 30
0.0
 40
0.1250092880856224
 50
145.1139918687613033
 51
176.7181101836617927
  0
ARC
  5
14BFF
  8
0
 10
4720.4282142428273801
 20
19.8021057986656501
 30
0.0
 40
0.3082762057920128
 50
135.6615648330773922
 51
145.1139918687613033
  0
ARC
  5
14C00
  8
0
 10
4720.389952948777136
 20
19.8394935730945292
 30
0.0
 40
0.2547806704728936
 50
124.135420936235306
 51
135.6615648330773922
  0
ARC
  5
14C01
  8
0
 10
4720.1498953883656213
 20
20.1935853820874307
 30
0.0
 40
0.173014422424167
 50
304.1354209362352208
 51
321.7697449273952088
  0
ARC
  5
14C02
  8
0
 10
4720.2339218444722064
 20
20.1273912050533994
 30
0.0
 40
0.0660466029691143
 50
321.7697449273952088
 51
359.5682411464196093
  0
ARC
  5
14C03
  8
0
 10
4718.5364695922371538
 20
20.1401827914054508
 30
0.0
 40
1.7635470516579339
 50
359.5682411464196093
 51
0.3276488335470816
  0
ARC
  5
14C04
  8
0
 10
4718.7619896646183406
 20
20.3525647204721984
 30
0.0
 40
0.1399999997714454
 50
108.2566108233135935
 51
173.9316069255050934
  0
ARC
  5
14C05
  8
0
 10
4718.7619914002389123
 20
20.3525594590767014
 30
0.0
 40
0.1400055400479134
 50
101.3292286586530935
 51
108.2566108233135935
  0
ARC
  5
14C06
  8
0
 10
4718.7403755576806361
 20
20.4604497145822393
 30
0.0
 40
0.0299712186632817
 50
89.9772457066703737
 51
101.3292286586530935
  0
ARC
  5
14C07
  8
0
 10
4718.6572295546638998
 20
20.2455152825933986
 30
0.0
 40
0.0337388438422117
 50
207.6783195160103048
 51
242.0061688330658001
  0
ENDSEC
  0
EOF
