  0
SECTION
  2
HEADER
  9
$ACADVER
  1
AC1009
  9
$INSBASE
 10
67.1293391346597588
 20
14.3241696607072502
 30
0.0
  9
$EXTMIN
 10
59.8277233967607387
 20
7.408365483418236
 30
-0.0000000000000058
  9
$EXTMAX
 10
67.1425276601298151
 20
33.6518888607296134
 30
0.0000000000000104
  9
$LIMMIN
 10
0.0
 20
0.0
  9
$LIMMAX
 10
11.6929133858000007
 20
8.2677165353999982
  9
$ORTHOMODE
 70
     0
  9
$REGENMODE
 70
     1
  9
$FILLMODE
 70
     1
  9
$QTEXTMODE
 70
     0
  9
$MIRRTEXT
 70
     0
  9
$DRAGMODE
 70
     2
  9
$LTSCALE
 40
0.6431102362
  9
$OSMODE
 70
  4095
  9
$ATTMODE
 70
     1
  9
$TEXTSIZE
 40
0.2
  9
$TRACEWID
 40
0.05
  9
$TEXTSTYLE
  7
STANDARD
  9
$CLAYER
  8
0
  9
$CELTYPE
  6
BYLAYER
  9
$CECOLOR
 62
   256
  9
$DIMSCALE
 40
1.0
  9
$DIMASZ
 40
0.1875
  9
$DIMEXO
 40
0.0625
  9
$DIMDLI
 40
0.4443307087
  9
$DIMRND
 40
0.0
  9
$DIMDLE
 40
0.0
  9
$DIMEXE
 40
0.125
  9
$DIMTP
 40
0.01
  9
$DIMTM
 40
0.01
  9
$DIMTXT
 40
0.15625
  9
$DIMCEN
 40
0.1052362205
  9
$DIMTSZ
 40
0.0
  9
$DIMTOL
 70
     1
  9
$DIMLIM
 70
     0
  9
$DIMTIH
 70
     1
  9
$DIMTOH
 70
     1
  9
$DIMSE1
 70
     0
  9
$DIMSE2
 70
     0
  9
$DIMTAD
 70
     0
  9
$DIMZIN
 70
     0
  9
$DIMBLK
  1
_FILLED
  9
$DIMASO
 70
     1
  9
$DIMSHO
 70
     1
  9
$DIMPOST
  1

  9
$DIMAPOST
  1

  9
$DIMALT
 70
     1
  9
$DIMALTD
 70
     2
  9
$DIMALTF
 40
25.3999999999999986
  9
$DIMLFAC
 40
1.0
  9
$DIMTOFL
 70
     0
  9
$DIMTVP
 40
0.0
  9
$DIMTIX
 70
     0
  9
$DIMSOXD
 70
     0
  9
$DIMSAH
 70
     0
  9
$DIMBLK1
  1

  9
$DIMBLK2
  1

  9
$DIMSTYLE
  2
STANDARD
  9
$DIMCLRD
 70
     0
  9
$DIMCLRE
 70
     0
  9
$DIMCLRT
 70
     0
  9
$DIMTFAC
 40
1.0
  9
$DIMGAP
 40
0.09
  9
$LUNITS
 70
     2
  9
$LUPREC
 70
     4
  9
$SKETCHINC
 40
0.1
  9
$FILLETRAD
 40
0.0196850393999988
  9
$AUNITS
 70
     0
  9
$AUPREC
 70
     0
  9
$MENU
  1
.
  9
$ELEVATION
 40
0.0
  9
$PELEVATION
 40
0.0
  9
$THICKNESS
 40
0.0
  9
$LIMCHECK
 70
     0
  9
$BLIPMODE
 70
     0
  9
$CHAMFERA
 40
0.0
  9
$CHAMFERB
 40
0.0
  9
$SKPOLY
 70
     0
  9
$TDCREATE
 40
2460578.6030787038616836
  9
$TDUPDATE
 40
2460622.7447453709319234
  9
$TDINDWG
 40
0.3893055556
  9
$TDUSRTIMER
 40
0.3893055556
  9
$USRTIMER
 70
     1
  9
$ANGBASE
 50
0.0
  9
$ANGDIR
 70
     0
  9
$PDMODE
 70
     3
  9
$PDSIZE
 40
0.3125
  9
$PLINEWID
 40
0.0
  9
$COORDS
 70
     1
  9
$SPLFRAME
 70
     0
  9
$SPLINETYPE
 70
     6
  9
$SPLINESEGS
 70
     8
  9
$ATTDIA
 70
     1
  9
$ATTREQ
 70
     1
  9
$HANDLING
 70
     1
  9
$HANDSEED
  5
182C7
  9
$SURFTAB1
 70
     6
  9
$SURFTAB2
 70
     6
  9
$SURFTYPE
 70
     6
  9
$SURFU
 70
     6
  9
$SURFV
 70
     6
  9
$UCSNAME
  2

  9
$UCSORG
 10
0.0
 20
0.0
 30
0.0
  9
$UCSXDIR
 10
1.0
 20
0.0
 30
0.0
  9
$UCSYDIR
 10
0.0
 20
1.0
 30
0.0
  9
$PUCSNAME
  2

  9
$PUCSORG
 10
0.0
 20
0.0
 30
0.0
  9
$PUCSXDIR
 10
1.0
 20
0.0
 30
0.0
  9
$PUCSYDIR
 10
0.0
 20
1.0
 30
0.0
  9
$USERI1
 70
     0
  9
$USERI2
 70
     0
  9
$USERI3
 70
     0
  9
$USERI4
 70
     0
  9
$USERI5
 70
     0
  9
$USERR1
 40
0.0
  9
$USERR2
 40
0.0
  9
$USERR3
 40
0.0
  9
$USERR4
 40
0.0
  9
$USERR5
 40
0.0
  9
$WORLDVIEW
 70
     1
  9
$SHADEDGE
 70
     3
  9
$SHADEDIF
 70
    70
  9
$TILEMODE
 70
     1
  9
$MAXACTVP
 70
    64
  9
$PLIMCHECK
 70
     0
  9
$PEXTMIN
 10
1.0000000000000000E+20
 20
1.0000000000000000E+20
 30
1.0000000000000000E+20
  9
$PEXTMAX
 10
-1.0000000000000000E+20
 20
-1.0000000000000000E+20
 30
-1.0000000000000000E+20
  9
$PLIMMIN
 10
0.0
 20
0.0
  9
$PLIMMAX
 10
12.0
 20
9.0
  9
$UNITMODE
 70
     0
  9
$VISRETAIN
 70
     1
  9
$PLINEGEN
 70
     0
  9
$PSLTSCALE
 70
     1
  0
ENDSEC
  0
SECTION
  2
TABLES
  0
TABLE
  2
VPORT
 70
     1
  0
VPORT
  2
*ACTIVE
 70
     0
 10
0.0
 20
0.0
 11
1.0
 21
1.0
 12
50.8219663442874321
 22
12.1612035079809093
 13
0.0
 23
0.0
 14
1.0
 24
1.0
 15
0.0
 25
0.0
 16
-0.000000000000032
 26
0.0
 36
141.0061923795518908
 17
12.6631591841578501
 27
8.3689236640930176
 37
0.0
 40
26.420247440458251
 41
1.8179775280898871
 42
50.0
 43
0.0
 44
0.0
 50
0.0
 51
0.0
 71
     0
 72
   100
 73
     1
 74
     1
 75
     0
 76
     0
 77
     0
 78
     0
  0
ENDTAB
  0
TABLE
  2
LTYPE
 70
     1
  0
LTYPE
  2
CONTINUOUS
 70
     0
  3
Solid line
 72
    65
 73
     0
 40
0.0
  0
ENDTAB
  0
TABLE
  2
LAYER
 70
     2
  0
LAYER
  2
0
 70
     0
 62
     7
  6
CONTINUOUS
  0
LAYER
  2
DEFPOINTS
 70
     0
 62
     7
  6
CONTINUOUS
  0
ENDTAB
  0
TABLE
  2
STYLE
 70
     1
  0
STYLE
  2
STANDARD
 70
     0
 40
0.0
 41
0.8
 50
0.0
 71
     0
 42
0.2
  3
txt
  4

  0
ENDTAB
  0
TABLE
  2
VIEW
 70
     0
  0
ENDTAB
  0
TABLE
  2
UCS
 70
     0
  0
ENDTAB
  0
TABLE
  2
APPID
 70
     4
  0
APPID
  2
ACAD
 70
     0
  0
APPID
  2
ACAD_NAV_VCDISPLAY
 70
     0
  0
APPID
  2
ACAD_MLEADERVER
 70
     0
  0
APPID
  2
ACDBATTR
 70
     0
  0
ENDTAB
  0
TABLE
  2
DIMSTYLE
 70
     1
  0
DIMSTYLE
  2
STANDARD
 70
     0
  3

  4

  5
_FILLED
  6
_FILLED
  7
_FILLED
 40
1.0
 41
0.1875
 42
0.0625
 43
0.38
 44
0.125
 45
0.0
 46
0.0
 47
0.01
 48
0.01
140
0.15625
141
0.09
142
0.0
143
25.3999999999999986
144
1.0
145
0.0
146
1.0
147
0.09
 71
     1
 72
     0
 73
     1
 74
     1
 75
     0
 76
     0
 77
     0
 78
     4
170
     1
171
     2
172
     0
173
     0
174
     0
175
     0
176
     0
177
     0
178
     0
  0
ENDTAB
  0
ENDSEC
  0
SECTION
  2
BLOCKS
  0
BLOCK
  8
0
  2
$MODEL_SPACE
 70
     0
 10
0.0
 20
0.0
 30
0.0
  3
$MODEL_SPACE
  1

  0
ENDBLK
  5
21
  8
0
  0
BLOCK
 67
     1
  8
0
  2
$PAPER_SPACE
 70
     0
 10
0.0
 20
0.0
 30
0.0
  3
$PAPER_SPACE
  1

  0
ENDBLK
  5
1D
 67
     1
  8
0
  0
BLOCK
  8
0
  2
_FILLED
 70
     0
 10
0.0
 20
0.0
 30
0.0
  3
_FILLED
  1

  0
SOLID
  5
246
  8
0
  6
BYBLOCK
 62
     0
 10
0.0
 20
0.0
 30
0.0
 11
-1.0
 21
0.1666666667
 31
0.0
 12
-1.0
 22
-0.1666666667
 32
0.0
 13
-1.0
 23
-0.1666666667
 33
0.0
  0
ENDBLK
  5
247
  8
0
  6
BYBLOCK
 62
     0
  0
ENDSEC
  0
SECTION
  2
ENTITIES
  0
LINE
  5
D774
  8
0
 10
20.1776924420500414
 20
686.3329855330988494
 30
0.0
 11
20.1776924420500414
 21
686.3329855330988494
 31
0.0
  0
ATTDEF
  5
15B23
  8
DEFPOINTS
 10
67.1297473863680239
 20
14.3262278021210303
 30
0.0
 40
0.001
  1
K-35752T-4
  3

  2
MODELNUMBER
 70
     0
1001
ACDBATTR
1070
     0
1070
     1
  0
ATTDEF
  5
15B24
  8
DEFPOINTS
 10
67.1297473863680239
 20
14.3245611354543598
 30
0.0
 40
0.001
  1
FORE
  3

  2
TRADENAME
 70
     0
1001
ACDBATTR
1070
     0
1070
     1
  0
ATTDEF
  5
15B25
  8
DEFPOINTS
 10
67.1297473863680239
 20
14.3228944687876893
 30
0.0
 40
0.001
  1
SHOWER FAUCET
  3

  2
PRODUCT
 70
     0
1001
ACDBATTR
1070
     0
1070
     1
  0
LINE
  5
17C58
  8
0
 10
67.1303819106981763
 20
22.8564220935572209
 30
0.0
 11
67.1289634966476427
 21
24.6393421407017712
 31
0.0
  0
ARC
  5
17C59
  8
0
 10
67.4003938801151889
 20
15.9916301520743094
 30
0.0
 40
7.6485821642133383
 50
193.2486369617242872
 51
193.9040150384028038
  0
ARC
  5
17C5A
  8
0
 10
70.0416605312106526
 20
16.6134995736673794
 30
0.0
 40
10.3620690537526308
 50
192.8930287958507961
 51
193.2486369617242872
  0
ARC
  5
17C5B
  8
0
 10
65.7752826269224613
 20
15.6369148984513995
 30
0.0
 40
5.9853467584652913
 50
191.6590700658649951
 51
192.8930287958513077
  0
ARC
  5
17C5C
  8
0
 10
67.9587162068196733
 20
16.0874558412123712
 30
0.0
 40
8.2147792734624954
 50
189.6053196511635122
 51
191.6590700658649951
  0
ARC
  5
17C5D
  8
0
 10
65.9855027740184141
 20
15.75352332262724
 30
0.0
 40
6.2135091321882134
 50
187.9587079872202082
 51
189.6053196511635122
  0
ARC
  5
17C5E
  8
0
 10
59.8710431983682696
 20
14.89708713955355
 30
0.0
 40
0.039393521309126
 50
146.4286829377174968
 51
185.6561360456425973
  0
ARC
  5
17C5F
  8
0
 10
59.8709202873275714
 20
14.8971687127913199
 30
0.0
 40
0.0392460041336883
 50
114.9460631754547961
 51
146.4286829377201116
  0
ARC
  5
17C60
  8
0
 10
59.8712597988433828
 20
14.8964388349208896
 30
0.0
 40
0.0400509822545786
 50
93.7906432499749059
 51
114.9460631754555067
  0
ARC
  5
17C61
  8
0
 10
60.0141313330456114
 20
14.1632060467069394
 30
0.0
 40
0.0393766324330906
 50
193.9610515696975881
 51
255.2221590803009974
  0
ARC
  5
17C62
  8
0
 10
73.0918264691615747
 20
63.7378656740609912
 30
0.0
 40
51.3099626606707986
 50
255.2221437727243938
 51
255.2343136795994951
  0
ARC
  5
17C63
  8
0
 10
54.0877076324041965
 20
-8.3646529391060227
 30
0.0
 40
23.2549736239106508
 50
75.1732637050643291
 51
75.2343136795994241
  0
LINE
  5
17C64
  8
0
 10
60.0385829451597601
 20
14.1160250146572093
 30
0.0
 11
60.0415279140597491
 21
14.1109704142572205
 31
0.0
  0
LINE
  5
17C65
  8
0
 10
60.0415279140597491
 20
14.1109704142572205
 30
0.0
 11
60.1176650068629073
 21
14.0908916816518008
 31
0.0
  0
LINE
  5
17C66
  8
0
 10
60.1176650068629073
 20
14.0908916816518008
 30
0.0
 11
60.1316795968597617
 21
14.0668377252572103
 31
0.0
  0
LINE
  5
17C67
  8
0
 10
60.1316795968597617
 20
14.0668377252572103
 30
0.0
 11
60.11676324256306
 21
14.0102759953697902
 31
0.0
  0
ARC
  5
17C68
  8
0
 10
60.1548317889597612
 20
14.0002366290572091
 30
0.0
 40
0.0393700787000171
 50
165.2264205208886949
 51
210.2264083299695017
  0
LINE
  5
17C69
  8
0
 10
60.1208143576597465
 20
13.9804170057572197
 30
0.0
 11
60.1266193909597391
 21
13.9704535307572204
 31
0.0
  0
LINE
  5
17C6A
  8
0
 10
60.1266193909597391
 20
13.9704535307572204
 30
0.0
 11
60.7737846795597534
 21
13.7997843036572192
 31
0.0
  0
ARC
  5
17C6B
  8
0
 10
60.7639285309617492
 20
13.8396067684181308
 30
0.0
 40
0.0393700790291826
 50
300.2264207709280868
 51
345.226420419858016
  0
LINE
  5
17C6C
  8
0
 10
60.7837481545523772
 20
13.8055893369993701
 30
0.0
 11
60.7737846795597534
 21
13.7997843036572192
 31
0.0
  0
LINE
  5
17C6D
  8
0
 10
60.8019970776115031
 20
13.8295674019670205
 30
0.0
 11
60.8169134318911233
 21
13.8861291318489393
 31
0.0
  0
LINE
  5
17C6E
  8
0
 10
60.8169134318911233
 20
13.8861291318489393
 30
0.0
 11
60.840967388259763
 21
13.9001437219572193
 31
0.0
  0
LINE
  5
17C6F
  8
0
 10
60.840967388259763
 20
13.9001437219572193
 30
0.0
 11
60.9171044810597522
 21
13.8800649893572103
 31
0.0
  0
LINE
  5
17C70
  8
0
 10
60.9171044810597522
 20
13.8800649893572103
 30
0.0
 11
60.9221806542597406
 21
13.8830225271572107
 31
0.0
  0
LINE
  5
17C71
  8
0
 10
60.9221806542597406
 20
13.8830225271572107
 30
0.0
 11
60.9758797494210967
 21
13.8688746978339097
 31
0.0
  0
ARC
  5
17C72
  8
0
 10
60.9859122367597379
 20
13.9069579122572193
 30
0.0
 40
0.0393825091000044
 50
255.2415392241059067
 51
331.8292410524953198
  0
ARC
  5
17C73
  8
0
 10
60.400759074405002
 20
14.1760451091386201
 30
0.0
 40
0.3007673325937624
 50
228.5279494111939869
 51
233.4649858161106977
  0
ARC
  5
17C74
  8
0
 10
59.2512935478004295
 20
12.6246153398714807
 30
0.0
 40
1.630088779554582
 50
52.6458212996426269
 51
53.4649858161106977
  0
ARC
  5
17C75
  8
0
 10
60.4310434006848993
 20
14.1702242945405299
 30
0.0
 40
0.3143177510181987
 50
232.6458212996425914
 51
239.234124195863302
  0
ARC
  5
17C76
  8
0
 10
59.5351213532084884
 20
12.6652638877782397
 30
0.0
 40
1.4371336873826599
 50
58.3369922091862989
 51
59.2341241958632807
  0
ARC
  5
17C77
  8
0
 10
60.4522457004614111
 20
14.1523614549485206
 30
0.0
 40
0.3100286527013585
 50
238.3369922091862918
 51
244.8246018897289957
  0
ARC
  5
17C78
  8
0
 10
59.7554063653676479
 20
12.6698505042516594
 30
0.0
 40
1.328087270507383
 50
63.8764705148606922
 51
64.8246018897289815
  0
ARC
  5
17C79
  8
0
 10
60.4863942720001191
 20
14.1604327571382207
 30
0.0
 40
0.3320870493347554
 50
243.8764705148606993
 51
247.3407082098219121
  0
ARC
  5
17C7A
  8
0
 10
60.5799807088429532
 20
14.3846055828770698
 30
0.0
 40
0.5750106524709624
 50
247.3407082098219121
 51
250.3079446727871016
  0
LINE
  5
17C7B
  8
0
 10
60.3862224109597605
 20
13.8432231187572103
 30
0.0
 11
60.4007129249597483
 21
13.8981700934572192
 31
0.0
  0
LINE
  5
17C7C
  8
0
 10
60.4996911455597512
 20
13.8720677410572097
 30
0.0
 11
60.4851987203597616
 21
13.8171135192572194
 31
0.0
  0
ARC
  5
17C7D
  8
0
 10
60.5802918704849134
 20
14.3693411147444099
 30
0.0
 40
0.5603552662537357
 50
260.2295337352456954
 51
267.5746915519987965
  0
ARC
  5
17C7E
  8
0
 10
60.5857960989001398
 20
14.4992959979521299
 30
0.0
 40
0.6904266628018579
 50
267.5746915519987965
 51
272.3537330732597752
  0
ARC
  5
17C7F
  8
0
 10
60.5944628049620988
 20
14.2884452777398003
 30
0.0
 40
0.4793979017098675
 50
272.3537330732597752
 51
276.6720035556588186
  0
ARC
  5
17C80
  8
0
 10
60.5432282531790023
 20
14.7264310715165507
 30
0.0
 40
0.9203701625683709
 50
276.6720035556588186
 51
278.1228710960359081
  0
ARC
  5
17C81
  8
0
 10
60.5917070505163124
 20
14.3867732959771892
 30
0.0
 40
0.5772701796543251
 50
278.1228710960359081
 51
280.6991050634550788
  0
ARC
  5
17C82
  8
0
 10
61.2134947920336998
 20
13.7774605690073493
 30
0.0
 40
0.2226419018009951
 50
145.8121050428530907
 51
150.1127268297124999
  0
ARC
  5
17C83
  8
0
 10
61.3383179034779005
 20
13.6807887162073705
 30
0.0
 40
0.3803432828491583
 50
117.0189191951289018
 51
144.3314455559751934
  0
ARC
  5
17C84
  8
0
 10
61.376305149331067
 20
13.6156438904741197
 30
0.0
 40
0.4556547945767789
 50
103.3079442622887996
 51
117.5529472260893016
  0
ARC
  5
17C85
  8
0
 10
61.37375546670566
 20
13.6437428442450095
 30
0.0
 40
0.4277420645070836
 50
89.4211535468653693
 51
103.8419722932470961
  0
ARC
  5
17C86
  8
0
 10
61.4122663021739328
 20
17.4555192756308095
 30
0.0
 40
3.3842289017145579
 50
269.4211535468652983
 51
270.5810141006252252
  0
ARC
  5
17C87
  8
0
 10
61.4870741264591985
 20
13.9641909808459808
 30
0.0
 40
0.1057246478094755
 50
51.2884113802838826
 51
73.6733506263115885
  0
ARC
  5
17C88
  8
0
 10
61.4802304985554713
 20
13.9565167949168796
 30
0.0
 40
0.1159941136039787
 50
15.8254460964733692
 51
51.0213441541259911
  0
ARC
  5
17C89
  8
0
 10
61.4798341366174483
 20
13.9390464766987598
 30
0.0
 40
0.1318905018674754
 50
73.7256611873850858
 51
83.375755576492466
  0
ARC
  5
17C8A
  8
0
 10
61.4699786374152097
 20
13.8541824156862905
 30
0.0
 40
0.2173249194990998
 50
83.375755576492466
 51
90.0001578909930373
  0
ARC
  5
17C8B
  8
0
 10
61.469996715722047
 20
7.293892539721738
 30
0.0
 40
6.7776147954885602
 50
90.0001578909930373
 51
90.1979168171184256
  0
ARC
  5
17C8C
  8
0
 10
61.4392036504088708
 20
13.9449965826948699
 30
0.0
 40
0.1586076036140581
 50
2.8435861268734079
 51
15.7875986346357706
  0
ARC
  5
17C8D
  8
0
 10
61.1193904405243416
 20
13.9287673740842308
 30
0.0
 40
0.4788322706232672
 50
358.3011057450112844
 51
2.8846800313888572
  0
ARC
  5
17C8E
  8
0
 10
62.7042645392845728
 20
13.8817600221793302
 30
0.0
 40
1.1067387937110269
 50
178.3011057450111991
 51
181.4263794788128052
  0
LINE
  5
17C8F
  8
0
 10
61.597864881959751
 20
13.85421948775722
 30
0.0
 11
61.5978699426597487
 21
13.7952800421572093
 31
0.0
  0
ARC
  5
17C90
  8
0
 10
61.6372400196317827
 20
13.7952808805381597
 30
0.0
 40
0.0393700769809428
 50
180.0012201065786996
 51
270.0000013505110132
  0
LINE
  5
17C91
  8
0
 10
61.6372400196317827
 20
13.7559108035572208
 30
0.0
 11
62.6608645355597531
 21
13.7559326468572198
 31
0.0
  0
ARC
  5
17C92
  8
0
 10
62.313452469637447
 20
13.5196916276440504
 30
0.0
 40
1.0275769355771349
 50
131.479439221355193
 51
147.5227354148890981
  0
ARC
  5
17C93
  8
0
 10
62.2328456965806609
 20
13.6108669183371607
 30
0.0
 40
0.9058790083326576
 50
113.2805348518349007
 51
131.479439221355193
  0
ARC
  5
17C94
  8
0
 10
62.1507531895240177
 20
13.8016619844649693
 30
0.0
 40
0.6981726363226445
 50
90.1396210897631107
 51
113.280534851835796
  0
ARC
  5
17C95
  8
0
 10
62.6608636810439208
 20
13.7953027255637792
 30
0.0
 40
0.0393700787158329
 50
270.0012435878289239
 51
0.0012227442936501
  0
ARC
  5
17C96
  8
0
 10
62.8365827713878815
 20
13.9656448850814705
 30
0.0
 40
0.1201188368395496
 50
87.0242467286470571
 51
131.2571252643278115
  0
ARC
  5
17C97
  8
0
 10
62.8600717681335581
 20
13.9362622101427291
 30
0.0
 40
0.1577064183697061
 50
130.6329325282920877
 51
172.905246049114993
  0
LINE
  5
17C98
  8
0
 10
62.7002337597507804
 20
13.79530356575723
 30
0.0
 11
62.7035728682597622
 21
13.9557406272571995
 31
0.0
  0
ARC
  5
17C99
  8
0
 10
61.9856401088505677
 20
13.5194485772855693
 30
0.0
 40
1.0275769355771349
 50
33.4328088031312234
 51
48.6055225364306409
  0
ARC
  5
17C9A
  8
0
 10
62.0661115929231428
 20
13.6107432964469695
 30
0.0
 40
0.9058790083326576
 50
48.6055225364306409
 51
66.8044269059510896
  0
ARC
  5
17C9B
  8
0
 10
62.1479210869957797
 20
13.8016598846553897
 30
0.0
 40
0.6981726363226445
 50
66.8044269059510896
 51
89.9453406680237322
  0
LINE
  5
17C9C
  8
0
 10
61.7951224945597417
 20
13.7559141726234309
 30
0.0
 11
61.7951224945597417
 21
13.7165461686563592
 31
0.0
  0
LINE
  5
17C9D
  8
0
 10
61.6962991487597492
 20
13.7165446391572203
 30
0.0
 11
61.696307191959761
 21
13.1968595998572198
 31
0.0
  0
LINE
  5
17C9E
  8
0
 10
61.696307191959761
 20
13.1968595998572198
 30
0.0
 11
62.6018190028597488
 21
13.1968736145238896
 31
0.0
  0
LINE
  5
17C9F
  8
0
 10
62.6018190028597488
 20
13.1968736145238896
 30
0.0
 11
62.6018109596406305
 21
13.71655865385722
 31
0.0
  0
LINE
  5
17CA0
  8
0
 10
62.6018109596406305
 20
13.71655865385722
 30
0.0
 11
61.6962991487597492
 21
13.7165446391905501
 31
0.0
  0
LINE
  5
17CA1
  8
0
 10
62.5037844553425614
 20
13.7559292949071601
 30
0.0
 11
62.5037833683769506
 21
13.7165582698572095
 31
0.0
  0
ARC
  5
17CA2
  8
0
 10
62.8472989019724224
 20
1.2977538100172119
 30
0.0
 40
12.7878498507490601
 50
88.1870717672957767
 51
90.0201705000127816
  0
ARC
  5
17CA3
  8
0
 10
63.0472422945373125
 20
7.6146553270190722
 30
0.0
 40
6.4677848086999914
 50
83.1644137268416443
 51
88.1870717672957767
  0
ARC
  5
17CA4
  8
0
 10
63.2688417527558613
 20
9.4632776911068603
 30
0.0
 40
4.6059279493017478
 50
73.6305270798848852
 51
83.1644137268416443
  0
ARC
  5
17CA5
  8
0
 10
66.9243570662938794
 20
21.90812970677948
 30
0.0
 40
8.3646978605619307
 50
253.6305270798848994
 51
255.6753896211347126
  0
ARC
  5
17CA6
  8
0
 10
65.5911003604266938
 20
16.6869263099202207
 30
0.0
 40
2.9759560449694922
 50
255.6753896211347126
 51
264.6324867780310797
  0
ARC
  5
17CA7
  8
0
 10
65.6088305430546939
 20
17.4983093025345084
 30
0.0
 40
3.7858879118128672
 50
265.5140403579201234
 51
270.9684161215844824
  0
ARC
  5
17CA8
  8
0
 10
65.6720164833455726
 20
13.7339016034708106
 30
0.0
 40
0.0209523186125601
 50
271.9594483424323244
 51
349.4216946868363038
  0
LINE
  5
17CA9
  8
0
 10
65.6923131438597636
 20
15.9383587552572195
 30
0.0
 11
65.6919276894434034
 21
13.7300564902635696
 31
0.0
  0
ARC
  5
17CAA
  8
0
 10
65.6726277885830001
 20
15.9383579745654291
 30
0.0
 40
0.0196853552922334
 50
0.0022722650388396
 51
89.9996196550117133
  0
LINE
  5
17CAB
  8
0
 10
65.6726279192597531
 20
15.9580433298572206
 30
0.0
 11
64.0190444757742654
 21
15.9580084088552798
 31
0.0
  0
ARC
  5
17CAC
  8
0
 10
64.0187885649603601
 20
15.9386238341469397
 30
0.0
 40
0.0193862638733756
 50
89.2436378901962968
 51
180.833622859754712
  0
LINE
  5
17CAD
  8
0
 10
63.9994043529597576
 20
15.9383417843572204
 30
0.0
 11
63.9994094697597475
 21
15.9186256581572199
 31
0.0
  0
ARC
  5
17CAE
  8
0
 10
61.2157741017723822
 20
15.9206402323334597
 30
0.0
 40
2.783636097660628
 50
352.7796484055007795
 51
359.9585295976758061
  0
ARC
  5
17CAF
  8
0
 10
63.1885041549474025
 20
15.6707145377404
 30
0.0
 40
0.7951374892835157
 50
334.4960818238669731
 51
352.7796484055007795
  0
ARC
  5
17CB0
  8
0
 10
63.2610379613122973
 20
15.6361115979021896
 30
0.0
 40
0.7147725932702147
 50
313.2113294695113268
 51
334.4960818238669731
  0
ARC
  5
17CB1
  8
0
 10
63.3274552421348886
 20
15.6074952563403908
 30
0.0
 40
0.6490805826450111
 50
277.9839109487472228
 51
310.6670385979736011
  0
ARC
  5
17CB2
  8
0
 10
63.2281527788170834
 20
16.3155115304524614
 30
0.0
 40
1.364026750988139
 50
270.9931078634904793
 51
277.9839109487472228
  0
ARC
  5
17CB3
  8
0
 10
60.1133631373334367
 20
10.9314170104617006
 30
0.0
 40
4.0124567859333586
 50
93.0851551661828154
 51
93.4970915802119436
  0
ARC
  5
17CB4
  8
0
 10
60.3613239076660975
 20
6.3308794388268259
 30
0.0
 40
8.6196718331878426
 50
91.7802814428339246
 51
93.0851551661828154
  0
ARC
  5
17CB5
  8
0
 10
60.2173569828006023
 20
10.9627551820863207
 30
0.0
 40
3.9855592561725799
 50
90.2820408050716452
 51
91.7802814428339246
  0
ARC
  5
17CB6
  8
0
 10
61.5315138718301
 20
-256.0022861571006842
 30
0.0
 40
270.9538350972597982
 50
89.9278056268246928
 51
90.2820408050716452
  0
LINE
  5
17CB7
  8
0
 10
61.8729236104955618
 20
14.9513338469572208
 30
0.0
 11
63.2517942734596588
 21
14.9516896736315896
 31
0.0
  0
ARC
  5
17CB8
  8
0
 10
63.2440960076991132
 20
16.85190472602293
 30
0.0
 40
1.9641220521805769
 50
270.2214904908055928
 51
293.9307331193214168
  0
ARC
  5
17CB9
  8
0
 10
63.7404597408563092
 20
15.9254847977536897
 30
0.0
 40
0.9193066912240148
 50
289.0692198734158183
 51
306.2253392063798856
  0
ARC
  5
17CBA
  8
0
 10
63.367724590053129
 20
16.5162640040636788
 30
0.0
 40
1.6168860638896481
 50
304.5084526237843079
 51
308.4028919105675755
  0
ARC
  5
17CBB
  8
0
 10
62.8068400834908687
 20
17.2238507627873396
 30
0.0
 40
2.5198093445855481
 50
308.4028919105683144
 51
311.0397236761853037
  0
ARC
  5
17CBC
  8
0
 10
61.622875501984602
 20
18.5839406048773803
 30
0.0
 40
4.3230332654610972
 50
311.0397236761853037
 51
312.5985727075502041
  0
ARC
  5
17CBD
  8
0
 10
62.829023698975881
 20
17.2721987125948502
 30
0.0
 40
2.5410511485266301
 50
312.5985727075502041
 51
314.8805606322011954
  0
ARC
  5
17CBE
  8
0
 10
64.0138291596899336
 20
16.0824432106488011
 30
0.0
 40
0.8619793412030755
 50
314.8805606322009112
 51
323.0895743020095097
  0
ARC
  5
17CBF
  8
0
 10
64.4723510630643659
 20
15.7380447413420601
 30
0.0
 40
0.2885225934575093
 50
323.0895743020095097
 51
49.6783023654569931
  0
LINE
  5
17CC0
  8
0
 10
61.4217899898597466
 20
14.8883416711572192
 30
0.0
 11
63.2516888407597477
 21
14.8877973496572196
 31
0.0
  0
ARC
  5
17CC1
  8
0
 10
59.7697832685245203
 20
14.8535721096654001
 30
0.0
 40
0.0729371505815317
 50
23.1515080575996102
 51
31.4003189193437784
  0
ARC
  5
17CC2
  8
0
 10
59.8382313269202086
 20
14.8828404374459904
 30
0.0
 40
0.0015059263915007
 50
203.151508057573011
 51
232.6071149881186955
  0
ARC
  5
17CC3
  8
0
 10
59.8440155731272512
 20
14.8904078648198404
 30
0.0
 40
0.0110308128077245
 50
232.6071149881151996
 51
255.4391941707885962
  0
ARC
  5
17CC4
  8
0
 10
59.8628368287910391
 20
14.9591640044366798
 30
0.0
 40
0.0823156657440849
 50
254.7911958631347886
 51
263.7357396803515144
  0
ARC
  5
17CC5
  8
0
 10
59.9048617328132735
 20
15.3382738443051299
 30
0.0
 40
0.4637476173964441
 50
263.6853704817817743
 51
268.3028629924812094
  0
ARC
  5
17CC6
  8
0
 10
59.9426017413778993
 20
16.612013538208739
 30
0.0
 40
1.7380462935599701
 50
268.3028629924812094
 51
273.9669645229845969
  0
ARC
  5
17CC7
  8
0
 10
60.4188892531390422
 20
6.8662528194849912
 30
0.0
 40
8.0197860551543041
 50
91.2787893136545563
 51
92.5445455517846653
  0
ARC
  5
17CC8
  8
0
 10
60.259387195279821
 20
22.6538030204869685
 30
0.0
 40
7.7697859701303651
 50
269.8563703424534879
 51
270.5514995085704868
  0
ARC
  5
17CC9
  8
0
 10
60.6905138359582281
 20
40.1578191607434007
 30
0.0
 40
25.2759541388440212
 50
269.1922185712940063
 51
269.5347248656022998
  0
ARC
  5
17CCA
  8
0
 10
60.5474489104813429
 20
16.8349117941742108
 30
0.0
 40
1.953203641479301
 50
268.1754439283258762
 51
271.2689964976609076
  0
ARC
  5
17CCB
  8
0
 10
60.0957013324089928
 20
137.8482868715746008
 30
0.0
 40
122.9670959978637939
 50
270.2306447260501159
 51
270.6178950070083147
  0
ARC
  5
17CCC
  8
0
 10
64.8120947516632526
 20
15.8326031930564408
 30
0.0
 40
0.748031496103581
 50
166.0347274441382979
 51
170.3489356614863937
  0
ARC
  5
17CCD
  8
0
 10
64.8805179424597327
 20
15.8326046933572098
 30
0.0
 40
0.7480314961000186
 50
9.6535770198003483
 51
36.9925184569996404
  0
LINE
  5
17CCE
  8
0
 10
65.6916166524597429
 20
14.7454295032572205
 30
0.0
 11
65.7907564574597501
 21
14.7454295032572205
 31
0.0
  0
LINE
  5
17CCF
  8
0
 10
65.7592603944597585
 20
14.7454295032572205
 30
0.0
 11
65.7907564574597501
 21
14.7328310780572203
 31
0.0
  0
LINE
  5
17CD0
  8
0
 10
65.691904240666787
 20
13.9029098221641103
 30
0.0
 11
65.7907564574597501
 21
13.9029098221641103
 31
0.0
  0
LINE
  5
17CD1
  8
0
 10
65.7592640499789098
 20
13.9029112804648793
 30
0.0
 11
65.7907564574597501
 21
13.9155082434572197
 31
0.0
  0
LINE
  5
17CD2
  8
0
 10
65.7907564574597501
 20
14.89503580245721
 30
0.0
 11
65.7907564574597501
 21
13.7533035190572193
 31
0.0
  0
LINE
  5
17CD3
  8
0
 10
65.7907564574597501
 20
14.89503580245721
 30
0.0
 11
65.8490214205919955
 21
14.89503580245721
 31
0.0
  0
ARC
  5
17CD4
  8
0
 10
66.3568515214850549
 20
14.0684932109636005
 30
0.0
 40
0.5694855184909196
 50
186.2551963573428111
 51
202.3446475094494872
  0
ARC
  5
17CD5
  8
0
 10
66.289461628397035
 20
14.0298664042078602
 30
0.0
 40
0.4992549125853147
 50
156.9321067893037025
 51
182.6890299282987939
  0
ARC
  5
17CD6
  8
0
 10
66.2533548821621991
 20
14.6096027316072199
 30
0.0
 40
0.4625984247024525
 50
156.1906237430341946
 51
203.8093762569658054
  0
LINE
  5
17CD7
  8
0
 10
65.8301265362597547
 20
14.89503580245721
 30
0.0
 11
65.8301265362597547
 21
14.7963514123572093
 31
0.0
  0
LINE
  5
17CD8
  8
0
 10
65.8301265362597547
 20
14.7963514123572093
 30
0.0
 11
65.8490229478577334
 21
14.7963514123572093
 31
0.0
  0
LINE
  5
17CD9
  8
0
 10
65.8301265362597547
 20
14.4228540508572198
 30
0.0
 11
65.8490287282017874
 21
14.4228540508572198
 31
0.0
  0
LINE
  5
17CDA
  8
0
 10
65.8301265362597547
 20
14.4228540508572198
 30
0.0
 11
65.8301265362597547
 21
14.2254852705572095
 31
0.0
  0
LINE
  5
17CDB
  8
0
 10
65.8490317827332916
 20
14.2254852705572095
 30
0.0
 11
65.8301265362597547
 21
14.2254852705572095
 31
0.0
  0
LINE
  5
17CDC
  8
0
 10
65.7592603944597585
 20
14.7454295032572205
 30
0.0
 11
65.7592786344901157
 21
13.9029112807806303
 31
0.0
  0
LINE
  5
17CDD
  8
0
 10
61.8541776126597469
 20
15.1063048388572199
 30
0.0
 11
61.8541776126597469
 21
15.5787457837572205
 31
0.0
  0
LINE
  5
17CDE
  8
0
 10
62.4447287937597508
 20
15.1063048388572199
 30
0.0
 11
62.4447287937597508
 21
15.5787457837572205
 31
0.0
  0
LINE
  5
17CDF
  8
0
 10
61.8541776126597469
 20
15.1063048388572199
 30
0.0
 11
61.8738626520597634
 21
15.0866197995572193
 31
0.0
  0
LINE
  5
17CE0
  8
0
 10
61.8738626520597634
 20
15.0866197995572193
 30
0.0
 11
62.4250437543597485
 21
15.0866197995572193
 31
0.0
  0
LINE
  5
17CE1
  8
0
 10
62.4250437543597485
 20
15.0866197995572193
 30
0.0
 11
62.4447287937597508
 21
15.1063048388572199
 31
0.0
  0
ARC
  5
17CE2
  8
0
 10
61.8738626520597634
 20
15.5787457837572205
 30
0.0
 40
0.0196850393999988
 50
90.0
 51
180.0000000000007958
  0
LINE
  5
17CE3
  8
0
 10
61.8738626521597368
 20
15.5984308231572104
 30
0.0
 11
62.4250437543597485
 21
15.5984308231572104
 31
0.0
  0
ARC
  5
17CE4
  8
0
 10
62.4250437543597485
 20
15.5787457837572099
 30
0.0
 40
0.019685039400005
 50
0.000000000014656
 51
90.0000005821149927
  0
LINE
  5
17CE5
  8
0
 10
62.07071304575976
 20
15.0866197995572193
 30
0.0
 11
62.0707479440188692
 21
14.9513848968320193
 31
0.0
  0
LINE
  5
17CE6
  8
0
 10
62.228193360659759
 20
15.0866197995572193
 30
0.0
 11
62.228193360659759
 21
14.9514262883572204
 31
0.0
  0
ARC
  5
17CE7
  8
0
 10
61.4265619035239681
 20
17.0937419767621392
 30
0.0
 40
0.1769987090023327
 50
204.4867908885769907
 51
231.8930446661726137
  0
ARC
  5
17CE8
  8
0
 10
61.4319378630553672
 20
17.1194816473444007
 30
0.0
 40
0.2009082283324879
 50
235.2186239507394134
 51
260.7337440213452737
  0
ARC
  5
17CE9
  8
0
 10
61.5202781778105816
 20
17.5020716453675611
 30
0.0
 40
0.5932822822453936
 50
258.2624250427112997
 51
261.4953883310216725
  0
ARC
  5
17CEA
  8
0
 10
61.5880641254962029
 20
18.0518572781709992
 30
0.0
 40
1.1471359683195641
 50
262.2079820719882264
 51
270.2505225605784176
  0
LINE
  5
17CEB
  8
0
 10
61.5930798967597468
 20
16.9047322754572207
 30
0.0
 11
63.1930156809597392
 21
16.90158606405722
 31
0.0
  0
ARC
  5
17CEC
  8
0
 10
63.1660600529981195
 20
15.1686799808323407
 30
0.0
 40
1.733115720070816
 50
78.553256813903019
 51
89.1088269679990645
  0
ARC
  5
17CED
  8
0
 10
63.3497490794136411
 20
16.0758557200602397
 30
0.0
 40
0.8075297001519935
 50
71.051515281435826
 51
78.5532568139039
  0
ARC
  5
17CEE
  8
0
 10
63.4420636155514899
 20
16.2887315396892589
 30
0.0
 40
0.5765002067402919
 50
48.5401064899596975
 51
72.85939036397005
  0
ARC
  5
17CEF
  8
0
 10
63.528824083288967
 20
16.4012660930283296
 30
0.0
 40
0.4348244494594474
 50
30.9850904665018092
 51
47.2897090722352971
  0
ARC
  5
17CF0
  8
0
 10
63.7365965887914285
 20
16.4589260947391196
 30
0.0
 40
0.2341933058516054
 50
26.8113737445984093
 51
45.2060530881680904
  0
LINE
  5
17CF1
  8
0
 10
63.945610557659748
 20
16.5645545049572114
 30
0.0
 11
63.9723001483703797
 21
16.3746481994815696
 31
0.0
  0
ARC
  5
17CF2
  8
0
 10
63.9844463523850422
 20
16.3765280536714108
 30
0.0
 40
0.0122908146486499
 50
188.7977997699989032
 51
265.0736535119145856
  0
ARC
  5
17CF3
  8
0
 10
61.4268246428256219
 20
16.0559299870152614
 30
0.0
 40
2.5750946146060509
 50
359.4854235954383057
 51
6.8773401118943793
  0
ARC
  5
17CF4
  8
0
 10
64.0212921568598148
 20
16.03260597182895
 30
0.0
 40
0.0194777503584203
 50
179.4197117423283032
 51
270.2694499247234035
  0
LINE
  5
17CF5
  8
0
 10
64.0213837562597519
 20
16.0131284368572118
 30
0.0
 11
64.6780045028595652
 21
16.0131284368572118
 31
0.0
  0
ARC
  5
17CF6
  8
0
 10
64.6780061274999412
 20
16.8005300100804789
 30
0.0
 40
0.7874015732232689
 50
269.9999999897985958
 51
292.8029939261688241
  0
LINE
  5
17CF7
  8
0
 10
64.9831746797392924
 20
16.0746695605183412
 30
0.0
 11
65.6761156247597455
 21
16.365997998257221
 31
0.0
  0
ARC
  5
17CF8
  8
0
 10
65.6684281525836155
 20
16.3841745370865404
 30
0.0
 40
0.0197353437333278
 50
292.9251434686520952
 51
7.3949238835051254
  0
ARC
  5
17CF9
  8
0
 10
64.8917820855083107
 20
16.29095610903844
 30
0.0
 40
0.801990600215676
 50
6.8578726075299707
 51
58.5188943625639482
  0
ARC
  5
17CFA
  8
0
 10
64.9299631270183113
 20
16.3036961272225085
 30
0.0
 40
0.7716220251276144
 50
60.4430359378228488
 51
90.8372137531792561
  0
LINE
  5
17CFB
  8
0
 10
61.5020878233899424
 20
17.0753011056888511
 30
0.0
 11
64.9186884818597605
 21
17.0752357775572214
 31
0.0
  0
ARC
  5
17CFC
  8
0
 10
61.4877403301622678
 20
8.8608305976854211
 30
0.0
 40
8.2144831049002711
 50
89.8992770395211664
 51
90.2511322888661454
  0
ARC
  5
17CFD
  8
0
 10
61.4551693569464987
 20
15.1113732530760405
 30
0.0
 40
1.963864548911507
 50
90.1001392821935383
 51
91.8378009409273659
  0
ARC
  5
17CFE
  8
0
 10
61.4287963491725009
 20
16.0385922159186194
 30
0.0
 40
1.036282243571476
 50
92.0244945396153042
 51
94.8111600932362961
  0
ARC
  5
17CFF
  8
0
 10
61.4085108684131527
 20
16.2796025699565483
 30
0.0
 40
0.7944196968985194
 50
94.8111600932362961
 51
96.869362376577044
  0
ARC
  5
17D00
  8
0
 10
61.4015227575927725
 20
16.3376092599012708
 30
0.0
 40
0.7359935916784907
 50
96.869362376577044
 51
98.8508839518332252
  0
ARC
  5
17D01
  8
0
 10
61.2912511563508104
 20
17.0457600675679792
 30
0.0
 40
0.019308589435896
 50
98.8508839518332252
 51
115.0038500712202989
  0
ARC
  5
17D02
  8
0
 10
61.3024487697647587
 20
17.0217509203427113
 30
0.0
 40
0.0458005825027246
 50
115.0038500712202989
 51
133.4256834080231897
  0
ARC
  5
17D03
  8
0
 10
61.2874019028310784
 20
17.0376482554033792
 30
0.0
 40
0.0239114649656714
 50
133.4256834080264014
 51
153.4359616573572964
  0
ARC
  5
17D04
  8
0
 10
61.2954339557447625
 20
17.0336324064261895
 30
0.0
 40
0.0328914937526801
 50
153.4359616573576943
 51
184.0693930817863873
  0
ARC
  5
17D05
  8
0
 10
61.2932372743268274
 20
17.0334761257771099
 30
0.0
 40
0.0306892601381121
 50
184.0693930817836019
 51
205.2626650594588114
  0
ARC
  5
17D06
  8
0
 10
62.7135487246112433
 20
16.2936502311472289
 30
0.0
 40
2.0956918502647981
 50
352.5341769699513748
 51
14.0121912324677993
  0
ARC
  5
17D07
  8
0
 10
64.5856622891857484
 20
16.76084369550777
 30
0.0
 40
0.1661636872661161
 50
14.0121912324674103
 51
60.8496214074921582
  0
ARC
  5
17D08
  8
0
 10
64.2814614780678966
 20
16.215431793140759
 30
0.0
 40
0.7906733162778412
 50
60.8496214074921582
 51
84.1322285785006443
  0
ARC
  5
17D09
  8
0
 10
63.7449633320319435
 20
10.9951298830853901
 30
0.0
 40
6.0384711680274377
 50
84.1322285785006443
 51
87.8884889483043992
  0
ARC
  5
17D0A
  8
0
 10
63.6915823518451987
 20
9.5472946339908162
 30
0.0
 40
7.4872901482891114
 50
87.8884889483043992
 51
90.8549125925941468
  0
ARC
  5
17D0B
  8
0
 10
63.3828914204180833
 20
30.234058527310431
 30
0.0
 40
13.2017767825586194
 50
269.9657785249718813
 51
270.8549125925940757
  0
ARC
  5
17D0C
  8
0
 10
63.3685176908190613
 20
6.1686451198543324
 30
0.0
 40
10.8636409174496205
 50
89.965778524972734
 51
90.8355126894320648
  0
ARC
  5
17D0D
  8
0
 10
63.0076065528313833
 20
30.9165866747369584
 30
0.0
 40
13.88693216790357
 50
269.8618680460539849
 51
270.8355126894311979
  0
ARC
  5
17D0E
  8
0
 10
62.9309672894419876
 20
-0.8725664094817204
 30
0.0
 40
17.9023132995274317
 50
89.8618680460539707
 51
90.8696588625343651
  0
LINE
  5
17D0F
  8
0
 10
62.6592490624597502
 20
17.0276847250572203
 30
0.0
 11
61.5930764905597528
 21
17.0276251979572208
 31
0.0
  0
ARC
  5
17D10
  8
0
 10
61.4031094596341802
 20
16.8540673012684401
 30
0.0
 40
0.2144014771461125
 50
126.7588803088417961
 51
127.6114484157653948
  0
ARC
  5
17D11
  8
0
 10
61.5980211548457532
 20
15.7931039879383306
 30
0.0
 40
1.2345311124841669
 50
90.2294872517417588
 51
91.1951426056454579
  0
ARC
  5
17D12
  8
0
 10
61.5482088503831903
 20
18.0728672667869787
 30
0.0
 40
1.0457804693084021
 50
267.8341885984082751
 51
271.3188839649922102
  0
ARC
  5
17D13
  8
0
 10
61.4220821520186107
 20
14.7378191558873706
 30
0.0
 40
2.2916517541315571
 50
87.8341885984082751
 51
88.8517162700746042
  0
ARC
  5
17D14
  8
0
 10
61.7769273242989811
 20
32.4411167958937199
 30
0.0
 40
15.4152017898198608
 50
268.7020170180829837
 51
268.8517162700745757
  0
ARC
  5
17D15
  8
0
 10
61.3728838766626268
 20
14.6088152709076393
 30
0.0
 40
2.421676546525843
 50
88.7020170180830263
 51
90.1254008430272648
  0
ARC
  5
17D16
  8
0
 10
61.3746626397250665
 20
13.79609781990432
 30
0.0
 40
3.2343959440815859
 50
90.1254008430272648
 51
91.1813292835665834
  0
ARC
  5
17D17
  8
0
 10
61.3134070623480127
 20
16.7666402090353692
 30
0.0
 40
0.263222046211553
 50
91.1813292835673934
 51
97.1057873266128269
  0
ARC
  5
17D18
  8
0
 10
61.2830351608959205
 20
17.0102797562451791
 30
0.0
 40
0.0176967290599084
 50
97.105787326617758
 51
104.122638292641696
  0
ARC
  5
17D19
  8
0
 10
61.3203050613419123
 20
16.8621497988335989
 30
0.0
 40
0.1704433485380796
 50
104.122638292641696
 51
104.4865557773209019
  0
ARC
  5
17D1A
  8
0
 10
61.2800274208033997
 20
17.0180427729552513
 30
0.0
 40
0.0094312132567849
 50
104.4865557773242983
 51
111.3139415731633051
  0
ARC
  5
17D1B
  8
0
 10
61.2794369436734883
 20
17.01955618028164
 30
0.0
 40
0.0078066933349266
 50
111.3139415731605055
 51
126.4287030448713978
  0
ARC
  5
17D1C
  8
0
 10
61.255420949963181
 20
17.04806486855054
 30
0.0
 40
0.0294453995384397
 50
289.9702802953502214
 51
304.8797939262689738
  0
LINE
  5
17D1D
  8
0
 10
66.4000782606981801
 20
22.9242502373572208
 30
0.0
 11
66.4002702388219603
 21
10.5202738118147607
 31
0.0
  0
LINE
  5
17D1E
  8
0
 10
65.8488967856317231
 20
22.9483330459383907
 30
0.0
 11
65.8490885753554807
 21
10.5558257568521707
 31
0.0
  0
ARC
  5
17D1F
  8
0
 10
60.089796830128499
 20
11.2161926914545909
 30
0.0
 40
5.7970273326038191
 50
352.3890036305323861
 51
353.458966389235627
  0
ARC
  5
17D20
  8
0
 10
60.3944318169167218
 20
11.1754861971201098
 30
0.0
 40
5.4896846999339282
 50
350.5667671352131833
 51
352.3890036305356261
  0
ARC
  5
17D21
  8
0
 10
60.3924976403188793
 20
11.1758075507034302
 30
0.0
 40
5.4916453904340141
 50
348.7663516888845834
 51
350.5667671352131833
  0
ARC
  5
17D22
  8
0
 10
60.9029892667068324
 20
11.0744158981707699
 30
0.0
 40
4.9711821661659377
 50
342.9800900034425126
 51
348.7663516888845834
  0
ARC
  5
17D23
  8
0
 10
62.0512961351374202
 20
10.6962452947189792
 30
0.0
 40
3.7625619007357041
 50
329.5779429169218133
 51
343.3683104850214818
  0
ARC
  5
17D24
  8
0
 10
63.43796383468095
 20
9.8651122152228155
 30
0.0
 40
2.146004198880497
 50
319.5488450662491005
 51
329.9661633985011235
  0
ARC
  5
17D25
  8
0
 10
63.7696795008618835
 20
9.5280017226368443
 30
0.0
 40
1.675374303495528
 50
304.2815265041198245
 51
320.9617541701006758
  0
ARC
  5
17D26
  8
0
 10
64.1069601546329437
 20
9.0254476014310967
 30
0.0
 40
1.0701562874549071
 50
280.387237325829517
 51
304.5160428911552231
  0
ARC
  5
17D27
  8
0
 10
64.1554832094241192
 20
8.8533482969737562
 30
0.0
 40
0.8922849571800382
 50
246.5046066473973951
 51
279.3149345432182145
  0
ARC
  5
17D28
  8
0
 10
64.4886806271595532
 20
9.5003396440209613
 30
0.0
 40
1.6191740171940701
 50
214.23650138343001
 51
244.818822858966513
  0
ARC
  5
17D29
  8
0
 10
65.9659408649445993
 20
10.5717172548312792
 30
0.0
 40
3.443659005942556
 50
196.9574835254159098
 51
215.1451459965533957
  0
ARC
  5
17D2A
  8
0
 10
66.2226461906260511
 20
10.8357100917218094
 30
0.0
 40
3.7703870414407361
 50
184.1271230671493981
 51
199.6580018611751939
  0
ARC
  5
17D2B
  8
0
 10
76.8871610684492737
 20
11.6052265764320595
 30
0.0
 40
14.4626287708234909
 50
180.2572009197008072
 51
184.1271230671493981
  0
ARC
  5
17D2C
  8
0
 10
200.5684524778712046
 20
12.1604359801147108
 30
0.0
 40
138.1451663506462921
 50
179.744572633988497
 51
180.2572009196960039
  0
ARC
  5
17D2D
  8
0
 10
15.4174059455208994
 20
12.9858538003429391
 30
0.0
 40
47.0077200611039814
 50
359.7445726339809084
 51
0.2572009072187362
  0
LINE
  5
17D2E
  8
0
 10
61.8734725462597481
 20
13.1968623418572193
 30
0.0
 11
61.8735025328597601
 21
11.2593892351572098
 31
0.0
  0
ARC
  5
17D2F
  8
0
 10
68.3273060784707127
 20
11.2298511250900095
 30
0.0
 40
6.4538711410506888
 50
179.737767471145105
 51
189.2680079093200902
  0
ARC
  5
17D30
  8
0
 10
67.4660126426131797
 20
11.0893026911955399
 30
0.0
 40
5.5811854903599833
 50
189.2680079687087868
 51
195.9426835568966112
  0
ARC
  5
17D31
  8
0
 10
66.9868359498126154
 20
10.9524196000017504
 30
0.0
 40
5.0828409473196716
 50
195.9426835568937122
 51
198.8138958137965062
  0
ARC
  5
17D32
  8
0
 10
66.6788054672724115
 20
10.8474740996222003
 30
0.0
 40
4.7574237747183101
 50
198.8138958137946872
 51
203.0791622752581986
  0
ARC
  5
17D33
  8
0
 10
65.9869344144044305
 20
10.5526634442449492
 30
0.0
 40
4.005360694704005
 50
203.0791622752581986
 51
208.3931580944426116
  0
ARC
  5
17D34
  8
0
 10
65.2301782429937447
 20
10.1436036875540996
 30
0.0
 40
3.1451224791426751
 50
208.3931580944426116
 51
224.4808748209960925
  0
ARC
  5
17D35
  8
0
 10
64.3291955383974141
 20
9.2588014296608332
 30
0.0
 40
1.8823299904277899
 50
224.4808748209960925
 51
251.0086259410174137
  0
ARC
  5
17D36
  8
0
 10
64.1590837952019797
 20
8.8692307576043063
 30
0.0
 40
1.459003825949275
 50
252.3469206617999134
 51
299.9722291983513855
  0
ARC
  5
17D37
  8
0
 10
63.5104712657681318
 20
9.8461206849090388
 30
0.0
 40
2.6303224997146661
 50
301.5808211836122155
 51
335.111213986934672
  0
ARC
  5
17D38
  8
0
 10
60.4120833172975722
 20
11.2522336027119092
 30
0.0
 40
6.0327934051581282
 50
335.3815112514133716
 51
352.5579782120116761
  0
ARC
  5
17D39
  8
0
 10
61.0602442311557496
 20
11.1662428898172497
 30
0.0
 40
5.378954713723374
 50
352.5719822055191912
 51
353.1025915827790982
  0
ARC
  5
17D3A
  8
0
 10
65.9078180925397703
 20
22.0273433444487416
 30
0.0
 40
0.9228725538544043
 50
79.8793360372825845
 51
95.4819841447860824
  0
ARC
  5
17D3B
  8
0
 10
66.0922442746363288
 20
23.0605475762354715
 30
0.0
 40
0.1266625819198655
 50
259.8793360372833945
 51
269.4400536086017155
  0
ARC
  5
17D3C
  8
0
 10
66.0934141229261769
 20
23.1802469559848703
 30
0.0
 40
0.2463676781247214
 50
269.440053608600806
 51
271.6639479135649822
  0
ARC
  5
17D3D
  8
0
 10
66.2518754310287648
 20
21.7155724863371304
 30
0.0
 40
1.227769736743999
 50
93.3932990373953231
 51
97.0789937493871236
  0
ARC
  5
17D3E
  8
0
 10
66.2220329712313998
 20
22.0994985760402294
 30
0.0
 40
0.8427800178915958
 50
86.5530041340492318
 51
92.912937171762394
  0
ARC
  5
17D3F
  8
0
 10
66.2260946101104793
 20
22.1078526000380293
 30
0.0
 40
0.8341368540960843
 50
82.6906407024086718
 51
86.7969840749117338
  0
ARC
  5
17D40
  8
0
 10
66.1979605127532409
 20
21.8885158956012695
 30
0.0
 40
1.055270563302275
 50
76.5579140663048605
 51
82.6906407024086718
  0
ARC
  5
17D41
  8
0
 10
66.113349206415279
 20
21.534508456720701
 30
0.0
 40
1.419249051599315
 50
69.1720005403658291
 51
76.5579140663065374
  0
LINE
  5
17D42
  8
0
 10
66.6179827258981732
 20
22.8610124640572216
 30
0.0
 11
67.1303819106981763
 21
22.8564220935572209
 31
0.0
  0
ARC
  5
17D43
  8
0
 10
65.0126969250917739
 20
27.4153914134422401
 30
0.0
 40
3.176843269620683
 50
278.6757239355900992
 51
283.6220473425480009
  0
ARC
  5
17D44
  8
0
 10
-106.7506286948689933
 20
785.3903267184748529
 30
0.0
 40
780.3692881049711332
 50
282.771532031587185
 51
282.806945768042624
  0
ARC
  5
17D45
  8
0
 10
-95.4720116870606716
 20
735.7909621309452177
 30
0.0
 40
729.5037383099191857
 50
282.8066704723235034
 51
282.8789855549151753
  0
ARC
  5
17D46
  8
0
 10
65.0737981098990304
 20
27.0657389952490703
 30
0.0
 40
2.821985385591808
 50
275.3982009182307138
 51
278.5202273121470853
  0
ARC
  5
17D47
  8
0
 10
65.0669773176203989
 20
27.1379196314017008
 30
0.0
 40
2.8944875748188021
 50
274.2741488090754274
 51
275.3982009182307138
  0
ARC
  5
17D48
  8
0
 10
65.4101310866938093
 20
23.5335577447800688
 30
0.0
 40
0.7291460455767367
 50
100.0651322859746983
 51
101.0123207946094936
  0
ARC
  5
17D49
  8
0
 10
65.41019898057246
 20
23.5332088616150905
 30
0.0
 40
0.7295014735463253
 50
101.0123207946094936
 51
103.0210795692525068
  0
ARC
  5
17D4A
  8
0
 10
65.2617443421104042
 20
24.1576007598154803
 30
0.0
 40
0.0878053364151796
 50
100.4387748562029969
 51
113.9550274953723061
  0
ARC
  5
17D4B
  8
0
 10
65.3037445446013862
 20
24.0682266418099715
 30
0.0
 40
0.1865458261711324
 50
114.5984574082205967
 51
120.7456219149563026
  0
ARC
  5
17D4C
  8
0
 10
65.2983044773027643
 20
24.0771866893420707
 30
0.0
 40
0.1760640678243133
 50
120.7147652740245007
 51
134.1671162537988948
  0
ARC
  5
17D4D
  8
0
 10
65.2868511886351683
 20
24.0890198574561509
 30
0.0
 40
0.1595958940953467
 50
134.177612190869695
 51
151.5373967189892994
  0
ARC
  5
17D4E
  8
0
 10
65.8343469483482977
 20
23.7675943391972595
 30
0.0
 40
0.7943962760798691
 50
149.9759496948537958
 51
154.1761665209689909
  0
ARC
  5
17D4F
  8
0
 10
65.8343384449053417
 20
23.767598454286901
 30
0.0
 40
0.7943868292547429
 50
154.176166520968394
 51
160.9608512878652959
  0
ARC
  5
17D50
  8
0
 10
65.8343420793829353
 20
23.7675972000574802
 30
0.0
 40
0.7943906740588688
 50
160.9608512878652959
 51
172.6984835185000975
  0
ARC
  5
17D51
  8
0
 10
65.8343394692181079
 20
23.7675975344975292
 30
0.0
 40
0.794388042555395
 50
172.6984835185000975
 51
186.1553139407940023
  0
ARC
  5
17D52
  8
0
 10
65.8343434204941218
 20
23.7675979606256895
 30
0.0
 40
0.7943920167430251
 50
186.1553139407940023
 51
192.1754023592733063
  0
ARC
  5
17D53
  8
0
 10
65.8343354742376903
 20
23.7675962461547812
 30
0.0
 40
0.7943838876347348
 50
192.1754023592733063
 51
195.2533991848495987
  0
ARC
  5
17D54
  8
0
 10
65.8343427905268044
 20
23.7675982412704592
 30
0.0
 40
0.794391471075453
 50
195.2533991848490871
 51
202.7605876076713116
  0
ARC
  5
17D55
  8
0
 10
65.8343402112425906
 20
23.7675971591263391
 30
0.0
 40
0.7943886739799808
 50
202.7605876076713116
 51
230.1225844068100059
  0
ARC
  5
17D56
  8
0
 10
65.8343411712975808
 20
23.7675983082593909
 30
0.0
 40
0.7943901713818571
 50
230.1225844068100059
 51
248.3187433816530074
  0
ARC
  5
17D57
  8
0
 10
71.0637327806423684
 20
36.4401755195212829
 30
0.0
 40
14.5034755294646907
 50
247.6169689733858945
 51
247.8322342417291111
  0
ARC
  5
17D58
  8
0
 10
65.981632634192465
 20
23.9368444789305705
 30
0.0
 40
1.006839396849341
 50
247.1887070585256083
 51
251.8699960448153945
  0
ARC
  5
17D59
  8
0
 10
68.1083026161735035
 20
30.4318796910009404
 30
0.0
 40
7.8411797174869831
 50
251.8699960448151955
 51
252.2232469451836891
  0
ARC
  5
17D5A
  8
0
 10
65.8418038774282763
 20
23.3627096323572516
 30
0.0
 40
0.4175564881764903
 50
252.2232469451836891
 51
254.820852563464797
  0
ARC
  5
17D5B
  8
0
 10
66.3740635571756457
 20
25.3245724212764109
 30
0.0
 40
2.450339302259315
 50
254.820852563464797
 51
255.2794594536717057
  0
ARC
  5
17D5C
  8
0
 10
65.8005671931255733
 20
23.1417228138255986
 30
0.0
 40
0.1934098642114894
 50
255.2794594536717057
 51
258.0153064475207998
  0
ARC
  5
17D5D
  8
0
 10
65.679139196312363
 20
22.5696976250224211
 30
0.0
 40
0.3913615227726785
 50
77.251386664341311
 51
78.015306447520814
  0
ARC
  5
17D5E
  8
0
 10
65.7805449012396366
 20
23.0178967487125909
 30
0.0
 40
0.0681660296857524
 50
257.2513866643420783
 51
259.1234570773580117
  0
ARC
  5
17D5F
  8
0
 10
65.7608703774511412
 20
22.9155026505124688
 30
0.0
 40
0.0361011187001114
 50
77.7325273959929177
 51
79.1234570773597028
  0
ARC
  5
17D60
  8
0
 10
65.7764194127047688
 20
22.9870119856345703
 30
0.0
 40
0.0370791894908431
 50
257.7325273959963283
 51
259.4364597561677215
  0
ARC
  5
17D61
  8
0
 10
65.7527657501209006
 20
22.8601734204361513
 30
0.0
 40
0.0919460691805632
 50
78.223452878236742
 51
79.4364597561676646
  0
ARC
  5
17D62
  8
0
 10
65.7987983616664422
 20
23.0848590528212405
 30
0.0
 40
0.1374074923432982
 50
258.5543770094820957
 51
261.4466621969564244
  0
ARC
  5
17D63
  8
0
 10
65.8296357811720867
 20
23.2412019340506397
 30
0.0
 40
0.2966863426971012
 50
260.0480407405780738
 51
264.4991568034192824
  0
ARC
  5
17D64
  8
0
 10
65.8097290405465429
 20
23.0594776946115907
 30
0.0
 40
0.1139158912220275
 50
265.7038016641046738
 51
274.9980138992601724
  0
LINE
  5
17D65
  8
0
 10
66.400200991746658
 20
14.9944246823113598
 30
0.0
 11
66.8324866311508146
 21
15.5477250692447999
 31
0.0
  0
ARC
  5
17D66
  8
0
 10
66.9876068582610316
 20
15.4265318654363508
 30
0.0
 40
0.196850393720892
 50
90.0000000030647271
 51
142.0000000030304079
  0
ARC
  5
17D67
  8
0
 10
67.109654102351854
 20
15.6036972198647899
 30
0.0
 40
0.0196850392989774
 50
359.9999996869789243
 51
89.9940739309319468
  0
LINE
  5
17D68
  8
0
 10
67.129339141650803
 20
15.6036972197572403
 30
0.0
 11
67.1293391276687004
 21
13.0446421016571996
 31
0.0
  0
LINE
  5
17D69
  8
0
 10
66.832486631163718
 20
13.1006142521531501
 30
0.0
 11
66.4002217393951355
 21
13.6538899503146798
 31
0.0
  0
LINE
  5
17D6A
  8
0
 10
66.8324866311508146
 20
15.5477250692572504
 30
0.0
 11
66.832486631163718
 21
13.1006142521531501
 31
0.0
  0
LINE
  5
17D6B
  8
0
 10
66.9876068582610316
 20
15.6233822590584808
 30
0.0
 11
67.1096561383639738
 21
15.6233822590584808
 31
0.0
  0
ARC
  5
17D6C
  8
0
 10
66.9876068582610316
 20
13.2218074559780803
 30
0.0
 40
0.196850393720892
 50
217.9999999969695068
 51
269.9999999969352871
  0
ARC
  5
17D6D
  8
0
 10
67.1096541122416994
 20
13.0446420776787093
 30
0.0
 40
0.0196850154270039
 50
270.0058972905835049
 51
0.0000697925139678
  0
LINE
  5
17D6E
  8
0
 10
66.9876068582610316
 20
13.0249570623559592
 30
0.0
 11
67.1096561383639738
 21
13.0249570623559592
 31
0.0
  0
LINE
  5
17D6F
  8
0
 10
60.2703795566400089
 20
13.9251310921503606
 30
0.0
 11
60.2719450271992372
 21
13.9310672426479307
 31
0.0
  0
LINE
  5
17D70
  8
0
 10
60.2719450271992372
 20
13.9310672426479307
 30
0.0
 11
60.2878541042586988
 21
13.9245393808992493
 31
0.0
  0
LINE
  5
17D71
  8
0
 10
60.2878541042586988
 20
13.9245393808992493
 30
0.0
 11
60.3022130989122402
 21
13.9121337198436006
 31
0.0
  0
LINE
  5
17D72
  8
0
 10
60.3022130989122402
 20
13.9121337198436006
 30
0.0
 11
60.3006778129635421
 21
13.9063120273215102
 31
0.0
  0
LINE
  5
17D73
  8
0
 10
60.3006778129635421
 20
13.9063120273215102
 30
0.0
 11
60.2847536415635403
 21
13.9127826521214999
 31
0.0
  0
LINE
  5
17D74
  8
0
 10
60.2847536415635403
 20
13.9127826521214999
 30
0.0
 11
60.2703795566635421
 21
13.9251310921215392
 31
0.0
  0
LINE
  5
17D75
  8
0
 10
60.2847536424769004
 20
13.9127826517503692
 30
0.0
 11
60.2878541042592104
 21
13.9245393808990308
 31
0.0
  0
LINE
  5
17D76
  8
0
 10
60.2973105856413412
 20
13.9180795939338893
 30
0.0
 11
60.3117780405995489
 21
13.9060852062579503
 31
0.0
  0
LINE
  5
17D77
  8
0
 10
60.3117780405995489
 20
13.9060852062579503
 30
0.0
 11
60.3280501075635485
 21
13.9009337759215406
 31
0.0
  0
LINE
  5
17D78
  8
0
 10
60.3280501075635485
 20
13.9009337759215406
 30
0.0
 11
60.3298488367635528
 21
13.9077544263214907
 31
0.0
  0
LINE
  5
17D79
  8
0
 10
60.3298488367635528
 20
13.9077544263214907
 30
0.0
 11
60.3154049533844585
 21
13.9198381954784001
 31
0.0
  0
LINE
  5
17D7A
  8
0
 10
60.3154049533844585
 20
13.9198381954784001
 30
0.0
 11
60.2991252345372999
 21
13.9249606103174308
 31
0.0
  0
LINE
  5
17D7B
  8
0
 10
60.2991252345372999
 20
13.9249606103174308
 30
0.0
 11
60.2973105856413412
 21
13.9180795939338893
 31
0.0
  0
LINE
  5
17D7C
  8
0
 10
60.3117780408491484
 20
13.9060852060510403
 30
0.0
 11
60.315404953362858
 21
13.9198381954188797
 31
0.0
  0
LINE
  5
17D7D
  8
0
 10
60.3201584002193698
 20
13.8955448432086399
 30
0.0
 11
60.3216784512635371
 21
13.9013087662215096
 31
0.0
  0
LINE
  5
17D7E
  8
0
 10
60.3216784512635371
 20
13.9013087662215096
 30
0.0
 11
60.3380444501006892
 21
13.8965135192240101
 31
0.0
  0
LINE
  5
17D7F
  8
0
 10
60.3380444501006892
 20
13.8965135192240101
 30
0.0
 11
60.3528930326525526
 21
13.8859643393731105
 31
0.0
  0
LINE
  5
17D80
  8
0
 10
60.3528930326525526
 20
13.8859643393731105
 30
0.0
 11
60.3513551138623114
 21
13.8802808970459601
 31
0.0
  0
LINE
  5
17D81
  8
0
 10
60.3513551138623114
 20
13.8802808970459601
 30
0.0
 11
60.3350230118635196
 21
13.8850564452215401
 31
0.0
  0
LINE
  5
17D82
  8
0
 10
60.3350230118635196
 20
13.8850564452215401
 30
0.0
 11
60.3201584002193698
 21
13.8955448432086399
 31
0.0
  0
LINE
  5
17D83
  8
0
 10
60.3350230118353323
 20
13.8850564451145608
 30
0.0
 11
60.3380444501538378
 21
13.8965135191846691
 31
0.0
  0
LINE
  5
17D84
  8
0
 10
60.3478036450699591
 20
13.8912015995459104
 30
0.0
 11
60.3495879326635389
 21
13.8979674882215196
 31
0.0
  0
LINE
  5
17D85
  8
0
 10
60.3495879326635389
 20
13.8979674882215196
 30
0.0
 11
60.3663036652090312
 21
13.8944984054881395
 31
0.0
  0
LINE
  5
17D86
  8
0
 10
60.3663036652090312
 20
13.8944984054881395
 30
0.0
 11
60.3670339166559771
 21
13.8939757640929304
 31
0.0
  0
LINE
  5
17D87
  8
0
 10
60.3670339166559771
 20
13.8939757640929304
 30
0.0
 11
60.363570277663527
 21
13.8808418971215008
 31
0.0
  0
LINE
  5
17D88
  8
0
 10
60.363570277663527
 20
13.8808418971215008
 30
0.0
 11
60.3627586431015715
 21
13.8810559398801203
 31
0.0
  0
LINE
  5
17D89
  8
0
 10
60.3627586431015715
 20
13.8810559398801203
 30
0.0
 11
60.3478036451133804
 21
13.8912015995151101
 31
0.0
  0
LINE
  5
17D8A
  8
0
 10
60.3438151276635466
 20
13.8760774317214999
 30
0.0
 11
60.345051910863539
 21
13.88076722332152
 31
0.0
  0
LINE
  5
17D8B
  8
0
 10
60.345051910863539
 20
13.88076722332152
 30
0.0
 11
60.3615117126008016
 21
13.8763276700958507
 31
0.0
  0
LINE
  5
17D8C
  8
0
 10
60.3615117126008016
 20
13.8763276700958507
 30
0.0
 11
60.3622569042635604
 21
13.8758616808215098
 31
0.0
  0
LINE
  5
17D8D
  8
0
 10
60.3622569042635604
 20
13.8758616808215098
 30
0.0
 11
60.3598554547635686
 21
13.8667555593215095
 31
0.0
  0
LINE
  5
17D8E
  8
0
 10
60.3598554547635686
 20
13.8667555593215095
 30
0.0
 11
60.3590490409635407
 21
13.8669893983215395
 31
0.0
  0
LINE
  5
17D8F
  8
0
 10
60.3590490409635407
 20
13.8669893983215395
 30
0.0
 11
60.3438151276635466
 21
13.8760774317214999
 31
0.0
  0
LINE
  5
17D90
  8
0
 10
60.3168847321635297
 20
13.8831313322215095
 30
0.0
 11
60.3178732253635204
 21
13.8868796266215107
 31
0.0
  0
LINE
  5
17D91
  8
0
 10
60.3178732253635204
 20
13.8868796266215107
 30
0.0
 11
60.3339947889723405
 21
13.8811574985549502
 31
0.0
  0
LINE
  5
17D92
  8
0
 10
60.3339947889723405
 20
13.8811574985549502
 30
0.0
 11
60.3491336931988727
 21
13.8717091979868794
 31
0.0
  0
LINE
  5
17D93
  8
0
 10
60.3491336931988727
 20
13.8717091979868794
 30
0.0
 11
60.3481567320635435
 21
13.8680046324214903
 31
0.0
  0
LINE
  5
17D94
  8
0
 10
60.3481567320635435
 20
13.8680046324214903
 30
0.0
 11
60.3320294021579429
 21
13.8737048950616693
 31
0.0
  0
LINE
  5
17D95
  8
0
 10
60.3320294021579429
 20
13.8737048950616693
 30
0.0
 11
60.3168847321635297
 21
13.8831313322215095
 31
0.0
  0
LINE
  5
17D96
  8
0
 10
60.341296785555862
 20
13.8665280616835904
 30
0.0
 11
60.342024842647831
 21
13.8692888010617601
 31
0.0
  0
LINE
  5
17D97
  8
0
 10
60.342024842647831
 20
13.8692888010617601
 30
0.0
 11
60.3582421002635527
 21
13.8639295378215408
 31
0.0
  0
LINE
  5
17D98
  8
0
 10
60.3582421002635527
 20
13.8639295378215408
 30
0.0
 11
60.3590007239635469
 21
13.8635144822215395
 31
0.0
  0
LINE
  5
17D99
  8
0
 10
60.3590007239635469
 20
13.8635144822215395
 30
0.0
 11
60.357586839863572
 21
13.8581531365215298
 31
0.0
  0
LINE
  5
17D9A
  8
0
 10
60.357586839863572
 20
13.8581531365215298
 30
0.0
 11
60.3567921857249274
 21
13.8584315674496992
 31
0.0
  0
LINE
  5
17D9B
  8
0
 10
60.3567921857249274
 20
13.8584315674496992
 30
0.0
 11
60.3412967855635287
 21
13.8665280616215103
 31
0.0
  0
LINE
  5
17D9C
  8
0
 10
60.3260437618635521
 20
13.9178617063214904
 30
0.0
 11
60.3249774856365519
 21
13.9138184644807996
 31
0.0
  0
LINE
  5
17D9D
  8
0
 10
60.3249774856365519
 20
13.9138184644807996
 30
0.0
 11
60.3395281732420372
 21
13.9021396889399291
 31
0.0
  0
LINE
  5
17D9E
  8
0
 10
60.3395281732420372
 20
13.9021396889399291
 30
0.0
 11
60.3561502546113289
 21
13.8983154882705495
 31
0.0
  0
LINE
  5
17D9F
  8
0
 10
60.3561502546113289
 20
13.8983154882705495
 30
0.0
 11
60.3582257002631124
 21
13.9061854269199205
 31
0.0
  0
LINE
  5
17DA0
  8
0
 10
60.3582257002631124
 20
13.9061854269199205
 30
0.0
 11
60.3521999104420175
 21
13.9109629132434396
 31
0.0
  0
LINE
  5
17DA1
  8
0
 10
60.3395281732420372
 20
13.9021396889399291
 30
0.0
 11
60.342527926025447
 21
13.9135145331789492
 31
0.0
  0
LINE
  5
17DA2
  8
0
 10
60.3320294021635704
 20
13.8737048951215307
 30
0.0
 11
60.3339947889635226
 21
13.8811574985215191
 31
0.0
  0
LINE
  5
17DA3
  8
0
 10
60.2932277309720206
 20
13.9025977058049506
 30
0.0
 11
60.2944931856635407
 21
13.9073962180215105
 31
0.0
  0
LINE
  5
17DA4
  8
0
 10
60.2944931856635407
 20
13.9073962180215105
 30
0.0
 11
60.3105128399635504
 21
13.9012876575215394
 31
0.0
  0
LINE
  5
17DA5
  8
0
 10
60.3105128399635504
 20
13.9012876575215394
 30
0.0
 11
60.3252768138635673
 21
13.8904176482214901
 31
0.0
  0
LINE
  5
17DA6
  8
0
 10
60.3252768138635673
 20
13.8904176482214901
 30
0.0
 11
60.3240306110062008
 21
13.8856921375060995
 31
0.0
  0
LINE
  5
17DA7
  8
0
 10
60.3240306110062008
 20
13.8856921375060995
 30
0.0
 11
60.3080013299566389
 21
13.8917641940953303
 31
0.0
  0
LINE
  5
17DA8
  8
0
 10
60.3080013299566389
 20
13.8917641940953303
 30
0.0
 11
60.2932277309635509
 21
13.9025977058214991
 31
0.0
  0
LINE
  5
17DA9
  8
0
 10
60.3080013289938819
 20
13.8917641948013308
 30
0.0
 11
60.3105128438676701
 21
13.9012876546470796
 31
0.0
  0
LINE
  5
17DAA
  8
0
 10
60.290652547663548
 20
13.8928327980215105
 30
0.0
 11
60.2913968298635581
 21
13.8956550623215005
 31
0.0
  0
LINE
  5
17DAB
  8
0
 10
60.2913968298635581
 20
13.8956550623215005
 30
0.0
 11
60.3071787534969772
 21
13.8886450440369291
 31
0.0
  0
LINE
  5
17DAC
  8
0
 10
60.3071787534969772
 20
13.8886450440369291
 30
0.0
 11
60.3222269754635221
 21
13.8788528828215405
 31
0.0
  0
LINE
  5
17DAD
  8
0
 10
60.3222269754635221
 20
13.8788528828215405
 30
0.0
 11
60.3214935830555774
 21
13.8760719121722698
 31
0.0
  0
LINE
  5
17DAE
  8
0
 10
60.3214935830555774
 20
13.8760719121722698
 30
0.0
 11
60.3057011847253506
 21
13.8830422108639393
 31
0.0
  0
LINE
  5
17DAF
  8
0
 10
60.3057011847253506
 20
13.8830422108639393
 30
0.0
 11
60.290652547663548
 21
13.8928327980215105
 31
0.0
  0
LINE
  5
17DB0
  8
0
 10
60.3057011846456632
 20
13.8830422108223903
 30
0.0
 11
60.3071787534440631
 21
13.8886450439475695
 31
0.0
  0
LINE
  5
17DB1
  8
0
 10
60.2670114524115519
 20
13.9123594860121091
 30
0.0
 11
60.2680279877587211
 21
13.9162141141032905
 31
0.0
  0
LINE
  5
17DB2
  8
0
 10
60.2680279877587211
 20
13.9162141141032905
 30
0.0
 11
60.2836993110226302
 21
13.9087847074231803
 31
0.0
  0
LINE
  5
17DB3
  8
0
 10
60.2836993110226302
 20
13.9087847074231803
 30
0.0
 11
60.298370350139848
 21
13.8975622962675391
 31
0.0
  0
LINE
  5
17DB4
  8
0
 10
60.298370350139848
 20
13.8975622962675391
 30
0.0
 11
60.2973724371306403
 21
13.8937782826625806
 31
0.0
  0
LINE
  5
17DB5
  8
0
 10
60.2973724371306403
 20
13.8937782826625806
 30
0.0
 11
60.2816850825438806
 21
13.9011468998701808
 31
0.0
  0
LINE
  5
17DB6
  8
0
 10
60.2816850825438806
 20
13.9011468998701808
 30
0.0
 11
60.2670114523698288
 21
13.9123594860453093
 31
0.0
  0
LINE
  5
17DB7
  8
0
 10
60.281685084252139
 20
13.9011468990677702
 30
0.0
 11
60.2836993110226302
 21
13.9087847074231803
 31
0.0
  0
LINE
  5
17DB8
  8
0
 10
60.2651286545838971
 20
13.9052200538991304
 30
0.0
 11
60.2656292791572596
 21
13.9071183855976308
 31
0.0
  0
LINE
  5
17DB9
  8
0
 10
60.2656292791572596
 20
13.9071183855976308
 30
0.0
 11
60.281065111586237
 21
13.8987960148375507
 31
0.0
  0
LINE
  5
17DBA
  8
0
 10
60.281065111586237
 20
13.8987960148375507
 30
0.0
 11
60.2960151685635211
 21
13.8886316190214991
 31
0.0
  0
LINE
  5
17DBB
  8
0
 10
60.2960151685635211
 20
13.8886316190214991
 30
0.0
 11
60.2955234485645377
 21
13.8867670528130596
 31
0.0
  0
LINE
  5
17DBC
  8
0
 10
60.2955234485645377
 20
13.8867670528130596
 30
0.0
 11
60.2800728832805106
 21
13.8950335541518299
 31
0.0
  0
LINE
  5
17DBD
  8
0
 10
60.2800728832805106
 20
13.8950335541518299
 30
0.0
 11
60.2651286546635419
 21
13.9052200539215303
 31
0.0
  0
LINE
  5
17DBE
  8
0
 10
60.2800728832805106
 20
13.8950335541518299
 30
0.0
 11
60.2810651161869799
 21
13.8987960117095692
 31
0.0
  0
LINE
  5
17DBF
  8
0
 10
60.2452881799575692
 20
13.9391584182989607
 30
0.0
 11
60.2441841963635412
 21
13.93497219292151
 31
0.0
  0
LINE
  5
17DC0
  8
0
 10
60.2441841963635412
 20
13.93497219292151
 30
0.0
 11
60.2584533159422691
 21
13.9222257320465008
 31
0.0
  0
LINE
  5
17DC1
  8
0
 10
60.2584533159422691
 20
13.9222257320465008
 30
0.0
 11
60.2740262812627421
 21
13.9144233592185103
 31
0.0
  0
LINE
  5
17DC2
  8
0
 10
60.2740262812627421
 20
13.9144233592185103
 30
0.0
 11
60.2753069708671632
 21
13.9192796412352102
 31
0.0
  0
LINE
  5
17DC3
  8
0
 10
60.2753069708671632
 20
13.9192796412352102
 30
0.0
 11
60.2610438576994483
 21
13.9320488776775093
 31
0.0
  0
LINE
  5
17DC4
  8
0
 10
60.2610438576994483
 20
13.9320488776775093
 30
0.0
 11
60.2484712142738132
 21
13.9383189944045291
 31
0.0
  0
LINE
  5
17DC5
  8
0
 10
60.2610438576823384
 20
13.9320488776928002
 30
0.0
 11
60.2584533152085911
 21
13.9222257327019108
 31
0.0
  0
LINE
  5
17DC6
  8
0
 10
60.2415203684635614
 20
13.9248711515215202
 30
0.0
 11
60.2422899264635632
 21
13.9277892594214894
 31
0.0
  0
LINE
  5
17DC7
  8
0
 10
60.2422899264635632
 20
13.9277892594214894
 30
0.0
 11
60.2576054823269303
 21
13.9190108085670001
 31
0.0
  0
LINE
  5
17DC8
  8
0
 10
60.2576054823269303
 20
13.9190108085670001
 30
0.0
 11
60.2721738226635324
 21
13.9073989712215305
 31
0.0
  0
LINE
  5
17DC9
  8
0
 10
60.2721738226635324
 20
13.9073989712215305
 30
0.0
 11
60.2714209364447484
 21
13.9045440814518209
 31
0.0
  0
LINE
  5
17DCA
  8
0
 10
60.2714209364447484
 20
13.9045440814518209
 30
0.0
 11
60.2560832951949621
 21
13.9132387857130109
 31
0.0
  0
LINE
  5
17DCB
  8
0
 10
60.2560832951949621
 20
13.9132387857130109
 30
0.0
 11
60.2415203684635614
 21
13.9248711515215202
 31
0.0
  0
LINE
  5
17DCC
  8
0
 10
60.2560832951541414
 20
13.9132387857372297
 30
0.0
 11
60.2576054823269303
 21
13.9190108085670001
 31
0.0
  0
LINE
  5
17DCD
  8
0
 10
60.2208588480635711
 20
13.9455997986215099
 30
0.0
 11
60.2328868298934523
 21
13.9344514781873698
 31
0.0
  0
LINE
  5
17DCE
  8
0
 10
60.2328868298934523
 20
13.9344514781873698
 30
0.0
 11
60.2480996726635425
 21
13.9252835470215306
 31
0.0
  0
LINE
  5
17DCF
  8
0
 10
60.2480996726635425
 20
13.9252835470215306
 30
0.0
 11
60.2491306498635382
 21
13.9291929375215098
 31
0.0
  0
LINE
  5
17DD0
  8
0
 10
60.2491306498635382
 20
13.9291929375215098
 30
0.0
 11
60.2356819086300916
 21
13.9416906202330804
 31
0.0
  0
LINE
  5
17DD1
  8
0
 10
60.2328868298933813
 20
13.9344514781874302
 30
0.0
 11
60.234853816763561
 21
13.9419101491214903
 31
0.0
  0
LINE
  5
17DD2
  8
0
 10
60.3566147071412402
 20
13.9097994733255508
 30
0.0
 11
60.368017258178881
 21
13.9009962263687505
 31
0.0
  0
LINE
  5
17DD3
  8
0
 10
60.368017258178881
 20
13.9009962263687505
 30
0.0
 11
60.368828892922572
 21
13.9007821835638694
 31
0.0
  0
LINE
  5
17DD4
  8
0
 10
60.368828892922572
 20
13.9007821835638694
 30
0.0
 11
60.3702580877635313
 21
13.9062015864214903
 31
0.0
  0
LINE
  5
17DD5
  8
0
 10
60.3150528596865882
 20
13.8761850050855706
 30
0.0
 11
60.3155400698635589
 21
13.8780324708215392
 31
0.0
  0
LINE
  5
17DD6
  8
0
 10
60.3155400698635589
 20
13.8780324708215392
 30
0.0
 11
60.3314241976878307
 21
13.8714100036428807
 31
0.0
  0
LINE
  5
17DD7
  8
0
 10
60.3314241976878307
 20
13.8714100036428807
 30
0.0
 11
60.3468275107635321
 21
13.8629643217215008
 31
0.0
  0
LINE
  5
17DD8
  8
0
 10
60.3468275107635321
 20
13.8629643217215008
 30
0.0
 11
60.3463458264635406
 21
13.8611378100215408
 31
0.0
  0
LINE
  5
17DD9
  8
0
 10
60.3463458264635406
 20
13.8611378100215408
 30
0.0
 11
60.3304553465635394
 21
13.8677361904214997
 31
0.0
  0
LINE
  5
17DDA
  8
0
 10
60.3304553465635394
 20
13.8677361904214997
 30
0.0
 11
60.3150528596865882
 21
13.8761850050855706
 31
0.0
  0
LINE
  5
17DDB
  8
0
 10
60.2702600658615069
 20
13.9001421443791706
 30
0.0
 11
60.2705085549993527
 21
13.9010843971736797
 31
0.0
  0
LINE
  5
17DDC
  8
0
 10
60.2705085549993527
 20
13.9010843971736797
 30
0.0
 11
60.2556658371811835
 21
13.9116558154561201
 31
0.0
  0
LINE
  5
17DDD
  8
0
 10
60.2556658371811835
 20
13.9116558154561201
 30
0.0
 11
60.2405880259635609
 21
13.92133577642152
 31
0.0
  0
LINE
  5
17DDE
  8
0
 10
60.2405880259635609
 20
13.92133577642152
 30
0.0
 11
60.24033414578075
 21
13.9203730813868507
 31
0.0
  0
LINE
  5
17DDF
  8
0
 10
60.2461906813635224
 20
13.9180447908215008
 30
0.0
 11
60.246698201437809
 21
13.9199692700543594
 31
0.0
  0
LINE
  5
17DE0
  8
0
 10
60.246698201437809
 20
13.9199692700543594
 30
0.0
 11
60.2322442431342679
 21
13.9320148357105005
 31
0.0
  0
LINE
  5
17DE1
  8
0
 10
60.2322442431342679
 20
13.9320148357105005
 30
0.0
 11
60.2172978513635684
 21
13.9421931298215203
 31
0.0
  0
LINE
  5
17DE2
  8
0
 10
60.2172978513635684
 20
13.9421931298215203
 30
0.0
 11
60.2167771249367973
 21
13.9402185731621504
 31
0.0
  0
LINE
  5
17DE3
  8
0
 10
60.2167771249367973
 20
13.9402185731621504
 30
0.0
 11
60.2312162457895823
 21
13.9281167444993805
 31
0.0
  0
LINE
  5
17DE4
  8
0
 10
60.2312162457895823
 20
13.9281167444993805
 30
0.0
 11
60.2461906813766035
 21
13.91804479087107
 31
0.0
  0
LINE
  5
17DE5
  8
0
 10
60.2193951026932126
 20
13.9459859649339695
 30
0.0
 11
60.2236960615730226
 21
13.9419188301574692
 31
0.0
  0
LINE
  5
17DE6
  8
0
 10
60.2236960615730226
 20
13.9419188301574692
 30
0.0
 11
60.2229137280802789
 21
13.9389522784850204
 31
0.0
  0
LINE
  5
17DE7
  8
0
 10
60.2229137280802789
 20
13.9389522784850204
 30
0.0
 11
60.2092708555463574
 21
13.9486559391619895
 31
0.0
  0
LINE
  5
17DE8
  8
0
 10
60.2052959472448919
 20
13.9497039438199302
 30
0.0
 11
60.2076407892595711
 21
13.9478923296063506
 31
0.0
  0
LINE
  5
17DE9
  8
0
 10
60.2076407892595711
 20
13.9478923296063506
 30
0.0
 11
60.221966100135127
 21
13.9353589421230506
 31
0.0
  0
LINE
  5
17DEA
  8
0
 10
60.221966100135127
 20
13.9353589421230506
 30
0.0
 11
60.2216846922080293
 21
13.9342918639766697
 31
0.0
  0
LINE
  5
17DEB
  8
0
 10
60.6263931014034014
 20
13.8310514901518999
 30
0.0
 11
60.6279694545585528
 21
13.8369847600372005
 31
0.0
  0
LINE
  5
17DEC
  8
0
 10
60.6279694545585528
 20
13.8369847600372005
 30
0.0
 11
60.6109142046005118
 21
13.8391825227092404
 31
0.0
  0
LINE
  5
17DED
  8
0
 10
60.6109142046005118
 20
13.8391825227092404
 30
0.0
 11
60.5922980968275269
 21
13.8355053383143307
 31
0.0
  0
LINE
  5
17DEE
  8
0
 10
60.5922980968275269
 20
13.8355053383143307
 30
0.0
 11
60.5907521381788285
 21
13.8296864708452905
 31
0.0
  0
LINE
  5
17DEF
  8
0
 10
60.5907521381788285
 20
13.8296864708452905
 30
0.0
 11
60.6077921887138302
 21
13.8274314990397507
 31
0.0
  0
LINE
  5
17DF0
  8
0
 10
60.6077921887138302
 20
13.8274314990397507
 30
0.0
 11
60.6263931013686204
 21
13.8310514901384796
 31
0.0
  0
LINE
  5
17DF1
  8
0
 10
60.6077921877364574
 20
13.8274314991691298
 30
0.0
 11
60.6109142045999434
 21
13.8391825227093594
 31
0.0
  0
LINE
  5
17DF2
  8
0
 10
60.5995002254349302
 20
13.8382471257954407
 30
0.0
 11
60.5809933318419382
 21
13.8349810152302197
 31
0.0
  0
LINE
  5
17DF3
  8
0
 10
60.5809933318419382
 20
13.8349810152302197
 30
0.0
 11
60.5643035952129196
 21
13.8385545413665501
 31
0.0
  0
LINE
  5
17DF4
  8
0
 10
60.5643035952129196
 20
13.8385545413665501
 30
0.0
 11
60.5661148285908766
 21
13.8453718819231604
 31
0.0
  0
LINE
  5
17DF5
  8
0
 10
60.5661148285908766
 20
13.8453718819231604
 30
0.0
 11
60.5846454575091897
 21
13.8487273306259002
 31
0.0
  0
LINE
  5
17DF6
  8
0
 10
60.5846454575091897
 20
13.8487273306259002
 30
0.0
 11
60.6013274890059108
 21
13.8451248030870797
 31
0.0
  0
LINE
  5
17DF7
  8
0
 10
60.6013274890059108
 20
13.8451248030870797
 30
0.0
 11
60.5995002254349302
 21
13.8382471257954407
 31
0.0
  0
LINE
  5
17DF8
  8
0
 10
60.5809933315225919
 20
13.8349810151738897
 30
0.0
 11
60.58464545749856
 21
13.8487273305634808
 31
0.0
  0
LINE
  5
17DF9
  8
0
 10
60.5684957497851073
 20
13.8299670224796696
 30
0.0
 11
60.570026367691213
 21
13.8357281484547503
 31
0.0
  0
LINE
  5
17DFA
  8
0
 10
60.570026367691213
 20
13.8357281484547503
 30
0.0
 11
60.5534312161677519
 21
13.8396576850200503
 31
0.0
  0
LINE
  5
17DFB
  8
0
 10
60.5534312161677519
 20
13.8396576850200503
 30
0.0
 11
60.5353080994891286
 21
13.8378360810072696
 31
0.0
  0
LINE
  5
17DFC
  8
0
 10
60.5353080994891286
 20
13.8378360810072696
 30
0.0
 11
60.5338328259924978
 21
13.8321360565335194
 31
0.0
  0
LINE
  5
17DFD
  8
0
 10
60.5338328259924978
 20
13.8321360565335194
 30
0.0
 11
60.5503887739793925
 21
13.8282061707425008
 31
0.0
  0
LINE
  5
17DFE
  8
0
 10
60.5503887739793925
 20
13.8282061707425008
 30
0.0
 11
60.5684957497851073
 21
13.8299670224796696
 31
0.0
  0
LINE
  5
17DFF
  8
0
 10
60.5503887739509707
 20
13.8282061706355197
 30
0.0
 11
60.5534312161020978
 21
13.8396576850121509
 31
0.0
  0
LINE
  5
17E00
  8
0
 10
60.5423220546416871
 20
13.8398695984528395
 30
0.0
 11
60.5441187459198105
 21
13.8466322038855392
 31
0.0
  0
LINE
  5
17E01
  8
0
 10
60.5441187459198105
 20
13.8466322038855392
 30
0.0
 11
60.5278757590718612
 21
13.8518872612404103
 31
0.0
  0
LINE
  5
17E02
  8
0
 10
60.5278757590718612
 20
13.8518872612404103
 30
0.0
 11
60.5269825696126134
 21
13.85179434303077
 31
0.0
  0
LINE
  5
17E03
  8
0
 10
60.5269825696126134
 20
13.85179434303077
 30
0.0
 11
60.5234948527115932
 21
13.8386668494577094
 31
0.0
  0
LINE
  5
17E04
  8
0
 10
60.5234948527115932
 20
13.8386668494577094
 30
0.0
 11
60.5243060934162429
 21
13.83845131875497
 31
0.0
  0
LINE
  5
17E05
  8
0
 10
60.5243060934162429
 20
13.83845131875497
 30
0.0
 11
60.542322054588773
 21
13.8398695984474998
 31
0.0
  0
LINE
  5
17E06
  8
0
 10
60.5383058105167322
 20
13.8247527698631192
 30
0.0
 11
60.5395511912274387
 21
13.8294402857105894
 31
0.0
  0
LINE
  5
17E07
  8
0
 10
60.5395511912274387
 20
13.8294402857105894
 30
0.0
 11
60.5230504946872827
 21
13.8337253434419996
 31
0.0
  0
LINE
  5
17E08
  8
0
 10
60.5230504946872827
 20
13.8337253434419996
 30
0.0
 11
60.5221723492579997
 21
13.8336890498737404
 31
0.0
  0
LINE
  5
17E09
  8
0
 10
60.5221723492579997
 20
13.8336890498737404
 30
0.0
 11
60.5197542058997229
 21
13.8245873472213994
 31
0.0
  0
LINE
  5
17E0A
  8
0
 10
60.5197542058997229
 20
13.8245873472213994
 30
0.0
 11
60.520570703407742
 21
13.8243916032198708
 31
0.0
  0
LINE
  5
17E0B
  8
0
 10
60.520570703407742
 20
13.8243916032198708
 30
0.0
 11
60.5383058105167322
 21
13.8247527698631192
 31
0.0
  0
LINE
  5
17E0C
  8
0
 10
60.565199324436179
 20
13.8175595353252607
 30
0.0
 11
60.5661946893311267
 21
13.8213060107945207
 31
0.0
  0
LINE
  5
17E0D
  8
0
 10
60.5661946893311267
 20
13.8213060107945207
 30
0.0
 11
60.5493534031237672
 21
13.8243091161349607
 31
0.0
  0
LINE
  5
17E0E
  8
0
 10
60.5493534031237672
 20
13.8243091161349607
 30
0.0
 11
60.5315226266343132
 21
13.8235878571062702
 31
0.0
  0
LINE
  5
17E0F
  8
0
 10
60.5315226266343132
 20
13.8235878571062702
 30
0.0
 11
60.5305388740124712
 21
13.8198850892405503
 31
0.0
  0
LINE
  5
17E10
  8
0
 10
60.5305388740124712
 20
13.8198850892405503
 30
0.0
 11
60.547374353813801
 21
13.8168601290905304
 31
0.0
  0
LINE
  5
17E11
  8
0
 10
60.547374353813801
 20
13.8168601290905304
 30
0.0
 11
60.565199324436179
 21
13.8175595353252607
 31
0.0
  0
LINE
  5
17E12
  8
0
 10
60.5357699618204208
 20
13.8152080338017207
 30
0.0
 11
60.5365030800278134
 21
13.8179674335076701
 31
0.0
  0
LINE
  5
17E13
  8
0
 10
60.5365030800278134
 20
13.8179674335076701
 30
0.0
 11
60.51975815311377
 21
13.8213332275738203
 31
0.0
  0
LINE
  5
17E14
  8
0
 10
60.51975815311377
 20
13.8213332275738203
 30
0.0
 11
60.518893533277577
 21
13.8213478429157295
 31
0.0
  0
LINE
  5
17E15
  8
0
 10
60.518893533277577
 20
13.8213478429157295
 30
0.0
 11
60.5174698203419226
 21
13.8159890988987009
 31
0.0
  0
LINE
  5
17E16
  8
0
 10
60.5174698203419226
 20
13.8159890988987009
 30
0.0
 11
60.5182981593333409
 21
13.8158379251672407
 31
0.0
  0
LINE
  5
17E17
  8
0
 10
60.5182981593333409
 20
13.8158379251672407
 30
0.0
 11
60.5357699617830178
 21
13.8152080337515795
 31
0.0
  0
LINE
  5
17E18
  8
0
 10
60.5744220242885589
 20
13.8522730559995697
 30
0.0
 11
60.5733483357160125
 21
13.8482317761993503
 31
0.0
  0
LINE
  5
17E19
  8
0
 10
60.5733483357160125
 20
13.8482317761993503
 30
0.0
 11
60.5549252533692979
 21
13.8452811246145497
 31
0.0
  0
LINE
  5
17E1A
  8
0
 10
60.5549252533692979
 20
13.8452811246145497
 30
0.0
 11
60.5385879645690181
 21
13.8501812362932402
 31
0.0
  0
LINE
  5
17E1B
  8
0
 10
60.5385879645690181
 20
13.8501812362932402
 30
0.0
 11
60.540677837830998
 21
13.8580473559686297
 31
0.0
  0
LINE
  5
17E1C
  8
0
 10
60.540677837830998
 20
13.8580473559686297
 30
0.0
 11
60.5482781022306824
 21
13.8592180393561808
 31
0.0
  0
LINE
  5
17E1D
  8
0
 10
60.5549252533692979
 20
13.8452811246145497
 30
0.0
 11
60.5579458593047875
 21
13.8566504490450093
 31
0.0
  0
LINE
  5
17E1E
  8
0
 10
60.5473743538385918
 20
13.8168601291453292
 30
0.0
 11
60.5493534031149068
 21
13.8243091161015403
 31
0.0
  0
LINE
  5
17E1F
  8
0
 10
60.5953889881167029
 20
13.8227727505253206
 30
0.0
 11
60.5966632398339229
 21
13.8275689341780001
 31
0.0
  0
LINE
  5
17E20
  8
0
 10
60.5966632398339229
 20
13.8275689341780001
 30
0.0
 11
60.579719336005688
 21
13.8301857945744704
 31
0.0
  0
LINE
  5
17E21
  8
0
 10
60.579719336005688
 20
13.8301857945744704
 30
0.0
 11
60.5615110227061777
 21
13.8280435167474298
 31
0.0
  0
LINE
  5
17E22
  8
0
 10
60.5615110227061777
 20
13.8280435167474298
 30
0.0
 11
60.5602561566284621
 21
13.8233202991777606
 31
0.0
  0
LINE
  5
17E23
  8
0
 10
60.5602561566284621
 20
13.8233202991777606
 30
0.0
 11
60.5771903667968914
 21
13.8206669525815897
 31
0.0
  0
LINE
  5
17E24
  8
0
 10
60.5771903667968914
 20
13.8206669525815897
 30
0.0
 11
60.5953889881322709
 21
13.8227727505354991
 31
0.0
  0
LINE
  5
17E25
  8
0
 10
60.5771903679829222
 20
13.8206669527188204
 30
0.0
 11
60.5797193311908302
 21
13.83018579400796
 31
0.0
  0
LINE
  5
17E26
  8
0
 10
60.592795903056718
 20
13.8130125813176097
 30
0.0
 11
60.5935453594069315
 21
13.8158334760252206
 31
0.0
  0
LINE
  5
17E27
  8
0
 10
60.5935453594069315
 20
13.8158334760252206
 30
0.0
 11
60.5763620721009204
 21
13.8175493161346203
 31
0.0
  0
LINE
  5
17E28
  8
0
 10
60.5763620721009204
 20
13.8175493161346203
 30
0.0
 11
60.5584399829045523
 21
13.8164843633372403
 31
0.0
  0
LINE
  5
17E29
  8
0
 10
60.5584399829045523
 20
13.8164843633372403
 30
0.0
 11
60.5577014922222077
 21
13.8137047421961601
 31
0.0
  0
LINE
  5
17E2A
  8
0
 10
60.5577014922222077
 20
13.8137047421961601
 30
0.0
 11
60.5748742318644133
 21
13.81194920180811
 31
0.0
  0
LINE
  5
17E2B
  8
0
 10
60.5748742318644133
 20
13.81194920180811
 30
0.0
 11
60.592795903056718
 21
13.8130125813176097
 31
0.0
  0
LINE
  5
17E2C
  8
0
 10
60.5748742319130713
 20
13.8119492017326202
 30
0.0
 11
60.5763620721027394
 21
13.8175493160307692
 31
0.0
  0
LINE
  5
17E2D
  8
0
 10
60.6230015833686693
 20
13.8182860816247803
 30
0.0
 11
60.6240251853047027
 21
13.8221388391969207
 31
0.0
  0
LINE
  5
17E2E
  8
0
 10
60.6240251853047027
 20
13.8221388391969207
 30
0.0
 11
60.6067305288543992
 21
13.8234354944047109
 31
0.0
  0
LINE
  5
17E2F
  8
0
 10
60.6067305288543992
 20
13.8234354944047109
 30
0.0
 11
60.5884286347626571
 21
13.8209409857200995
 31
0.0
  0
LINE
  5
17E30
  8
0
 10
60.5884286347626571
 20
13.8209409857200995
 30
0.0
 11
60.587423784588367
 21
13.8171588083758508
 31
0.0
  0
LINE
  5
17E31
  8
0
 10
60.587423784588367
 20
13.8171588083758508
 30
0.0
 11
60.604702298339781
 21
13.8158013931765904
 31
0.0
  0
LINE
  5
17E32
  8
0
 10
60.604702298339781
 20
13.8158013931765904
 30
0.0
 11
60.6230015834213702
 21
13.8182860816329693
 31
0.0
  0
LINE
  5
17E33
  8
0
 10
60.6047022964583277
 20
13.8158013933244401
 30
0.0
 11
60.6067305288543992
 21
13.8234354944047109
 31
0.0
  0
LINE
  5
17E34
  8
0
 10
60.6211056971498294
 20
13.8111501139958595
 30
0.0
 11
60.6216098017534577
 21
13.8130475245338502
 31
0.0
  0
LINE
  5
17E35
  8
0
 10
60.6216098017534577
 20
13.8130475245338502
 30
0.0
 11
60.6040780174382405
 21
13.8134516489818306
 31
0.0
  0
LINE
  5
17E36
  8
0
 10
60.6040780174382405
 20
13.8134516489818306
 30
0.0
 11
60.5860570807943475
 21
13.8120146422299008
 31
0.0
  0
LINE
  5
17E37
  8
0
 10
60.5860570807943475
 20
13.8120146422299008
 30
0.0
 11
60.5855619426624514
 21
13.8101509807977596
 31
0.0
  0
LINE
  5
17E38
  8
0
 10
60.5855619426624514
 20
13.8101509807977596
 30
0.0
 11
60.6030788899701918
 21
13.8096910144974601
 31
0.0
  0
LINE
  5
17E39
  8
0
 10
60.6030788899701918
 20
13.8096910144974601
 30
0.0
 11
60.6211056970917284
 21
13.8111501140546906
 31
0.0
  0
LINE
  5
17E3A
  8
0
 10
60.6030788899701918
 20
13.8096910144974601
 30
0.0
 11
60.6040780118924829
 21
13.8134516485396404
 31
0.0
  0
LINE
  5
17E3B
  8
0
 10
60.6551992921982901
 20
13.8310574216115505
 30
0.0
 11
60.6540267603323571
 21
13.8266441033299703
 31
0.0
  0
LINE
  5
17E3C
  8
0
 10
60.6540267603323571
 20
13.8266441033299703
 30
0.0
 11
60.6353201526690384
 21
13.8226262845037304
 31
0.0
  0
LINE
  5
17E3D
  8
0
 10
60.6353201526690384
 20
13.8226262845037304
 30
0.0
 11
60.6179264545355423
 21
13.8235501545488706
 31
0.0
  0
LINE
  5
17E3E
  8
0
 10
60.6179264545355423
 20
13.8235501545488706
 30
0.0
 11
60.619216047131971
 21
13.8284040799524792
 31
0.0
  0
LINE
  5
17E3F
  8
0
 10
60.619216047131971
 20
13.8284040799524792
 30
0.0
 11
60.637928702809198
 21
13.8324446633337903
 31
0.0
  0
LINE
  5
17E40
  8
0
 10
60.637928702809198
 20
13.8324446633337903
 30
0.0
 11
60.6531015287061166
 21
13.8316106399008305
 31
0.0
  0
LINE
  5
17E41
  8
0
 10
60.6379287028316014
 20
13.8324446633386202
 30
0.0
 11
60.6353201536308788
 21
13.8226262847102994
 31
0.0
  0
LINE
  5
17E42
  8
0
 10
60.6513444145674328
 20
13.8165479635902901
 30
0.0
 11
60.6521193222304973
 21
13.8194646554398606
 31
0.0
  0
LINE
  5
17E43
  8
0
 10
60.6521193222304973
 20
13.8194646554398606
 30
0.0
 11
60.6344664251772869
 21
13.8194129211274408
 31
0.0
  0
LINE
  5
17E44
  8
0
 10
60.6344664251772869
 20
13.8194129211274408
 30
0.0
 11
60.6160611184370524
 21
13.8165291752131001
 31
0.0
  0
LINE
  5
17E45
  8
0
 10
60.6160611184370524
 20
13.8165291752131001
 30
0.0
 11
60.6153029984260101
 21
13.8136756708229491
 31
0.0
  0
LINE
  5
17E46
  8
0
 10
60.6153029984260101
 20
13.8136756708229491
 30
0.0
 11
60.6329336563580625
 21
13.8136436992355307
 31
0.0
  0
LINE
  5
17E47
  8
0
 10
60.6329336563580625
 20
13.8136436992355307
 30
0.0
 11
60.6513444145674328
 21
13.8165479635902901
 31
0.0
  0
LINE
  5
17E48
  8
0
 10
60.6329336564054628
 20
13.8136436992363905
 30
0.0
 11
60.6344664251772869
 21
13.8194129211274408
 31
0.0
  0
LINE
  5
17E49
  8
0
 10
60.6801463080692187
 20
13.8244784409521309
 30
0.0
 11
60.6635870575555316
 21
13.8206023858590097
 31
0.0
  0
LINE
  5
17E4A
  8
0
 10
60.6635870575555316
 20
13.8206023858590097
 30
0.0
 11
60.6458307335164832
 21
13.8201613602019098
 31
0.0
  0
LINE
  5
17E4B
  8
0
 10
60.6458307335164832
 20
13.8201613602019098
 30
0.0
 11
60.6468688776768374
 21
13.8240688536146408
 31
0.0
  0
LINE
  5
17E4C
  8
0
 10
60.6468688776768374
 20
13.8240688536146408
 30
0.0
 11
60.6652706804629531
 21
13.8284014138168807
 31
0.0
  0
LINE
  5
17E4D
  8
0
 10
60.6635870575555884
 20
13.8206023858590701
 30
0.0
 11
60.6656336729237395
 21
13.8283056861197693
 31
0.0
  0
LINE
  5
17E4E
  8
0
 10
60.5438658545783994
 20
13.8603911092573799
 30
0.0
 11
60.5296012648147723
 21
13.8583819288218901
 31
0.0
  0
LINE
  5
17E4F
  8
0
 10
60.5296012648147723
 20
13.8583819288218901
 30
0.0
 11
60.5287900239293108
 21
13.8585974595743195
 31
0.0
  0
LINE
  5
17E50
  8
0
 10
60.5287900239293108
 20
13.8585974595743195
 30
0.0
 11
60.5302291540118276
 21
13.8640142325834503
 31
0.0
  0
LINE
  5
17E51
  8
0
 10
60.56335471745993
 20
13.8106165789985997
 30
0.0
 11
60.5638453146390532
 21
13.8124631481984093
 31
0.0
  0
LINE
  5
17E52
  8
0
 10
60.5638453146390532
 20
13.8124631481984093
 30
0.0
 11
60.5467649421338123
 21
13.8145663513160706
 31
0.0
  0
LINE
  5
17E53
  8
0
 10
60.5467649421338123
 20
13.8145663513160706
 30
0.0
 11
60.5292004123336724
 21
13.8148472244595997
 31
0.0
  0
LINE
  5
17E54
  8
0
 10
60.5292004123336724
 20
13.8148472244595997
 30
0.0
 11
60.5287153795999586
 21
13.8130215990866692
 31
0.0
  0
LINE
  5
17E55
  8
0
 10
60.5287153795999586
 20
13.8130215990866692
 30
0.0
 11
60.5457893557882301
 21
13.8108943209010295
 31
0.0
  0
LINE
  5
17E56
  8
0
 10
60.5457893557882301
 20
13.8108943209010295
 30
0.0
 11
60.56335471745993
 21
13.8106165789985997
 31
0.0
  0
LINE
  5
17E57
  8
0
 10
60.6141867939185488
 20
13.8094743646707006
 30
0.0
 11
60.6143842743304333
 21
13.8102176654380404
 31
0.0
  0
LINE
  5
17E58
  8
0
 10
60.6143842743304333
 20
13.8102176654380404
 30
0.0
 11
60.6325132964073177
 21
13.8120614971183695
 31
0.0
  0
LINE
  5
17E59
  8
0
 10
60.6325132964073177
 20
13.8120614971183695
 30
0.0
 11
60.6504055906774227
 21
13.8130143041077709
 31
0.0
  0
LINE
  5
17E5A
  8
0
 10
60.6504055906774227
 20
13.8130143041077709
 30
0.0
 11
60.6502174708921586
 21
13.8123062358496504
 31
0.0
  0
LINE
  5
17E5B
  8
0
 10
60.6439084715668386
 20
13.8129261167295798
 30
0.0
 11
60.6444195197530789
 21
13.8148496620746801
 31
0.0
  0
LINE
  5
17E5C
  8
0
 10
60.6444195197530789
 20
13.8148496620746801
 30
0.0
 11
60.662940003650327
 21
13.8181669258311999
 31
0.0
  0
LINE
  5
17E5D
  8
0
 10
60.662940003650327
 20
13.8181669258311999
 30
0.0
 11
60.6809646310286084
 21
13.8196178241209608
 31
0.0
  0
LINE
  5
17E5E
  8
0
 10
60.6809646310286084
 20
13.8196178241209608
 30
0.0
 11
60.6804402847342601
 21
13.8176442256368706
 31
0.0
  0
LINE
  5
17E5F
  8
0
 10
60.6804402847342601
 20
13.8176442256368706
 30
0.0
 11
60.6619048600078088
 21
13.8142707262379805
 31
0.0
  0
LINE
  5
17E60
  8
0
 10
60.6619048600078088
 20
13.8142707262379805
 30
0.0
 11
60.6439084715800334
 21
13.8129261167791402
 31
0.0
  0
LINE
  5
17E61
  8
0
 10
60.6816024764278126
 20
13.8240944229390106
 30
0.0
 11
60.6752685971237327
 21
13.8225448587883992
 31
0.0
  0
LINE
  5
17E62
  8
0
 10
60.6752685971237327
 20
13.8225448587883992
 30
0.0
 11
60.6744808251407619
 21
13.8195797466788299
 31
0.0
  0
LINE
  5
17E63
  8
0
 10
60.6744808251407619
 20
13.8195797466788299
 30
0.0
 11
60.6920060706266327
 21
13.8213508064128305
 31
0.0
  0
LINE
  5
17E64
  8
0
 10
60.6959127128379379
 20
13.8203205539896707
 30
0.0
 11
60.6805759705505068
 21
13.8181549364479306
 31
0.0
  0
LINE
  5
17E65
  8
0
 10
60.692176635267991
 20
13.8197930028988694
 30
0.0
 11
60.6735266095635879
 21
13.8159881540564893
 31
0.0
  0
LINE
  5
17E66
  8
0
 10
60.6735266095635879
 20
13.8159881540564893
 30
0.0
 11
60.6733405411150883
 21
13.8152878068210807
 31
0.0
  0
LINE
  5
17E68
  8
0
 10
60.1316795968685227
 20
14.0668377252421504
 30
0.0
 11
60.8169134318631066
 21
13.88612913186995
 31
0.0
  0
LINE
  5
17E69
  8
0
 10
65.7907564574597501
 20
13.7533035190572193
 30
0.0
 11
65.8490390903430836
 21
13.7533035190572193
 31
0.0
  0
LINE
  5
17E6A
  8
0
 10
65.8301265362597547
 20
13.8519879091572093
 30
0.0
 11
65.8490375630773315
 21
13.8519879091572093
 31
0.0
  0
LINE
  5
17E6B
  8
0
 10
65.8301265362597547
 20
13.8519879091572093
 30
0.0
 11
65.8301265362597547
 21
13.7533035190572193
 31
0.0
  0
LINE
  5
17E6C
  8
0
 10
66.6108219287192753
 20
24.5193202642518493
 30
0.0
 11
66.5622268410192532
 21
25.0702528558518516
 31
0.0
  0
ARC
  5
17E6D
  8
0
 10
65.6325733736406534
 20
24.4148611572338403
 30
0.0
 40
0.0295252315427163
 50
185.0332854703306964
 51
275.006521901582289
  0
LINE
  5
17E6E
  8
0
 10
65.6031619944129289
 20
24.4122707770352392
 30
0.0
 11
65.2270078943834193
 21
28.6763514453792006
 31
0.0
  0
ARC
  5
17E6F
  8
0
 10
66.5328272100042568
 20
25.0676698351391494
 30
0.0
 40
0.0295100816015487
 50
5.0610732128213991
 51
51.228822775732219
  0
ARC
  5
17E70
  8
0
 10
66.8326173799937067
 20
25.4409179483361392
 30
0.0
 40
0.4492260670517842
 50
183.0864736503907011
 51
231.2288227757321977
  0
ARC
  5
17E71
  8
0
 10
-978.8052306928105963
 20
-64.6443599110624234
 30
0.0
 40
1049.0622563550859923
 50
4.9248553729753413
 51
5.17329827950637
  0
ARC
  5
17E72
  8
0
 10
65.2115387061787857
 20
29.7923719820636883
 30
0.0
 40
0.7876814302353433
 50
11.3926098458106502
 51
29.1827174220577206
  0
ARC
  5
17E73
  8
0
 10
65.2564220953315584
 20
28.6789966119602298
 30
0.0
 40
0.0295328990053306
 50
145.446486854480014
 51
185.138684590267502
  0
ARC
  5
17E74
  8
0
 10
64.8815108377941527
 20
28.9793716416672993
 30
0.0
 40
0.4509489415981704
 50
321.0272449449362853
 51
6.9202073880855277
  0
ARC
  5
17E75
  8
0
 10
-1492.6266308486390244
 20
-109.8722631774373042
 30
0.0
 40
1564.1359147084949655
 50
5.0949692073203154
 51
5.105684059900403
  0
ARC
  5
17E76
  8
0
 10
64.6982558825332461
 20
29.261219868141449
 30
0.0
 40
0.6082735916577948
 50
6.0239984703432468
 51
34.9621000803571604
  0
ARC
  5
17E77
  8
0
 10
65.2098962463252576
 20
29.5951826784973306
 30
0.0
 40
0.019642244963906
 50
131.991778576440197
 51
206.0711066626562058
  0
ARC
  5
17E78
  8
0
 10
64.5801378955388969
 20
29.2521509511695115
 30
0.0
 40
0.6975007333990381
 50
14.60329598549575
 51
28.6478491233892392
  0
ARC
  5
17E79
  8
0
 10
64.3644085406531445
 20
29.2179541199117985
 30
0.0
 40
0.9151306423523509
 50
5.2443656270901586
 51
13.2696781439249492
  0
LINE
  5
17E7A
  8
0
 10
65.2757083737302821
 20
29.3016004396503718
 30
0.0
 11
65.281685427519264
 21
29.2400581918518583
 31
0.0
  0
ARC
  5
17E7B
  8
0
 10
65.2699624807274006
 20
29.2389196492401204
 30
0.0
 40
0.0117781051431711
 50
274.4214659308864839
 51
5.5472174277032726
  0
ARC
  5
17E7C
  8
0
 10
70.9827839350476211
 20
-44.6439431534236633
 30
0.0
 40
74.091620905200358
 50
94.4214659308864839
 51
94.6585783217016967
  0
ARC
  5
17E7D
  8
0
 10
64.9634721871164942
 20
29.2242643822794612
 30
0.0
 40
0.0214292172746372
 50
184.9760121720713073
 51
274.6585783217057042
  0
LINE
  5
17E7E
  8
0
 10
64.942123734419269
 20
29.2224056406518606
 30
0.0
 11
64.8781964787170153
 21
29.9471539978327712
 31
0.0
  0
ARC
  5
17E7F
  8
0
 10
31.5281141890480612
 20
10.9767447032958696
 30
0.0
 40
39.3700602473027175
 50
29.1876967008584707
 51
35.1419826100207828
  0
ARC
  5
17E80
  8
0
 10
3803.1024744502137764
 20
-6059.5164830708763475
 30
0.0
 40
7149.1185913224871911
 50
121.5377562573409023
 51
121.5443913997646064
  0
ARC
  5
17E81
  8
0
 10
62.9920941273219768
 20
33.1880711085025624
 30
0.0
 40
0.0295275664393512
 50
121.5407072655689973
 51
211.6331639479629985
  0
ARC
  5
17E82
  8
0
 10
65.1991301306234305
 20
29.6426797817515606
 30
0.0
 40
0.0454008924530171
 50
225.0752307053521974
 51
253.9823627843458098
  0
ARC
  5
17E83
  8
0
 10
67.3224428013919436
 20
31.4248135478390402
 30
0.0
 40
2.8173116605292141
 50
216.4241535113451107
 51
220.0888916671636082
  0
LINE
  5
17E84
  8
0
 10
65.0766785330524158
 20
29.7647565068472204
 30
0.0
 11
65.0323517281192665
 21
29.73807929005185
 31
0.0
  0
ARC
  5
17E85
  8
0
 10
65.0261063909997432
 20
29.7490144335377806
 30
0.0
 40
0.012592918597133
 50
218.5373256634744905
 51
299.7317806861254894
  0
ARC
  5
17E86
  8
0
 10
66.0924095466582742
 20
30.691837137139121
 30
0.0
 40
1.4359235613160271
 50
217.7404647987264923
 51
221.4572149809696953
  0
ARC
  5
17E87
  8
0
 10
65.6679357783341402
 20
30.3632874069226908
 30
0.0
 40
0.8991527487520794
 50
215.6886182480081118
 51
217.7404647987268049
  0
ARC
  5
17E88
  8
0
 10
64.9472284011537226
 20
29.8468687743254897
 30
0.0
 40
0.0125671409468408
 50
127.2336516347400988
 51
220.3041365607880948
  0
LINE
  5
17E89
  8
0
 10
64.9396244409192605
 20
29.8568744137518607
 30
0.0
 11
64.9823290934076425
 21
29.8846654064442987
 31
0.0
  0
LINE
  5
17E8A
  8
0
 10
64.9640978146192651
 20
29.8728081614518501
 30
0.0
 11
64.9001010057192644
 21
29.9570707449518494
 31
0.0
  0
LINE
  5
17E8B
  8
0
 10
64.9333234709525868
 20
29.9770660581662014
 30
0.0
 11
64.8861287638192437
 21
29.9486665516518613
 31
0.0
  0
ARC
  5
17E8C
  8
0
 10
64.8796026120525653
 20
29.9613357295630607
 30
0.0
 40
0.0142512710249774
 50
217.7983574557582926
 51
297.2539186697737819
  0
ARC
  5
17E8D
  8
0
 10
65.4209945302990548
 20
30.4662568794006496
 30
0.0
 40
0.7544979873669174
 50
213.9176131866371122
 51
222.9054950993366049
  0
ARC
  5
17E8E
  8
0
 10
64.8242000375419707
 20
30.0656011784468014
 30
0.0
 40
0.0356915489262169
 50
194.8932415624333885
 51
214.7700989649015071
  0
ARC
  5
17E8F
  8
0
 10
64.8017974100814342
 20
30.0585929208949416
 30
0.0
 40
0.0122822578345638
 50
123.4160600086019031
 51
190.1532739063864881
  0
LINE
  5
17E90
  8
0
 10
64.795033389819281
 20
30.0688448420518704
 30
0.0
 11
64.8043101184962751
 21
30.0748786040661891
 31
0.0
  0
LINE
  5
17E91
  8
0
 10
64.8062316364185449
 20
30.0761923201245089
 30
0.0
 11
64.7295991751633437
 21
30.1761383893119586
 31
0.0
  0
LINE
  5
17E92
  8
0
 10
64.8636169085371961
 20
29.9577321507002488
 30
0.0
 11
64.8454866374192704
 21
29.9468208032518604
 31
0.0
  0
ARC
  5
17E93
  8
0
 10
64.8393964705564656
 20
29.956940211225799
 30
0.0
 40
0.0118106964299362
 50
216.8391941414008954
 51
301.0408056233320053
  0
LINE
  5
17E94
  8
0
 10
64.8299441173192719
 20
29.9498588576518507
 30
0.0
 11
64.7779754680046267
 21
30.0192278032145587
 31
0.0
  0
ARC
  5
17E95
  8
0
 10
64.7874281962458696
 20
30.02630943772769
 30
0.0
 40
0.0118111649967398
 50
123.0548212680321001
 51
216.8391941414465975
  0
LINE
  5
17E96
  8
0
 10
64.7809858998192709
 20
30.0362089546518582
 30
0.0
 11
64.7948813236035477
 21
30.0452468247814686
 31
0.0
  0
ARC
  5
17E97
  8
0
 10
64.9199207325883663
 20
30.0800440474002784
 30
0.0
 40
0.1196627834072055
 50
210.3083010573735976
 51
221.1940634538318022
  0
ARC
  5
17E98
  8
0
 10
64.9845998212618099
 20
30.1195978140396186
 30
0.0
 40
0.1948065459232928
 50
217.4163889812529931
 51
223.7622861906716025
  0
ARC
  5
17E99
  8
0
 10
64.8506475377693334
 20
29.9921785848687215
 30
0.0
 40
0.0099520422057658
 50
227.3706113781622946
 51
234.2383792355934133
  0
ARC
  5
17E9A
  8
0
 10
64.8207573381087627
 20
30.0222467365114802
 30
0.0
 40
0.0048873918686125
 50
194.7321280666081975
 51
212.012631529521002
  0
ARC
  5
17E9B
  8
0
 10
64.816177728729258
 20
30.0210404519784184
 30
0.0
 40
0.0001515908513319
 50
50.5543326700231574
 51
193.9639688862309015
  0
ARC
  5
17E9C
  8
0
 10
64.8134205755391974
 20
30.0163074638657008
 30
0.0
 40
0.0056271893043093
 50
45.0020679559300589
 51
59.5301121974906593
  0
ARC
  5
17E9D
  8
0
 10
64.7306975534357889
 20
29.9343440722654393
 30
0.0
 40
0.1220792500003936
 50
39.0203847066571825
 51
44.7479972187000072
  0
ARC
  5
17E9E
  8
0
 10
64.5506903418767592
 20
29.7831570866518405
 30
0.0
 40
0.3571415276171657
 50
38.3494919212044394
 51
39.6827336492075702
  0
ARC
  5
17E9F
  8
0
 10
64.5899029695712983
 20
29.8131036904039988
 30
0.0
 40
0.3078099760532185
 50
34.8719055023124227
 51
38.5066671763643811
  0
ARC
  5
17EA0
  8
0
 10
64.7973994813162619
 20
29.9584444196543096
 30
0.0
 40
0.0544788779667038
 50
29.7406001531557109
 51
34.2330655973633782
  0
ARC
  5
17EA1
  8
0
 10
64.8405850112052775
 20
29.9828288540341603
 30
0.0
 40
0.0048916799612648
 50
17.447097914894389
 51
32.6783050936651378
  0
ARC
  5
17EA2
  8
0
 10
64.8451500036289872
 20
29.9844160652336384
 30
0.0
 40
0.0004466965026736
 50
224.5046232396578034
 51
279.9604025017908953
  0
ARC
  5
17EA3
  8
0
 10
64.8449842476841951
 20
29.9841552804580793
 30
0.0
 40
0.0003019333925906
 50
323.5986043526402796
 51
27.6722742965911088
  0
ARC
  5
17EA4
  8
0
 10
64.7950347990824866
 20
30.0671721867426385
 30
0.0
 40
0.0016726559028986
 50
42.5416071343631472
 51
90.0482734334787551
  0
ARC
  5
17EA5
  8
0
 10
64.7291760204386435
 20
29.99386147740897
 30
0.0
 40
0.1002136812412158
 50
39.8048961098030318
 51
47.9729688682542488
  0
ARC
  5
17EA6
  8
0
 10
64.0615570891539221
 20
29.4248807101238015
 30
0.0
 40
0.9773935232166129
 50
37.113495941134083
 51
40.3743639793079581
  0
ARC
  5
17EA7
  8
0
 10
63.8878267373930129
 20
29.2842845977747288
 30
0.0
 40
1.200790604089311
 50
34.8697438469858625
 51
37.4612953561976667
  0
ARC
  5
17EA8
  8
0
 10
64.7661288475376864
 20
29.891452355891289
 30
0.0
 40
0.1331183112177976
 50
25.4985094476698713
 51
36.5844686812079303
  0
LINE
  5
17EA9
  8
0
 10
64.8043101184962751
 20
30.0748786040661891
 30
0.0
 11
64.8383111443192632
 21
30.0969935754518509
 31
0.0
  0
LINE
  5
17EAA
  8
0
 10
64.7359605869482948
 20
30.1800429524227489
 30
0.0
 11
64.6914658276192682
 21
30.1527325688518602
 31
0.0
  0
ARC
  5
17EAB
  8
0
 10
64.6851250660568411
 20
30.1643799128001717
 30
0.0
 40
0.0132614432940762
 50
207.7725252261510889
 51
298.5636733647792767
  0
ARC
  5
17EAC
  8
0
 10
66.7526578872683842
 20
31.7400080132770199
 30
0.0
 40
2.612558971461886
 50
215.3946010824284087
 51
217.262156503282597
  0
ARC
  5
17EAD
  8
0
 10
64.6333207910272876
 20
30.23304048522618
 30
0.0
 40
0.0121058757198763
 50
123.2417032018431939
 51
211.0167601902296894
  0
LINE
  5
17EAE
  8
0
 10
64.6266846874192709
 20
30.2431654225518685
 30
0.0
 11
64.6685957850121014
 21
30.269908369037509
 31
0.0
  0
LINE
  5
17EAF
  8
0
 10
64.8037298695657853
 20
30.1993007076202993
 30
0.0
 11
64.7582701242192655
 21
30.1719423888518499
 31
0.0
  0
ARC
  5
17EB0
  8
0
 10
64.7515524386956685
 20
30.1841266173925895
 30
0.0
 40
0.013913400875653
 50
226.773563903248089
 51
298.869824619277324
  0
ARC
  5
17EB1
  8
0
 10
65.0134162623211154
 20
30.4518218123894293
 30
0.0
 40
0.3883882085251606
 50
215.2499473999249915
 51
225.6718326771764964
  0
ARC
  5
17EB2
  8
0
 10
64.8664589982655144
 20
30.3692347454133795
 30
0.0
 40
0.2213946255059653
 50
204.247356423809606
 51
219.750225485672587
  0
ARC
  5
17EB3
  8
0
 10
64.6771675672654567
 20
30.2824402313985708
 30
0.0
 40
0.0132320747547394
 50
122.1151589338389982
 51
198.1739289622958893
  0
LINE
  5
17EB4
  8
0
 10
64.6701330961328722
 20
30.2936475512476591
 30
0.0
 11
64.7152678069376748
 21
30.3230040974173995
 31
0.0
  0
ARC
  5
17EB5
  8
0
 10
64.6947629981107326
 20
30.2458907285210614
 30
0.0
 40
0.0051368482378483
 50
189.1804196333075936
 51
209.6266195966396992
  0
ARC
  5
17EB6
  8
0
 10
64.4908316995958728
 20
30.1299162716659197
 30
0.0
 40
0.2294650468031004
 50
28.5754358174824112
 51
29.6266195966397312
  0
ARC
  5
17EB7
  8
0
 10
64.7301430503408852
 20
30.26025998907215
 30
0.0
 40
0.0430407462778548
 50
208.5754358174829122
 51
217.4925208173642943
  0
ARC
  5
17EB8
  8
0
 10
64.4689053276934203
 20
30.0598594081674797
 30
0.0
 40
0.2862092204054588
 50
34.6402217901915179
 51
37.4925208173646709
  0
ARC
  5
17EB9
  8
0
 10
64.802581857554415
 20
30.2954258736218698
 30
0.0
 40
0.1222901317305906
 50
216.5805027749345015
 51
225.4289164655295963
  0
ARC
  5
17EBA
  8
0
 10
64.7198091172585208
 20
30.2117678515431187
 30
0.0
 40
0.0046114785287669
 50
228.5988801519148126
 51
241.1955268685273097
  0
ARC
  5
17EBB
  8
0
 10
64.6899597292456292
 20
30.245160145942009
 30
0.0
 40
0.0002821739478479
 50
54.7414574799286413
 51
198.3790174921732898
  0
ARC
  5
17EBC
  8
0
 10
64.6837688802118009
 20
30.2348694948598187
 30
0.0
 40
0.0122907581770164
 50
43.0835474160008687
 51
58.8719446279758571
  0
ARC
  5
17EBD
  8
0
 10
64.5622380251206067
 20
30.1215760418168692
 30
0.0
 40
0.1784387352179166
 50
36.2004762488833265
 51
42.9973235076404094
  0
ARC
  5
17EBE
  8
0
 10
64.5582840873751564
 20
30.1153484674749201
 30
0.0
 40
0.1853269945566268
 50
31.5799120455167994
 51
37.0321873568531714
  0
ARC
  5
17EBF
  8
0
 10
64.6957148585480581
 20
30.1997604030085007
 30
0.0
 40
0.0240428831257021
 50
20.6107516766091408
 51
31.7212797236932182
  0
ARC
  5
17EC0
  8
0
 10
64.7179774443373077
 20
30.2081535495616187
 30
0.0
 40
0.0005781601374417
 50
227.5483757674365108
 51
286.7008881696154958
  0
ARC
  5
17EC1
  8
0
 10
64.7176175081568203
 20
30.2079798076884884
 30
0.0
 40
0.000648990489058
 50
324.1566255974371984
 51
22.09428801684615
  0
ARC
  5
17EC2
  8
0
 10
64.7568193962070069
 20
30.1728853755278301
 30
0.0
 40
0.0017302703940718
 50
326.9757585182940147
 51
27.8081449944892114
  0
ARC
  5
17EC3
  8
0
 10
64.6507545498893421
 20
30.1279059956677884
 30
0.0
 40
0.1169322791423326
 50
23.0519051459672717
 51
33.6432338945436129
  0
ARC
  5
17EC4
  8
0
 10
64.1191530281002429
 20
29.7926999066542706
 30
0.0
 40
0.7453635097993392
 50
32.4549295487622729
 51
36.0607848177856027
  0
ARC
  5
17EC5
  8
0
 10
64.0705749854671467
 20
29.7643925805110712
 30
0.0
 40
0.8013169290392406
 50
35.6523838800713975
 51
39.8827889399049269
  0
ARC
  5
17EC6
  8
0
 10
64.5607736695473733
 20
30.1741760775312606
 30
0.0
 40
0.1623981656245847
 50
39.8384131297445876
 51
45.7788196321424721
  0
ARC
  5
17EC7
  8
0
 10
64.6640039652685346
 20
30.2809624008253593
 30
0.0
 40
0.0138823842133987
 50
43.732481092160711
 51
62.9539453587425868
  0
ARC
  5
17EC8
  8
0
 10
64.669980544788487
 20
30.2926036226236306
 30
0.0
 40
0.0007971927943377
 50
65.0853579741311279
 51
114.6119485463227932
  0
ARC
  5
17EC9
  8
0
 10
64.7727948269420608
 20
30.355648688651339
 30
0.0
 40
0.0781704885715473
 50
198.4661420221260926
 51
210.1073760637611088
  0
ARC
  5
17ECA
  8
0
 10
64.699969043534665
 20
30.3313293660634713
 30
0.0
 40
0.0013914277539402
 50
111.9903898651135989
 51
198.4661420219015895
  0
ARC
  5
17ECB
  8
0
 10
64.7008059262043815
 20
30.3268927796503007
 30
0.0
 40
0.0058855712994581
 50
54.6957078744004903
 51
103.3393175295643971
  0
ARC
  5
17ECC
  8
0
 10
64.6804104479343351
 20
30.2900225729540615
 30
0.0
 40
0.0479891844048429
 50
43.3117721135387868
 51
60.2722272878213587
  0
ARC
  5
17ECD
  8
0
 10
64.6238993763478362
 20
30.235613788604379
 30
0.0
 40
0.1264338070428388
 50
37.2210416187239801
 51
43.6855407093630035
  0
ARC
  5
17ECE
  8
0
 10
64.530144179065914
 20
30.1621508518155999
 30
0.0
 40
0.2455354233699748
 50
33.6127542009586691
 51
37.6381312334674121
  0
ARC
  5
17ECF
  8
0
 10
64.0495071676919707
 20
29.7455051188946094
 30
0.0
 40
0.8801813393082721
 50
34.1046931726630973
 51
38.88721344789856
  0
ARC
  5
17ED0
  8
0
 10
64.3438566676011447
 20
29.9329543601522694
 30
0.0
 40
0.5314426210478799
 50
29.4534363832164807
 51
35.1648777012276597
  0
ARC
  5
17ED1
  8
0
 10
64.7653793906434601
 20
30.1709372912325513
 30
0.0
 40
0.0473793407973844
 50
15.8193531174146003
 51
29.5072837556460499
  0
ARC
  5
17ED2
  8
0
 10
64.8091158144424639
 20
30.1830968306414498
 30
0.0
 40
0.0019972127475946
 50
308.6773039119461828
 51
22.2523422164951512
  0
ARC
  5
17ED3
  8
0
 10
64.9178022364863523
 20
30.2853496814830692
 30
0.0
 40
0.1493985455794136
 50
219.6452126450921867
 51
224.0165727191119913
  0
ARC
  5
17ED4
  8
0
 10
64.7561203433751871
 20
30.1547970106085792
 30
0.0
 40
0.0584541418000511
 50
37.0651565934183012
 51
44.4754610859664083
  0
ARC
  5
17ED5
  8
0
 10
64.9260277288182124
 20
30.1570209022068312
 30
0.0
 40
0.1145873083904876
 50
206.0172000631947071
 51
214.2877501591804048
  0
ARC
  5
17ED6
  8
0
 10
64.8247968774872021
 20
30.1034241265953106
 30
0.0
 40
0.0037628823882689
 50
50.8287146624967932
 51
117.619359350221302
  0
ARC
  5
17ED7
  8
0
 10
64.7985094604215988
 20
30.0599868496453588
 30
0.0
 40
0.054501154505484
 50
42.9170344054374695
 51
58.2686154063005119
  0
ARC
  5
17ED8
  8
0
 10
64.0360457296083041
 20
29.3655770692693494
 30
0.0
 40
1.085786854067246
 50
38.5857306253542092
 51
42.3552153419364004
  0
ARC
  5
17ED9
  8
0
 10
84.7083210905698962
 20
44.3731661694388393
 30
0.0
 40
24.4608501098763895
 50
215.8630935698674023
 51
216.0007812070481066
  0
ARC
  5
17EDA
  8
0
 10
64.7365630679500015
 20
29.83886633605076
 30
0.0
 40
0.2404450444124877
 50
34.5104534761347708
 51
40.5459241060035396
  0
ARC
  5
17EDB
  8
0
 10
64.8611035863902003
 20
29.9244941221684613
 30
0.0
 40
0.0893078269947693
 50
29.2424842872007105
 51
34.5104534761356732
  0
ARC
  5
17EDC
  8
0
 10
64.9273345924307108
 20
29.9606449949770806
 30
0.0
 40
0.0138810289700204
 50
0.7404932504879401
 51
32.5897805027986323
  0
ARC
  5
17EDD
  8
0
 10
64.9389578335032525
 20
29.961426491384799
 30
0.0
 40
0.0023355727417965
 50
297.6865988006882162
 51
345.06064881722682
  0
ARC
  5
17EDE
  8
0
 10
64.2182839054936352
 20
29.3398259558921701
 30
0.0
 40
0.9511869390023449
 50
40.6416192947276187
 51
41.7821762182766321
  0
LINE
  5
17EDF
  8
0
 10
64.5317466403485724
 20
30.4869743693684789
 30
0.0
 11
64.4911474460835592
 21
30.4610691618964786
 31
0.0
  0
ARC
  5
17EE0
  8
0
 10
64.4994889860621896
 20
30.4499153320364009
 30
0.0
 40
0.0139280009248567
 50
126.7914658702546973
 51
222.9871227990450109
  0
ARC
  5
17EE1
  8
0
 10
64.958234535121008
 20
30.7301345627280789
 30
0.0
 40
0.5512116923382888
 50
211.7085153776276059
 51
220.4520650569205031
  0
ARC
  5
17EE2
  8
0
 10
64.5483132032365745
 20
30.38062737682543
 30
0.0
 40
0.0125181148666368
 50
220.473012389755894
 51
301.9304378822981789
  0
LINE
  5
17EE3
  8
0
 10
64.5549338998567208
 20
30.3700033674091117
 30
0.0
 11
64.5999601538949406
 21
30.3976471661268484
 31
0.0
  0
ARC
  5
17EE4
  8
0
 10
64.4912020687367686
 20
30.4606614628746009
 30
0.0
 40
0.0004113418610899
 50
51.9147807876017282
 51
97.6309253980100209
  0
ARC
  5
17EE5
  8
0
 10
64.44691724361914
 20
30.4147064520989296
 30
0.0
 40
0.0642293381975556
 50
36.6387660340152621
 51
46.0977545114733118
  0
ARC
  5
17EE6
  8
0
 10
62.7940515934760697
 20
29.1854440838128113
 30
0.0
 40
2.124096039590456
 50
35.1811506197423469
 51
36.6387660340152621
  0
ARC
  5
17EE7
  8
0
 10
64.0673006716066169
 20
30.0829953303699504
 30
0.0
 40
0.5662894228512128
 50
31.8529024767091009
 51
35.1811506197423469
  0
ARC
  5
17EE8
  8
0
 10
64.4713978481183148
 20
30.3310675791453583
 30
0.0
 40
0.0921643507423565
 50
24.9900204113545499
 51
33.4348556556954577
  0
ARC
  5
17EE9
  8
0
 10
64.4904346570485671
 20
30.4172762955449194
 30
0.0
 40
0.01429149101441
 50
39.3882084884270611
 51
51.369921699724749
  0
ARC
  5
17EEA
  8
0
 10
64.4230035810197563
 20
30.3584320245838803
 30
0.0
 40
0.1037822866805579
 50
38.5168057149003715
 51
40.8727941866994087
  0
ARC
  5
17EEB
  8
0
 10
64.2416374576011009
 20
30.215497193212471
 30
0.0
 40
0.3347014402872952
 50
35.5219968095452927
 51
38.3269900667230985
  0
ARC
  5
17EEC
  8
0
 10
64.2696255922473938
 20
30.2328709150294017
 30
0.0
 40
0.3018351594959304
 50
32.5402275256642284
 51
35.9246557667474278
  0
ARC
  5
17EED
  8
0
 10
64.4897978643122229
 20
30.372898233338411
 30
0.0
 40
0.0409091312180818
 50
25.8256953033966496
 51
33.0778150470353012
  0
ARC
  5
17EEE
  8
0
 10
64.5254335424354366
 20
30.3900993574916392
 30
0.0
 40
0.001339839159112
 50
1.8785125140955199
 51
27.57952604506659
  0
ARC
  5
17EEF
  8
0
 10
64.5266523159189092
 20
30.3901706015026782
 30
0.0
 40
0.0001234084582329
 50
235.9846812263205891
 51
347.2082606337472157
  0
ARC
  5
17EF0
  8
0
 10
64.5290660433766163
 20
30.393865512543659
 30
0.0
 40
0.0045368343791229
 50
224.0224265455624959
 51
236.8217263518926927
  0
ARC
  5
17EF1
  8
0
 10
64.5488166798909475
 20
30.4135148595535512
 30
0.0
 40
0.0323965123349564
 50
220.2582305863371914
 51
224.7364355023460121
  0
ARC
  5
17EF2
  8
0
 10
64.6335382855309604
 20
30.4852578878899614
 30
0.0
 40
0.1434136847773357
 50
218.3518035105323918
 51
220.2582305863354861
  0
ARC
  5
17EF3
  8
0
 10
64.7580201022821456
 20
30.5837505807599292
 30
0.0
 40
0.3021478438309355
 50
214.7339598209140945
 51
218.3518035105336139
  0
ARC
  5
17EF4
  8
0
 10
64.883158800748248
 20
30.6705105020418216
 30
0.0
 40
0.4544205524645891
 50
212.8330661261985028
 51
214.7339598209129861
  0
ARC
  5
17EF5
  8
0
 10
64.5261203706646
 20
30.4401231973695587
 30
0.0
 40
0.0295032067245702
 50
204.2292835336172914
 51
212.833066126186111
  0
ARC
  5
17EF6
  8
0
 10
64.4997105082965305
 20
30.4282731465633702
 30
0.0
 40
0.0005575711399561
 50
161.8770385184168106
 51
207.5341452303200072
  0
ARC
  5
17EF7
  8
0
 10
64.4992643902136962
 20
30.4283162125876601
 30
0.0
 40
0.0001549763946241
 50
53.4470214131563921
 51
122.7299226720236049
  0
LINE
  5
17EF8
  8
0
 10
64.4987077040192531
 20
30.4663421159518499
 30
0.0
 11
64.4644163546843032
 21
30.4444609102484414
 31
0.0
  0
ARC
  5
17EF9
  8
0
 10
64.4707697267863438
 20
30.4345041599139705
 30
0.0
 40
0.011811105549018
 50
122.5418235979179968
 51
214.5368867515036868
  0
ARC
  5
17EFA
  8
0
 10
592.0269370283672288
 20
393.5141019559442839
 30
0.0
 40
640.4353459585871633
 50
214.5368867515036868
 51
214.5447247452337933
  0
ARC
  5
17EFB
  8
0
 10
64.5204441489746614
 20
30.3623389445013991
 30
0.0
 40
0.0118118749030965
 50
214.5447247452206057
 51
301.537858819732719
  0
LINE
  5
17EFC
  8
0
 10
64.526622490019264
 20
30.3522717457518496
 30
0.0
 11
64.5665220109887912
 21
30.376758482747789
 31
0.0
  0
LINE
  5
17EFD
  8
0
 10
64.6597415255923238
 20
30.26425871438434
 30
0.0
 11
64.5663218263295846
 21
30.3770006045882113
 31
0.0
  0
LINE
  5
17EFE
  8
0
 10
64.4987077040192531
 20
30.4663421159518499
 30
0.0
 11
64.4125593347883836
 21
30.5835778768028206
 31
0.0
  0
LINE
  5
17EFF
  8
0
 10
64.4212338579192618
 20
30.5889012304518495
 30
0.0
 11
64.4211583237359804
 21
30.5888548768755015
 31
0.0
  0
LINE
  5
17F00
  8
0
 10
64.4211601993156364
 20
30.5888560278752415
 30
0.0
 11
64.3811010376192598
 21
30.5642684735518486
 31
0.0
  0
ARC
  5
17F01
  8
0
 10
64.3748217258343232
 20
30.5750183704938401
 30
0.0
 40
0.0124494996186856
 50
209.1804075961298111
 51
300.290380805213772
  0
ARC
  5
17F02
  8
0
 10
65.4246701801351946
 20
31.3402263946349393
 30
0.0
 40
1.311484747794593
 50
212.3241284467206924
 51
216.0219556982816869
  0
ARC
  5
17F03
  8
0
 10
64.3262154160811122
 20
30.6462811296349003
 30
0.0
 40
0.012228320266077
 50
123.3558056757636052
 51
216.7497476378538863
  0
LINE
  5
17F04
  8
0
 10
64.3194918377024862
 20
30.6564951058594595
 30
0.0
 11
64.355553177918722
 21
30.6795048359225611
 31
0.0
  0
ARC
  5
17F05
  8
0
 10
64.3204755156594246
 20
30.6173077302904595
 30
0.0
 40
0.0092434604434983
 50
34.7732998990779194
 51
44.8409793387747371
  0
ARC
  5
17F06
  8
0
 10
64.3810724338642757
 20
30.6593818201047199
 30
0.0
 40
0.0645279129314286
 50
214.7732998990776139
 51
217.9712494919031087
  0
ARC
  5
17F07
  8
0
 10
63.7310376309946633
 20
30.1922468628166598
 30
0.0
 40
0.7360021712048562
 50
34.0225937531822709
 51
35.5032982020577492
  0
ARC
  5
17F08
  8
0
 10
51.2777311325524892
 20
21.9518068902160088
 30
0.0
 40
15.6688116328628997
 50
33.4452262142028829
 51
33.5177662716949527
  0
ARC
  5
17F09
  8
0
 10
64.184233791235485
 20
30.4906397945348999
 30
0.0
 40
0.1937179509608504
 50
29.0657921684358698
 51
30.0081949018928285
  0
ARC
  5
17F0A
  8
0
 10
64.3535351680832974
 20
30.5847874029480096
 30
0.0
 40
0.0000419734709828
 50
228.4404695915478101
 51
298.776577681906474
  0
ARC
  5
17F0B
  8
0
 10
64.3704535898414747
 20
30.5998773405818589
 30
0.0
 40
0.0227119139467408
 50
215.9662159754994946
 51
221.7428923301409895
  0
ARC
  5
17F0C
  8
0
 10
64.6463538845801224
 20
30.8027845140471506
 30
0.0
 40
0.3651911048058626
 50
214.7032438996870098
 51
216.3093678658727868
  0
ARC
  5
17F0D
  8
0
 10
65.0740293499920028
 20
31.0991496246614716
 30
0.0
 40
0.8855165531059482
 50
212.5705074235422956
 51
214.7134971229083931
  0
ARC
  5
17F0E
  8
0
 10
64.341647216946555
 20
30.6312195051924085
 30
0.0
 40
0.0164124625415582
 50
206.7903098550497987
 51
212.3257219075312037
  0
ARC
  5
17F0F
  8
0
 10
64.3270161307673902
 20
30.6237964891452101
 30
0.0
 40
0.0000322076651897
 50
64.9955616614734879
 51
127.7013264397121048
  0
ARC
  5
17F10
  8
0
 10
64.3189343786699226
 20
30.6554422330849796
 30
0.0
 40
0.0011872344562687
 50
31.6758665213502688
 51
62.0116450771481027
  0
ARC
  5
17F11
  8
0
 10
64.2707658738867309
 20
30.6163591257133589
 30
0.0
 40
0.0632073692101488
 50
35.7172219958482131
 51
38.9170624876563309
  0
ARC
  5
17F12
  8
0
 10
63.9423721718438216
 20
30.3781892423102384
 30
0.0
 40
0.4688758855382301
 50
34.7674838410320675
 51
35.9201502306874687
  0
ARC
  5
17F13
  8
0
 10
62.394218602728003
 20
29.3066087676943994
 30
0.0
 40
2.3517096233733121
 50
33.6835712971110297
 51
34.705204636295548
  0
ARC
  5
17F14
  8
0
 10
61.5608895412788186
 20
28.7579011634261015
 30
0.0
 40
3.3494548212254451
 50
32.7668682304069705
 51
33.5880796350217494
  0
ARC
  5
17F15
  8
0
 10
64.2667504757979628
 20
30.50035413043787
 30
0.0
 40
0.1310992736270797
 50
29.4925385953323094
 51
32.4514406409680518
  0
ARC
  5
17F16
  8
0
 10
64.372689243325425
 20
30.5608546296099313
 30
0.0
 40
0.0091171152452685
 50
22.8896345978358688
 51
26.310382583427451
  0
ARC
  5
17F17
  8
0
 10
64.3807965985905923
 20
30.5642461174092013
 30
0.0
 40
0.0003302978073695
 50
12.3149770781216894
 51
27.9244326740712587
  0
ARC
  5
17F18
  8
0
 10
64.3810696503966682
 20
30.5643057271038003
 30
0.0
 40
0.0000508150628329
 50
342.7533472716457936
 51
12.3149770781821406
  0
ARC
  5
17F19
  8
0
 10
64.3810798495620844
 20
30.5643025608320507
 30
0.0
 40
0.00004013572521
 50
301.8643613027729771
 51
342.7533472665351724
  0
ARC
  5
17F1A
  8
0
 10
64.3430569053594894
 20
30.689435444988721
 30
0.0
 40
0.0031523367207587
 50
38.1387750783060611
 51
94.4642017893223453
  0
ARC
  5
17F1B
  8
0
 10
64.3173165325359122
 20
30.6605431097717407
 30
0.0
 40
0.0418019730982252
 50
39.1049911938358719
 51
47.539517997237617
  0
ARC
  5
17F1C
  8
0
 10
64.2276399146698935
 20
30.5853064562167809
 30
0.0
 40
0.1588557133192165
 50
36.3688176754604626
 51
39.7614632928431107
  0
ARC
  5
17F1D
  8
0
 10
64.3578026401295205
 20
30.5416528955515183
 30
0.0
 40
0.0790083285214218
 50
33.1936649594952726
 51
36.6871240714041775
  0
ARC
  5
17F1E
  8
0
 10
64.3182445829037164
 20
30.5136289946244901
 30
0.0
 40
0.1274663869176004
 50
31.5717629830422517
 51
34.0001881193931368
  0
ARC
  5
17F1F
  8
0
 10
64.400766674379696
 20
30.5629666790258412
 30
0.0
 40
0.031349129578899
 50
19.2478674311540914
 51
33.71209032773708
  0
ARC
  5
17F20
  8
0
 10
64.4289223036017091
 20
30.5727312859157117
 30
0.0
 40
0.0015496835055591
 50
320.9849060375059935
 51
21.5733490758971413
  0
ARC
  5
17F21
  8
0
 10
64.243523795907663
 20
30.4361483669532902
 30
0.0
 40
0.2306726637034564
 50
36.0065596244544324
 51
40.8276234653933301
  0
ARC
  5
17F22
  8
0
 10
64.1075943156366606
 20
30.5321919085586195
 30
0.0
 40
0.2846944162203507
 50
30.6907534323704283
 51
34.288694367244581
  0
ARC
  5
17F23
  8
0
 10
64.7590952479644812
 20
30.961265358639789
 30
0.0
 40
0.4921739473587708
 50
214.9234563225163868
 51
217.9530377891364878
  0
ARC
  5
17F24
  8
0
 10
63.0159637626170195
 20
29.6043851619798914
 30
0.0
 40
1.716815085328492
 50
36.6855001660209226
 51
37.8818815510319808
  0
ARC
  5
17F25
  8
0
 10
65.1880556611702531
 20
31.14867483470303
 30
0.0
 40
0.9494870963568121
 50
213.1078825168038122
 51
216.1287192857465129
  0
ARC
  5
17F26
  8
0
 10
64.5115633871977963
 20
30.7690611115432908
 30
0.0
 40
0.1194368367502304
 50
198.43195693380531
 51
208.8516032462032967
  0
ARC
  5
17F27
  8
0
 10
64.3998340752703058
 20
30.7318315999780189
 30
0.0
 40
0.0016681124745528
 50
147.4909540561399126
 51
198.6636397446901015
  0
ARC
  5
17F28
  8
0
 10
64.4003522187000641
 20
30.7288264645744711
 30
0.0
 40
0.0043506188308344
 50
61.6944954113080186
 51
116.2594596535986966
  0
ARC
  5
17F29
  8
0
 10
64.3697909927618497
 20
30.6815752282444691
 30
0.0
 40
0.0606108280265716
 50
37.533965202722122
 51
57.4349713150339767
  0
LINE
  5
17F2A
  8
0
 10
64.4178449627542733
 20
30.7185134001343307
 30
0.0
 11
64.373962341019265
 21
30.6899687105518595
 31
0.0
  0
ARC
  5
17F2B
  8
0
 10
63.7159425266120323
 20
30.1393440635378305
 30
0.0
 40
0.9100022306427815
 50
38.2239054966491878
 51
39.5264913230819772
  0
ARC
  5
17F2C
  8
0
 10
64.0908129796503658
 20
30.4237002845635196
 30
0.0
 40
0.4396462184842169
 50
34.2801193548039294
 51
39.3390176339442519
  0
ARC
  5
17F2D
  8
0
 10
64.1032739088493599
 20
30.4306718819861715
 30
0.0
 40
0.4254250113156101
 50
29.6138460830459991
 51
34.4495129767380419
  0
ARC
  5
17F2E
  8
0
 10
64.3391088762148797
 20
30.5420933232660197
 30
0.0
 40
0.1665028538996742
 50
23.5857558346021996
 51
36.3988812321093675
  0
ARC
  5
17F2F
  8
0
 10
64.4878121320223272
 20
30.6069028416958098
 30
0.0
 40
0.0042915303894599
 50
326.2955029794292159
 51
24.9723833788499405
  0
ARC
  5
17F30
  8
0
 10
64.5319974703088235
 20
30.6707803285170613
 30
0.0
 40
0.0777163663675814
 50
219.9064117160505987
 51
238.4926683573615094
  0
ARC
  5
17F31
  8
0
 10
64.3813809589945265
 20
30.6792765483722683
 30
0.0
 40
0.0130137705810932
 50
124.7543450973346069
 51
208.9627806111697055
  0
ARC
  5
17F32
  8
0
 10
64.4831807315470087
 20
30.7252753229102495
 30
0.0
 40
0.1246852608218743
 50
204.8005508841459061
 51
211.938965250853613
  0
ARC
  5
17F33
  8
0
 10
64.8425159036280689
 20
30.9444926469658306
 30
0.0
 40
0.5456059513501005
 50
211.5122483599108136
 51
215.7830949966763967
  0
ARC
  5
17F34
  8
0
 10
64.5645232211355875
 20
30.7383977631893295
 30
0.0
 40
0.1996347442966815
 50
214.4500624139693912
 51
223.6251878407751121
  0
ARC
  5
17F35
  8
0
 10
64.4290162123968315
 20
30.6097654894182902
 30
0.0
 40
0.0128027974412253
 50
225.3195166164082082
 51
299.9308659538214101
  0
LINE
  5
17F36
  8
0
 10
64.4354042280399995
 20
30.5986702256330716
 30
0.0
 11
64.4823739963732976
 21
30.6269361526785993
 31
0.0
  0
ARC
  5
17F37
  8
0
 10
64.4558345048816506
 20
30.451926223298539
 30
0.0
 40
0.0761359353340825
 50
24.0151986927111487
 51
36.5657837396054433
  0
ARC
  5
17F38
  8
0
 10
64.518931831692413
 20
30.4942716029115104
 30
0.0
 40
0.0035866883883339
 50
54.4701386224895003
 51
122.8766407520470949
  0
ARC
  5
17F39
  8
0
 10
64.4968788176848591
 20
30.4610944957717109
 30
0.0
 40
0.0434227152946884
 50
36.5925265171347505
 51
56.2294180691585126
  0
ARC
  5
17F3A
  8
0
 10
64.2171505475725439
 20
30.2498078638038201
 30
0.0
 40
0.3939780259099297
 50
35.5044163458316717
 51
37.0127283235691635
  0
ARC
  5
17F3B
  8
0
 10
64.0740467338877124
 20
30.0583500178449015
 30
0.0
 40
0.6259091355016368
 50
36.8820989813967017
 51
42.1790856533490626
  0
ARC
  5
17F3C
  8
0
 10
64.7677169107001589
 20
30.5411925923827212
 30
0.0
 40
0.2207886293557319
 50
209.0445210397882931
 51
220.5528093402286913
  0
ARC
  5
17F3D
  8
0
 10
64.5605940920711561
 20
30.3656576493728814
 30
0.0
 40
0.0507249051814396
 50
21.1637799033608012
 51
39.0978840503130272
  0
ARC
  5
17F3E
  8
0
 10
64.6030383876149301
 20
30.3819082627875012
 30
0.0
 40
0.0052790575825506
 50
330.9962477700598811
 51
23.0019654468746815
  0
ARC
  5
17F3F
  8
0
 10
64.6069289257303154
 20
30.3797774893640486
 30
0.0
 40
0.0008436076701428
 50
260.974659758818575
 51
329.4445240061064055
  0
ARC
  5
17F40
  8
0
 10
64.4791930872768972
 20
30.2732895189384585
 30
0.0
 40
0.1656671111166865
 50
39.6245192279001728
 51
46.5169301511292872
  0
ARC
  5
17F41
  8
0
 10
64.3632285908591513
 20
30.6364656476538713
 30
0.0
 40
0.0281314710103897
 50
37.9144483638404282
 51
48.3390664777567878
  0
ARC
  5
17F42
  8
0
 10
64.225717690958291
 20
30.5255022459625494
 30
0.0
 40
0.2048257024584188
 50
35.3634618105906569
 51
38.7659739399719427
  0
ARC
  5
17F43
  8
0
 10
64.0556416299672549
 20
30.4047986427986103
 30
0.0
 40
0.4133807943142246
 50
34.2435790551598274
 51
35.3634618105909979
  0
ARC
  5
17F44
  8
0
 10
64.1904577624604258
 20
30.4965695693027214
 30
0.0
 40
0.2502940304986392
 50
32.00740787948979
 51
34.2435790551583565
  0
ARC
  5
17F45
  8
0
 10
64.3014292897585165
 20
30.5659322272106806
 30
0.0
 40
0.1194282283082793
 50
27.0841943546150716
 51
32.0074078794909127
  0
ARC
  5
17F46
  8
0
 10
64.4036326131747217
 20
30.6181967383314202
 30
0.0
 40
0.0046366848914953
 50
8.6760512271915022
 51
27.0841943545930306
  0
ARC
  5
17F47
  8
0
 10
64.4079792638351307
 20
30.61886001009049
 30
0.0
 40
0.0002397198711657
 50
310.2058677333652099
 51
8.6760512279904383
  0
ARC
  5
17F48
  8
0
 10
64.4080271018554811
 20
30.6189513184420186
 30
0.0
 40
0.0002944814846025
 50
233.8575399269828949
 51
291.2872623791507181
  0
ARC
  5
17F49
  8
0
 10
64.4158540369168833
 20
30.6293906936994809
 30
0.0
 40
0.0133421202611195
 50
219.4358297424880107
 51
233.1550774342591126
  0
ARC
  5
17F4A
  8
0
 10
64.5135849043763017
 20
30.7125961276769601
 30
0.0
 40
0.1416932717995055
 50
215.72084243104851
 51
220.3184376980725858
  0
ARC
  5
17F4B
  8
0
 10
64.6443135069389143
 20
30.8092360106010688
 30
0.0
 40
0.3042574489896897
 50
212.2034801453482089
 51
216.1228944331348032
  0
ARC
  5
17F4C
  8
0
 10
64.5060767753106887
 20
30.7222025529279712
 30
0.0
 40
0.1409044102069061
 50
209.2313381078056977
 51
212.2140035834401033
  0
ARC
  5
17F4D
  8
0
 10
64.4036292360021037
 20
30.6652100213372911
 30
0.0
 40
0.0236733046292711
 50
199.6340003781650125
 51
209.9431661932663076
  0
ARC
  5
17F4E
  8
0
 10
64.3816199106110503
 20
30.6573846669564887
 30
0.0
 40
0.0003152311075409
 50
119.6832795310384938
 51
204.181094284081496
  0
ARC
  5
17F4F
  8
0
 10
64.381417170120244
 20
30.6568352446967793
 30
0.0
 40
0.0008246073400332
 50
51.70627456382487
 51
86.757854956867746
  0
ARC
  5
17F50
  8
0
 10
64.3700785446629595
 20
30.6818592242257395
 30
0.0
 40
0.0089915317166085
 50
34.216189610772247
 51
64.4093007998903033
  0
ARC
  5
17F51
  8
0
 10
64.1983780809861315
 20
30.5354759992411893
 30
0.0
 40
0.2345708547349042
 50
35.9184565027525622
 51
40.2107955700814017
  0
ARC
  5
17F52
  8
0
 10
63.7111798206793765
 20
30.1781487356857987
 30
0.0
 40
0.8387573675953051
 50
33.4995818049370229
 51
36.1627177582325174
  0
ARC
  5
17F53
  8
0
 10
63.8268155932279413
 20
30.2515776237443994
 30
0.0
 40
0.7018069824837291
 50
31.0295637267248487
 51
33.7111411640538705
  0
ARC
  5
17F54
  8
0
 10
64.3422756277461474
 20
30.5594771046957305
 30
0.0
 40
0.1014096676755458
 50
23.3568365437667005
 51
32.0861506590319934
  0
ARC
  5
17F55
  8
0
 10
64.4327853773060468
 20
30.5988307021337995
 30
0.0
 40
0.0027259661814592
 50
1.112099114073823
 51
18.1889191799401502
  0
ARC
  5
17F56
  8
0
 10
64.435253947331816
 20
30.5988786225804397
 30
0.0
 40
0.0002569310781557
 50
305.7963988293931834
 51
1.11209911400256
  0
ARC
  5
17F57
  8
0
 10
3504.8281855279351475
 20
2186.8596116430699112
 30
0.0
 40
4060.1448927577248469
 50
212.0355843716330071
 51
212.0435908157195968
  0
ARC
  5
17F58
  8
0
 10
-13291.2107502397193457
 20
-8326.2228518414285645
 30
0.0
 40
15754.794592790909519
 50
32.0383796634332469
 51
32.0435170046695603
  0
ARC
  5
17F59
  8
0
 10
5035.9381076817153371
 20
3142.9278865460350971
 30
0.0
 40
5865.2378752759359486
 50
212.0383796634332043
 51
212.0435916479530931
  0
ARC
  5
17F5A
  8
0
 10
-6326.8658987793442066
 20
-3969.366382535593857
 30
0.0
 40
7539.9120552268514075
 50
32.0384153519450265
 51
32.0435916479530505
  0
ARC
  5
17F5B
  8
0
 10
16405.968229677520867
 20
10256.8869475770297868
 30
0.0
 40
19277.3963728103190078
 50
212.0384153519445078
 51
212.0403322137682949
  0
ARC
  5
17F5C
  8
0
 10
2245.385620046763961
 20
1394.5065653201409077
 30
0.0
 40
2572.191019867524119
 50
212.0403322137682949
 51
212.0457018735866086
  0
ARC
  5
17F5D
  8
0
 10
-484.7294832961326847
 20
-314.4881691263026937
 30
0.0
 40
648.7081527031830319
 50
32.0348967616457472
 51
32.0457018735866086
  0
ARC
  5
17F5E
  8
0
 10
65.207814193511382
 20
29.5921031190385193
 30
0.0
 40
0.022317625216346
 50
122.0296950611604956
 51
161.886986393894091
  0
ARC
  5
17F5F
  8
0
 10
63.0223386127043881
 20
33.1050549835566272
 30
0.0
 40
0.0178310131630723
 50
160.7162237932977007
 51
193.4556455436284921
  0
ARC
  5
17F60
  8
0
 10
63.3062586967596701
 20
33.2193782568244629
 30
0.0
 40
0.323719462859405
 50
201.4674435306563112
 51
205.2128224191280879
  0
ARC
  5
17F61
  8
0
 10
151.8009710378539978
 20
72.8247293659849362
 30
0.0
 40
97.276730627447904
 50
204.1143235315900029
 51
204.1469606161209924
  0
ARC
  5
17F62
  8
0
 10
710630.5549392077373341
 20
318462.6714496986824088
 30
0.0
 40
778655.0166145863477141
 50
204.1387853718954091
 51
204.1387933237882919
  0
LINE
  5
17F63
  8
0
 10
63.0888318209405625
 20
32.9378903527406806
 30
0.0
 11
63.0468214950192589
 21
32.9105651024518409
 31
0.0
  0
ARC
  5
17F64
  8
0
 10
63.0553357205472409
 20
32.8994017225890616
 30
0.0
 40
0.0140396968023485
 50
127.3324924417956936
 51
214.7904534110141981
  0
ARC
  5
17F65
  8
0
 10
64.3474562116375495
 20
33.4429075582596909
 30
0.0
 40
1.4155123359751931
 50
202.9310608556411921
 51
207.898037342202997
  0
ARC
  5
17F66
  8
0
 10
63.1092898124949784
 20
32.7880177776289869
 30
0.0
 40
0.0148314519302466
 50
210.0538350061765982
 51
237.1259229373733888
  0
ARC
  5
17F67
  8
0
 10
63.1073958611956627
 20
32.7858541804273784
 30
0.0
 40
0.0119935211399986
 50
239.1149662687475939
 51
301.4329977353852996
  0
LINE
  5
17F68
  8
0
 10
63.1136504959225775
 20
32.7756207013626408
 30
0.0
 11
63.1558858964389387
 21
32.8009535154384793
 31
0.0
  0
LINE
  5
17F69
  8
0
 10
63.6928301614382804
 20
31.7790419767902108
 30
0.0
 11
63.649749185619271
 21
31.7515482920518508
 31
0.0
  0
ARC
  5
17F6A
  8
0
 10
63.6563722422690788
 20
31.7413969967155403
 30
0.0
 40
0.0121207952045889
 50
123.1218212018666947
 51
193.6727005725169022
  0
LINE
  5
17F6B
  8
0
 10
63.6059477748012867
 20
32.0274348773945405
 30
0.0
 11
63.5599158431115825
 21
31.9974946205257993
 31
0.0
  0
ARC
  5
17F6C
  8
0
 10
63.5672800153251814
 20
31.9868417996402599
 30
0.0
 40
0.0129504295376939
 50
124.6556580973961985
 51
199.2675224413615069
  0
ARC
  5
17F6D
  8
0
 10
63.5485189341811818
 20
31.9836685150582412
 30
0.0
 40
0.0181294631827946
 50
35.7364812325831025
 51
49.3606784395840066
  0
ARC
  5
17F6E
  8
0
 10
63.5120089021639984
 20
31.9534644398132599
 30
0.0
 40
0.0122632912747322
 50
123.4251895940251984
 51
211.9606009549121097
  0
ARC
  5
17F6F
  8
0
 10
65.9439284992863435
 20
33.3039397308369018
 30
0.0
 40
2.7939765129294392
 50
209.0567564653808006
 51
210.8360610264738
  0
ARC
  5
17F70
  8
0
 10
63.5550711781078874
 20
31.8783506033850514
 30
0.0
 40
0.0120882997223523
 50
212.8477305866148868
 51
300.881882178084993
  0
LINE
  5
17F71
  8
0
 10
63.4499006321878696
 20
32.2331756214043281
 30
0.0
 11
63.4063210586192696
 21
32.2048305622518427
 31
0.0
  0
ARC
  5
17F72
  8
0
 10
63.4138636113851391
 20
32.1940174431030712
 30
0.0
 40
0.013183840409826
 50
124.8972068827779935
 51
208.1647684461464962
  0
LINE
  5
17F73
  8
0
 10
64.0314337178058111
 20
31.4089905481781386
 30
0.0
 11
63.9836652854192565
 21
31.3779203781518596
 31
0.0
  0
ARC
  5
17F74
  8
0
 10
63.991728507360861
 20
31.3659359719594697
 30
0.0
 40
0.0144444293713311
 50
123.9330394186096953
 51
204.2113582768731135
  0
ARC
  5
17F75
  8
0
 10
64.2828049337259557
 20
31.4786207349695815
 30
0.0
 40
0.3265520181345018
 50
201.2977508299456986
 51
214.893084481392691
  0
ARC
  5
17F76
  8
0
 10
64.2296037225777354
 20
31.4294824980156591
 30
0.0
 40
0.2549970078799475
 50
212.6746804244592965
 51
223.093611271564896
  0
ARC
  5
17F77
  8
0
 10
64.0570876157386522
 20
31.2668589210715595
 30
0.0
 40
0.0179381344090029
 50
220.2423425411907942
 51
278.4310404128037817
  0
ARC
  5
17F78
  8
0
 10
64.0536379743844293
 20
31.2691758683092509
 30
0.0
 40
0.0209622433627218
 50
286.859844600985582
 51
297.6101877863819141
  0
ARC
  5
17F79
  8
0
 10
63.9842756263726997
 20
31.3767966227533215
 30
0.0
 40
0.0012788050184332
 50
60.2170439653328202
 51
118.5075424052458999
  0
ARC
  5
17F7A
  8
0
 10
63.9699811342197577
 20
31.3534447945716295
 30
0.0
 40
0.0286578354509004
 50
39.9387067199010701
 51
58.6030765761855008
  0
ARC
  5
17F7B
  8
0
 10
63.6492109808551376
 20
31.0868621841283392
 30
0.0
 40
0.4457425146376285
 50
31.2933093913699985
 51
39.7424549317986404
  0
ARC
  5
17F7C
  8
0
 10
63.6313628746898132
 20
31.0617562346192209
 30
0.0
 40
0.474191111116045
 50
27.7054863918177112
 51
32.7655089659442922
  0
ARC
  5
17F7D
  8
0
 10
63.8223388663993205
 20
31.1620442006042708
 30
0.0
 40
0.258484121125349
 50
21.2162740080474812
 51
27.7054863918177112
  0
ARC
  5
17F7E
  8
0
 10
64.0549568032184737
 20
31.2523467723003705
 30
0.0
 40
0.0089532433067151
 50
356.5285486494378233
 51
21.2162740080754517
  0
ARC
  5
17F7F
  8
0
 10
64.062487794004511
 20
31.2517126358284791
 30
0.0
 40
0.0014088317208435
 50
307.888823958294779
 51
3.7444939115454332
  0
LINE
  5
17F80
  8
0
 10
64.0633530016192765
 20
31.2506007803518813
 30
0.0
 11
64.1120629292945239
 21
31.2799148156578291
 31
0.0
  0
ARC
  5
17F81
  8
0
 10
63.9738798975336636
 20
31.294846074073579
 30
0.0
 40
0.0433058046568383
 50
31.8575528580943015
 51
50.0696256634083809
  0
ARC
  5
17F82
  8
0
 10
65.2516353437749359
 20
32.0888660274589199
 30
0.0
 40
1.461063387653778
 50
211.8575528580936975
 51
212.5779105579111956
  0
ARC
  5
17F83
  8
0
 10
63.9775979137706372
 20
31.2747770039865216
 30
0.0
 40
0.050859993735037
 50
16.6664005663114807
 51
32.5779105579087869
  0
ARC
  5
17F84
  8
0
 10
64.0013519378175175
 20
31.3274250611654317
 30
0.0
 40
0.0007075584268763
 50
62.7419722009682204
 51
116.5258970691460974
  0
ARC
  5
17F85
  8
0
 10
64.0017319977904293
 20
31.3274710554813716
 30
0.0
 40
0.000910582233366
 50
139.8544345364242076
 51
192.153346673418099
  0
ARC
  5
17F86
  8
0
 10
64.0678223813929861
 20
31.3486306706562701
 30
0.0
 40
0.0703013080408291
 50
197.6806642714861937
 51
212.6008393202099001
  0
ARC
  5
17F87
  8
0
 10
64.1367946938750464
 20
31.3848535671275783
 30
0.0
 40
0.1480721324697568
 50
210.0285946527637009
 51
219.3157123047157882
  0
ARC
  5
17F88
  8
0
 10
64.0322813882765729
 20
31.2990472704249711
 30
0.0
 40
0.012848495825916
 50
218.572984060309409
 51
239.1702278144047966
  0
ARC
  5
17F89
  8
0
 10
64.0246861492333892
 20
31.2888899589495999
 30
0.0
 40
0.0017023851259903
 50
331.1999867679114118
 51
16.1537093680702313
  0
ARC
  5
17F8A
  8
0
 10
64.0259176208496825
 20
31.2882129513291396
 30
0.0
 40
0.000297087413799
 50
221.9515397202395093
 51
331.1999867673184781
  0
LINE
  5
17F8B
  8
0
 10
63.2185624456539301
 20
32.7170890518970126
 30
0.0
 11
63.1723223371192617
 21
32.6870124159518411
 31
0.0
  0
ARC
  5
17F8C
  8
0
 10
63.179859069198308
 20
32.6761864274510572
 30
0.0
 40
0.0131910711259712
 50
124.8444910391884974
 51
198.0634153715976993
  0
ARC
  5
17F8D
  8
0
 10
63.4237732752420769
 20
32.754103234040663
 30
0.0
 40
0.2692478038707425
 50
197.7327765213503028
 51
205.0717627272387062
  0
ARC
  5
17F8E
  8
0
 10
64.0937513744482175
 20
33.0516265356390591
 30
0.0
 40
1.0022791421255739
 50
204.2476769187520063
 51
207.7187538856553033
  0
ARC
  5
17F8F
  8
0
 10
63.3853605021458435
 20
32.6733671514268167
 30
0.0
 40
0.1993136869710722
 50
206.1789794723887042
 51
216.4672312454790131
  0
ARC
  5
17F90
  8
0
 10
63.2343039337848012
 20
32.5634134483154511
 30
0.0
 40
0.0125557078492077
 50
222.6763610794617989
 51
300.0208395853284173
  0
LINE
  5
17F91
  8
0
 10
63.2405857422192597
 20
32.5525421704518578
 30
0.0
 11
63.2849669450643333
 21
32.5792515891632632
 31
0.0
  0
ARC
  5
17F92
  8
0
 10
63.1724718613733103
 20
32.68673608076341
 30
0.0
 40
0.0003141952242021
 50
57.5077661603608803
 51
118.4177052926891065
  0
ARC
  5
17F93
  8
0
 10
63.1613239701156601
 20
32.6743800019489825
 30
0.0
 40
0.016951667077631
 50
31.9096876338143289
 51
48.1190823967187171
  0
ARC
  5
17F94
  8
0
 10
62.5788117848859002
 20
32.3145612097416404
 30
0.0
 40
0.7016339749924019
 50
26.9247118518393584
 51
31.7086743534076483
  0
ARC
  5
17F95
  8
0
 10
61.8812096516337675
 20
31.9510157676848401
 30
0.0
 40
1.4882609099786219
 50
24.8215532245875288
 51
27.24233534041986
  0
ARC
  5
17F96
  8
0
 10
63.0567289761218888
 20
32.493219546201658
 30
0.0
 40
0.1937276359981784
 50
18.4456230288628902
 51
25.2239664130869414
  0
ARC
  5
17F97
  8
0
 10
63.2374085478524393
 20
32.5533786162730792
 30
0.0
 40
0.0032974914985885
 50
2.6801113293616221
 51
20.1742284881790397
  0
ARC
  5
17F98
  8
0
 10
63.2398565185306367
 20
32.5531302585926596
 30
0.0
 40
0.0009368109998334
 50
321.1152883324123763
 51
25.4485131953746198
  0
ARC
  5
17F99
  8
0
 10
63.0408684287937007
 20
32.5419512325518525
 30
0.0
 40
0.172784496555342
 50
24.8818246469061393
 51
32.0565353108254527
  0
ARC
  5
17F9A
  8
0
 10
63.184881963207431
 20
32.6323697548999476
 30
0.0
 40
0.0027462973894696
 50
27.9655674927127613
 51
61.4775741148852077
  0
ARC
  5
17F9B
  8
0
 10
63.1876275760670723
 20
32.6342828369440099
 30
0.0
 40
0.0015188701815075
 50
160.7843304525127905
 51
211.0693429174745006
  0
ARC
  5
17F9C
  8
0
 10
63.3353659220844207
 20
32.6867970571742816
 30
0.0
 40
0.1582826729313056
 50
199.6775985295946896
 51
206.025464535684506
  0
ARC
  5
17F9D
  8
0
 10
63.4422168291266431
 20
32.7328625933998865
 30
0.0
 40
0.2745658700604541
 50
204.8800434653784066
 51
210.1848834141669045
  0
ARC
  5
17F9E
  8
0
 10
62.9670092119234823
 20
32.5004132384858124
 30
0.0
 40
0.2573497541471214
 50
21.6988222291202995
 51
26.3527787817443517
  0
ARC
  5
17F9F
  8
0
 10
63.1954826329425785
 20
32.5909872102627389
 30
0.0
 40
0.0115825575232798
 50
7.188971486647949
 51
23.2672657263919014
  0
ARC
  5
17FA0
  8
0
 10
63.2068247638795881
 20
32.5924496576050728
 30
0.0
 40
0.0001499367550984
 50
218.5184752806719075
 51
355.0337521294400744
  0
ARC
  5
17FA1
  8
0
 10
63.2161777637193865
 20
32.6013084822417198
 30
0.0
 40
0.0130318336901422
 50
209.8958213926827909
 51
223.3890491746062992
  0
LINE
  5
17FA2
  8
0
 10
63.1705088116266396
 20
32.6627167396401887
 30
0.0
 11
63.1528885414192729
 21
32.651256143951862
 31
0.0
  0
ARC
  5
17FA3
  8
0
 10
63.1593299601484972
 20
32.6413547389042265
 30
0.0
 40
0.0118122689252372
 50
123.0462576472154979
 51
207.2353478042358859
  0
ARC
  5
17FA4
  8
0
 10
453.7453465570325193
 20
233.6800091749784087
 30
0.0
 40
439.2998464088145738
 50
207.2353478042363122
 51
207.2466525874484091
  0
ARC
  5
17FA5
  8
0
 10
63.1990035177421916
 20
32.5642937505720411
 30
0.0
 40
0.011812139687434
 50
207.2466525874405932
 51
301.0335911691839783
  0
LINE
  5
17FA6
  8
0
 10
63.2050931544192807
 20
32.5541723391518474
 30
0.0
 11
63.219499860682113
 21
32.5628402613627088
 31
0.0
  0
LINE
  5
17FA7
  8
0
 10
63.3143231362141421
 20
32.4505159146485767
 30
0.0
 11
63.2707684560192689
 21
32.4227251082518535
 31
0.0
  0
ARC
  5
17FA8
  8
0
 10
63.2777471377364122
 20
32.4124346971962609
 30
0.0
 40
0.0124336060015631
 50
124.1440713665342059
 51
204.3542385189738866
  0
ARC
  5
17FA9
  8
0
 10
64.1827894405380874
 20
32.8339723647898225
 30
0.0
 40
1.010829388352235
 50
204.9668599801979099
 51
209.8834018925323903
  0
ARC
  5
17FAA
  8
0
 10
63.3175131281371932
 20
32.3354974582132968
 30
0.0
 40
0.0122888831246683
 50
204.8137623511414915
 51
300.7187963706332994
  0
LINE
  5
17FAB
  8
0
 10
63.3237905965192596
 20
32.3249328929518711
 30
0.0
 11
63.366138928338799
 21
32.3509247818802805
 31
0.0
  0
LINE
  5
17FAC
  8
0
 10
63.4176499366192701
 20
32.212426381351861
 30
0.0
 11
63.3781857525192578
 21
32.1872453920518495
 31
0.0
  0
ARC
  5
17FAD
  8
0
 10
63.3846271712484821
 20
32.1773439870042424
 30
0.0
 40
0.0118122689252372
 50
123.0462576472154979
 51
207.2353478042358859
  0
ARC
  5
17FAE
  8
0
 10
78.3665550171111107
 20
40.5924979253834408
 30
0.0
 40
17.1953133293259697
 50
209.3209220871713114
 51
209.6144457738056133
  0
ARC
  5
17FAF
  8
0
 10
63.4277349191393469
 20
32.1010672071155909
 30
0.0
 40
0.0118113218374951
 50
209.5423755903808001
 51
301.5381315777054283
  0
LINE
  5
17FB0
  8
0
 10
63.3634080624178893
 20
32.5044404697412119
 30
0.0
 11
63.3172454068192678
 21
32.4744142126518511
 31
0.0
  0
ARC
  5
17FB1
  8
0
 10
63.3255673728106387
 20
32.4629997844303375
 30
0.0
 40
0.014126014639155
 50
126.0948277522993948
 51
194.3828704493467114
  0
ARC
  5
17FB2
  8
0
 10
63.3810798398223625
 20
32.3544373804137209
 30
0.0
 40
0.0143991297811616
 50
210.4297162397843977
 51
297.2124877584092815
  0
LINE
  5
17FB3
  8
0
 10
63.3876644433192666
 20
32.3416319934518413
 30
0.0
 11
63.4324081175354308
 21
32.3685611630558583
 31
0.0
  0
ARC
  5
17FB4
  8
0
 10
63.1865535691148423
 20
32.3297938274065828
 30
0.0
 40
0.172784496555342
 50
24.8818246469061393
 51
32.0565353108254527
  0
ARC
  5
17FB5
  8
0
 10
63.3305671035285584
 20
32.4202123497546779
 30
0.0
 40
0.0027462973894696
 50
27.9655674927127613
 51
61.4775741148852077
  0
ARC
  5
17FB6
  8
0
 10
63.3333127163882068
 20
32.4221254317987473
 30
0.0
 40
0.0015188701815075
 50
160.7843304525127905
 51
211.0693429174745006
  0
ARC
  5
17FB7
  8
0
 10
63.4810510624055624
 20
32.4746396520289977
 30
0.0
 40
0.1582826729313056
 50
199.6775985295946896
 51
206.0254645356841081
  0
ARC
  5
17FB8
  8
0
 10
63.5879019694477705
 20
32.5207051882546097
 30
0.0
 40
0.2745658700604541
 50
204.8800434653784066
 51
210.1848834141669045
  0
ARC
  5
17FB9
  8
0
 10
63.1126943522446169
 20
32.2882558333405427
 30
0.0
 40
0.2573497541471214
 50
21.6988222291202995
 51
26.3527787817443517
  0
ARC
  5
17FBA
  8
0
 10
63.3411677732637202
 20
32.3788298051174621
 30
0.0
 40
0.0115825575232798
 50
7.188971486647949
 51
23.2672657263919014
  0
ARC
  5
17FBB
  8
0
 10
63.3525099042007298
 20
32.3802922524598102
 30
0.0
 40
0.0001499367550984
 50
218.5184752806719075
 51
355.0337521294400744
  0
ARC
  5
17FBC
  8
0
 10
63.361862904040521
 20
32.389151077096443
 30
0.0
 40
0.0130318336901422
 50
209.8958213926827909
 51
223.3890491746062992
  0
LINE
  5
17FBD
  8
0
 10
63.77037633762383
 20
31.8508250236957515
 30
0.0
 11
63.7230010169192624
 21
31.8200099949518496
 31
0.0
  0
ARC
  5
17FBE
  8
0
 10
63.7305377489983087
 20
31.8091840064510691
 30
0.0
 40
0.0131910711259712
 50
124.8444910391884974
 51
198.0634153715976993
  0
ARC
  5
17FBF
  8
0
 10
63.9744519550420776
 20
31.8871008130406608
 30
0.0
 40
0.2692478038707425
 50
197.7327765213503028
 51
205.0717627272387062
  0
ARC
  5
17FC0
  8
0
 10
64.0839581597515888
 20
31.9371923923643806
 30
0.0
 40
0.3896639142351251
 50
204.9200546223547974
 51
213.8716850011525992
  0
ARC
  5
17FC1
  8
0
 10
63.8554908098574998
 20
31.77579924094535
 30
0.0
 40
0.1102222249164134
 50
210.4023885711881121
 51
230.723114813755501
  0
LINE
  5
17FC2
  8
0
 10
63.7990666862881213
 20
31.6907602258162413
 30
0.0
 11
63.8461188462020175
 21
31.7190755523162196
 31
0.0
  0
ARC
  5
17FC3
  8
0
 10
63.5550281286219771
 20
31.6623527471376818
 30
0.0
 40
0.2318433832231467
 50
29.6569115169738104
 51
42.248215554720737
  0
ARC
  5
17FC4
  8
0
 10
63.2085650166015185
 20
31.4318880965901215
 30
0.0
 40
0.6475989205192811
 50
25.7339608127809605
 51
32.2096071746370569
  0
LINE
  5
17FC5
  8
0
 10
63.8570527362525908
 20
31.5788392187381284
 30
0.0
 11
63.8131735259192681
 21
31.5508383290518601
 31
0.0
  0
ARC
  5
17FC6
  8
0
 10
63.8207102579983072
 20
31.5400123405510691
 30
0.0
 40
0.0131910711259712
 50
124.8444910391884974
 51
198.0634153715976993
  0
ARC
  5
17FC7
  8
0
 10
63.9185041924754529
 20
31.5739982376329387
 30
0.0
 40
0.1167200436841649
 50
199.0393138588381134
 51
209.5900809057629886
  0
ARC
  5
17FC8
  8
0
 10
64.2594847973216332
 20
31.755393112375689
 30
0.0
 40
0.5029137988867169
 50
208.3782751490601015
 51
211.8386792101644005
  0
ARC
  5
17FC9
  8
0
 10
64.1578032488248198
 20
31.6899211262407512
 30
0.0
 40
0.381998322367038
 50
211.5415708452744923
 51
214.3758211470345998
  0
ARC
  5
17FCA
  8
0
 10
64.0376282899893283
 20
31.6077100833607005
 30
0.0
 40
0.2363938021674987
 50
214.3758211470345998
 51
217.4449765556400109
  0
ARC
  5
17FCB
  8
0
 10
63.8743253149547385
 20
31.4808768197008817
 30
0.0
 40
0.0296604156448955
 50
214.7209745750936918
 51
238.7560075904810901
  0
ARC
  5
17FCC
  8
0
 10
63.8644831185496926
 20
31.4668362606408891
 30
0.0
 40
0.0126021821145233
 50
243.9102177566155092
 51
300.6070766346483083
  0
LINE
  5
17FCD
  8
0
 10
63.8708994908732208
 20
31.4559898252700698
 30
0.0
 11
63.9144062322664226
 21
31.4826934004857506
 31
0.0
  0
ARC
  5
17FCE
  8
0
 10
63.8133336529470725
 20
31.5505256708451611
 30
0.0
 40
0.000351277410685
 50
71.3195061787895526
 51
117.1191286514925025
  0
ARC
  5
17FCF
  8
0
 10
63.8113124271715222
 20
31.5465085688885303
 30
0.0
 40
0.0048450216084792
 50
41.8509879079535025
 51
63.8707384011288113
  0
ARC
  5
17FD0
  8
0
 10
63.557743672870032
 20
31.3446981526975286
 30
0.0
 40
0.3289118606201038
 50
31.0308621463122911
 51
38.5647006623174917
  0
ARC
  5
17FD1
  8
0
 10
63.2290383009634667
 20
31.1301293420173408
 30
0.0
 40
0.7213303195282686
 50
28.3243023708969694
 51
32.1758757552736725
  0
ARC
  5
17FD2
  8
0
 10
63.8096115135801867
 20
31.4398508774078813
 30
0.0
 40
0.0633772971873248
 50
14.7527714042923499
 51
30.873837517671479
  0
ARC
  5
17FD3
  8
0
 10
63.8471736445672278
 20
31.5245957323405399
 30
0.0
 40
0.0284809832862853
 50
195.8920989545497093
 51
205.8322694807430082
  0
ARC
  5
17FD4
  8
0
 10
63.8203789512570481
 20
31.5170218364397314
 30
0.0
 40
0.0006386505299972
 50
145.1107906500060096
 51
200.6240441780473986
  0
ARC
  5
17FD5
  8
0
 10
63.8199981154045304
 20
31.5170347891530582
 30
0.0
 40
0.0003802711399716
 50
48.332508548552191
 51
112.0928702991322012
  0
ARC
  5
17FD6
  8
0
 10
63.7992990900428509
 20
31.4949131770093089
 30
0.0
 40
0.0306756221121235
 50
32.8330896891098689
 51
46.9205018029609917
  0
ARC
  5
17FD7
  8
0
 10
63.6468796254146767
 20
31.3866364034715595
 30
0.0
 40
0.2176134368624847
 50
31.2727548747225015
 51
35.0292412034751024
  0
ARC
  5
17FD8
  8
0
 10
63.6293144182022132
 20
31.374255145719129
 30
0.0
 40
0.2390582724527531
 50
27.5802352501233692
 51
31.6236404299502816
  0
ARC
  5
17FD9
  8
0
 10
63.8049059670712566
 20
31.46482948403008
 30
0.0
 40
0.04149774444414
 50
18.0389637885621497
 51
28.9823491927842412
  0
ARC
  5
17FDA
  8
0
 10
64.0224352275470778
 20
31.6132047033987398
 30
0.0
 40
0.2248650957492603
 50
206.6951688564680865
 51
214.0387165251771933
  0
ARC
  5
17FDB
  8
0
 10
63.8800074137740097
 20
31.5127686478847409
 30
0.0
 40
0.0507426022145241
 50
210.0802845862154129
 51
224.8847585484583078
  0
ARC
  5
17FDC
  8
0
 10
63.8439589145340776
 20
31.4774277560368212
 30
0.0
 40
0.0004770579013534
 50
281.6049133922676901
 51
31.8967168570837387
  0
LINE
  5
17FDD
  8
0
 10
64.310286518896902
 20
30.97791143591121
 30
0.0
 11
64.2638619757192657
 21
30.9477143783518613
 31
0.0
  0
ARC
  5
17FDE
  8
0
 10
64.2730020278245036
 20
30.9356021737469007
 30
0.0
 40
0.0151738608428736
 50
127.0387544177258974
 51
203.2100155647121085
  0
ARC
  5
17FDF
  8
0
 10
64.4399625980210544
 20
30.9995889129588384
 30
0.0
 40
0.1939651066215863
 50
201.1443263760141917
 51
212.6559641623935875
  0
ARC
  5
17FE0
  8
0
 10
64.7268203953068024
 20
31.1698243952861596
 30
0.0
 40
0.5274605437911996
 50
211.410913478163593
 51
217.0294855251325998
  0
ARC
  5
17FE1
  8
0
 10
64.5095120153069956
 20
31.0050503172923584
 30
0.0
 40
0.2547473493475101
 50
216.8777510075674968
 51
223.2157205306106107
  0
ARC
  5
17FE2
  8
0
 10
64.3472644566117964
 20
30.8504738164097283
 30
0.0
 40
0.0306979885995821
 50
220.3143429266442013
 51
251.0054974449475935
  0
ARC
  5
17FE3
  8
0
 10
64.3402441515261359
 20
30.8348740193618092
 30
0.0
 40
0.0137515001178384
 50
257.5220713288608181
 51
299.6112296976779135
  0
LINE
  5
17FE4
  8
0
 10
64.3470389365192688
 20
30.8229184912518583
 30
0.0
 11
64.3941444667488412
 21
30.8512680292169001
 31
0.0
  0
ARC
  5
17FE5
  8
0
 10
64.2644336385363886
 20
30.9466935059251398
 30
0.0
 40
0.0011700337123774
 50
64.091361968396896
 51
119.2477264894965998
  0
ARC
  5
17FE6
  8
0
 10
64.2600206332452188
 20
30.9365513752102608
 30
0.0
 40
0.0122297354348219
 50
44.2453333112924767
 51
66.2563911319646905
  0
ARC
  5
17FE7
  8
0
 10
64.1496031347919455
 20
30.8238222495347891
 30
0.0
 40
0.1700235507537355
 50
36.9602347355174317
 51
45.4965533074984805
  0
ARC
  5
17FE8
  8
0
 10
63.7436984321051199
 20
30.5102829380573404
 30
0.0
 40
0.6829124986929701
 50
31.9649825312408495
 51
37.5039113174848708
  0
ARC
  5
17FE9
  8
0
 10
63.9970094588143823
 20
30.6633925037866106
 30
0.0
 40
0.3869771215903701
 50
26.3255578084130093
 51
32.5882138914773378
  0
ARC
  5
17FEA
  8
0
 10
64.3023982968571062
 20
30.8144422442415085
 30
0.0
 40
0.0462743947530433
 50
12.8860084959364602
 51
26.3836654352890605
  0
ARC
  5
17FEB
  8
0
 10
64.3453567059159468
 20
30.8243271323913817
 30
0.0
 40
0.002194121615294
 50
320.0583703407950225
 51
11.4313394605616594
  0
ARC
  5
17FEC
  8
0
 10
64.2804107475407562
 20
30.8931523926678118
 30
0.0
 40
0.0060506880467075
 50
39.7567976254313891
 51
68.6265974550442763
  0
ARC
  5
17FED
  8
0
 10
64.2503026923156426
 20
30.8617284712770505
 30
0.0
 40
0.0495364871480441
 50
38.9193962127280315
 51
45.4366639471018487
  0
ARC
  5
17FEE
  8
0
 10
64.1649149695170422
 20
30.79223235882586
 30
0.0
 40
0.1596306114196333
 50
34.6850529689039035
 51
39.0727545934851008
  0
ARC
  5
17FEF
  8
0
 10
64.1690999468544732
 20
30.7933353433773185
 30
0.0
 40
0.1555686542752715
 50
27.4733237363477585
 51
35.2281357597205869
  0
ARC
  5
17FF0
  8
0
 10
64.2846240908991717
 20
30.8537346883343595
 30
0.0
 40
0.0252099916728043
 50
15.7615149100597502
 51
26.8086359360020516
  0
ARC
  5
17FF1
  8
0
 10
64.3079498428820955
 20
30.8602218145678684
 30
0.0
 40
0.0010034541730935
 50
317.0285521765620729
 51
21.0706943876417583
  0
ARC
  5
17FF2
  8
0
 10
64.3084566397809851
 20
30.8601986730077513
 30
0.0
 40
0.000698884880806
 50
242.3888187910409044
 51
288.9904025679352912
  0
ARC
  5
17FF3
  8
0
 10
64.3219731458624437
 20
30.8792427207179294
 30
0.0
 40
0.0240458738682862
 50
217.8190921298989906
 51
234.8594676142959941
  0
ARC
  5
17FF4
  8
0
 10
64.4275741944442899
 20
30.96767811033763
 30
0.0
 40
0.1617721244295308
 50
212.6132903367079052
 51
219.6285843436698997
  0
ARC
  5
17FF5
  8
0
 10
64.4095000651539351
 20
30.958134663298349
 30
0.0
 40
0.1414144451240205
 50
207.8774007921066982
 51
213.3031512961908049
  0
ARC
  5
17FF6
  8
0
 10
64.3057185086725269
 20
30.9039549677290388
 30
0.0
 40
0.0243515769728908
 50
193.858403304650011
 51
209.3696461926020902
  0
ARC
  5
17FF7
  8
0
 10
64.2825913643611813
 20
30.8982550864111296
 30
0.0
 40
0.00053242388658
 50
87.3600291478522166
 51
194.4532089207853005
  0
ARC
  5
17FF8
  8
0
 10
64.337553830396331
 20
30.9896529051861798
 30
0.0
 40
0.042828753850469
 50
181.0564910537543142
 51
206.3040612348196134
  0
ARC
  5
17FF9
  8
0
 10
64.2972743283188777
 20
30.9853765028437493
 30
0.0
 40
0.0043149522089594
 50
42.6092771822232166
 51
126.0937034761909956
  0
ARC
  5
17FFA
  8
0
 10
64.2659434978493209
 20
30.9457668413742688
 30
0.0
 40
0.0547684076230995
 50
35.9386429125083708
 51
50.9465305737850827
  0
ARC
  5
17FFB
  8
0
 10
64.9609738188235042
 20
31.41770567364199
 30
0.0
 40
0.785374390865249
 50
214.054439833627697
 51
217.995713022512092
  0
ARC
  5
17FFC
  8
0
 10
63.7512153652257325
 20
30.5032637908888091
 30
0.0
 40
0.7313138741882962
 50
30.5152335291570083
 51
36.1073660821851803
  0
ARC
  5
17FFD
  8
0
 10
64.1163687818364423
 20
30.7128557251027416
 30
0.0
 40
0.3103502812287104
 50
26.4865274042615404
 51
31.4108037930440709
  0
ARC
  5
17FFE
  8
0
 10
64.3157838512404396
 20
30.8089920436430589
 30
0.0
 40
0.0890373237417561
 50
21.4033994964909908
 51
28.3471070130097011
  0
ARC
  5
17FFF
  8
0
 10
64.3780825634037939
 20
30.8323685212951517
 30
0.0
 40
0.022525185511779
 50
2.5065416092336892
 51
23.872748062802799
  0
ARC
  5
18000
  8
0
 10
64.4632379375216829
 20
30.9227873655553402
 30
0.0
 40
0.1099868388541813
 50
224.5268399930957059
 51
234.8229249532170115
  0
ARC
  5
18001
  8
0
 10
64.3997620771303616
 20
30.8338342608271603
 30
0.0
 40
0.0009540361509717
 50
276.734433056810019
 51
329.7488286468329761
  0
ARC
  5
18002
  8
0
 10
65.2805131499934106
 20
31.3805791136191417
 30
0.0
 40
1.170528236876746
 50
212.3340899687424894
 51
217.1211843412870053
  0
LINE
  5
18003
  8
0
 10
64.291454265242848
 20
30.7544986780413012
 30
0.0
 11
64.2522866339192831
 21
30.7305310394518507
 31
0.0
  0
ARC
  5
18004
  8
0
 10
64.2464242907002472
 20
30.7420598523610309
 30
0.0
 40
0.0129336999776756
 50
209.7916612991622003
 51
296.9531067420069803
  0
LINE
  5
18005
  8
0
 10
64.2108655056192674
 20
30.7727630830518386
 30
0.0
 11
64.1664457766192839
 21
30.8405381457518715
 31
0.0
  0
LINE
  5
18006
  8
0
 10
64.2438469324154084
 20
30.7855139360023884
 30
0.0
 11
64.2240224980601369
 21
30.77324866999707
 31
0.0
  0
ARC
  5
18007
  8
0
 10
64.2171325803527822
 20
30.7814438507937815
 30
0.0
 40
0.0107066313238464
 50
234.1726228800679905
 51
310.0547049826361103
  0
LINE
  5
18008
  8
0
 10
64.1981019001192692
 20
30.847980634151849
 30
0.0
 11
64.1815591146192617
 21
30.8378576976518595
 31
0.0
  0
ARC
  5
18009
  8
0
 10
64.1757379193261812
 20
30.8489831515380111
 30
0.0
 40
0.0125563545192554
 50
222.2655968416592884
 51
297.6200111124323939
  0
LINE
  5
1800A
  8
0
 10
64.2953578427777899
 20
30.8126791711943291
 30
0.0
 11
64.2534447775192632
 21
30.7869537340518491
 31
0.0
  0
ARC
  5
1800B
  8
0
 10
64.2469506468683846
 20
30.7975342703615205
 30
0.0
 40
0.0124145673106528
 50
208.0195534943422899
 51
301.5408057573905012
  0
ARC
  5
1800C
  8
0
 10
64.8560740210752158
 20
31.2485484879793489
 30
0.0
 40
0.7702020293430825
 50
210.0419065397038025
 51
216.3809460097662054
  0
ARC
  5
1800D
  8
0
 10
64.1999313277544843
 20
30.869752480466861
 30
0.0
 40
0.0125813130919801
 50
124.202162157289294
 51
212.6774393999162953
  0
LINE
  5
1800E
  8
0
 10
64.1928591881192716
 20
30.8801579732518405
 30
0.0
 11
64.2315776037136317
 21
30.904863108548259
 31
0.0
  0
ARC
  5
1800F
  8
0
 10
64.1929016575339091
 20
30.8800812782598086
 30
0.0
 40
0.0000876685404374
 50
65.9547572515676421
 51
118.9752415826126963
  0
ARC
  5
18010
  8
0
 10
64.1917001186844516
 20
30.8781982183412715
 30
0.0
 40
0.0023204862258037
 50
41.0782275695677015
 51
57.7787541867526429
  0
ARC
  5
18011
  8
0
 10
63.8543637556591079
 20
30.6203965977431203
 30
0.0
 40
0.4268831250585524
 50
33.1301635683995102
 51
37.4080915486119778
  0
ARC
  5
18012
  8
0
 10
62.7502803679888217
 20
29.8762512797014814
 30
0.0
 40
1.7582950671582851
 50
32.1157293286594694
 51
33.7734730854532614
  0
ARC
  5
18013
  8
0
 10
63.8814974501845114
 20
30.5825902585321501
 30
0.0
 40
0.4246811540857264
 50
29.0298758952463984
 51
32.5391007471403029
  0
ARC
  5
18014
  8
0
 10
64.2495506850182068
 20
30.7865209623869909
 30
0.0
 40
0.0039180668346405
 50
6.3415684149261873
 51
33.3235741507447472
  0
ARC
  5
18015
  8
0
 10
63.7230539140497072
 20
31.8154911213310392
 30
0.0
 40
0.0045191832124968
 50
37.3239697148437912
 51
90.6706635651356407
  0
ARC
  5
18016
  8
0
 10
63.741367241933311
 20
31.6846117056105108
 30
0.0
 40
0.0580261163578442
 50
6.0825514820351687
 51
29.370691441981549
  0
ARC
  5
18017
  8
0
 10
63.7921344944093391
 20
31.7026351936332595
 30
0.0
 40
0.0137502779935381
 50
242.1577302609547075
 51
300.2748917398869821
  0
ARC
  5
18018
  8
0
 10
66.9687803232478416
 20
32.7791193364169899
 30
0.0
 40
3.4075175632751229
 50
209.4662116539510919
 51
214.674463763547692
  0
LINE
  5
18019
  8
0
 10
64.0411054412588356
 20
31.1435403655936085
 30
0.0
 11
64.0048880206192621
 21
31.1203661647518608
 31
0.0
  0
ARC
  5
1801A
  8
0
 10
64.0126156749912383
 20
31.1101512627269514
 30
0.0
 40
0.0128086246518205
 50
127.1077943114903945
 51
214.3358185490382937
  0
LINE
  5
1801B
  8
0
 10
64.0703453150096749
 20
31.1011801097711995
 30
0.0
 11
64.0336867930192852
 21
31.0779912620518495
 31
0.0
  0
ARC
  5
1801C
  8
0
 10
64.0389436481638938
 20
31.0672196998131511
 30
0.0
 40
0.0119858752029939
 50
116.0135792548204989
 51
183.3605697289123952
  0
LINE
  5
1801D
  8
0
 10
64.1274445925802752
 20
31.0155835534821698
 30
0.0
 11
64.0888377296192431
 21
30.9916909066518507
 31
0.0
  0
ARC
  5
1801E
  8
0
 10
64.0803210052824994
 20
30.9956706634118895
 30
0.0
 40
0.0067752772070103
 50
222.2140055525109119
 51
284.3782350149274976
  0
ARC
  5
1801F
  8
0
 10
64.0790946739274005
 20
31.0071348361085093
 30
0.0
 40
0.0182603967995326
 50
279.1659504806746099
 51
302.2464491388062129
  0
ARC
  5
18020
  8
0
 10
-5.0940077692617081
 20
-13.2876996594784202
 30
0.0
 40
82.1279932221293336
 50
32.6253888830004612
 51
32.6878665828151469
  0
LINE
  5
18021
  8
0
 10
64.1282037974192747
 20
31.1430792528518516
 30
0.0
 11
64.0842793190192737
 21
31.1150522747518608
 31
0.0
  0
ARC
  5
18022
  8
0
 10
64.3728312523027313
 20
31.239537893534429
 30
0.0
 40
0.325380372373853
 50
206.1100865465134007
 51
213.8689920179344881
  0
ARC
  5
18023
  8
0
 10
64.0922800473569652
 20
31.1037956323499891
 30
0.0
 40
0.0138102734258622
 50
125.4035474011873958
 51
212.6796947828331952
  0
ARC
  5
18024
  8
0
 10
64.4199177661588323
 20
31.2630117690318592
 30
0.0
 40
0.3776191986440576
 50
212.8447015038900076
 51
217.7079121318988939
  0
ARC
  5
18025
  8
0
 10
64.1490165159683414
 20
31.0502855031730185
 30
0.0
 40
0.0332894539592774
 50
213.2231670370011898
 51
243.6031604489701863
  0
ARC
  5
18026
  8
0
 10
64.1374432244591901
 20
31.0365457905649009
 30
0.0
 40
0.0163994351893611
 50
258.6525393322489776
 51
308.1582062587978044
  0
LINE
  5
18027
  8
0
 10
64.1475753694452635
 20
31.0236507871717002
 30
0.0
 11
64.1898387683989995
 21
31.0495912523898809
 31
0.0
  0
ARC
  5
18028
  8
0
 10
64.0844620115569654
 20
31.1147443375464015
 30
0.0
 40
0.0003580529092639
 50
69.9010476920867632
 51
120.6797468757497001
  0
ARC
  5
18029
  8
0
 10
63.7822041566573716
 20
30.8580648251296203
 30
0.0
 40
0.39685174545587
 50
30.8254219556950098
 51
40.3636562596933786
  0
ARC
  5
1802A
  8
0
 10
63.7998673362501378
 20
30.8535650233962997
 30
0.0
 40
0.3842067368954946
 50
26.6196478563238301
 51
32.7517903986462073
  0
ARC
  5
1802B
  8
0
 10
64.1278175401470349
 20
31.0184873482307886
 30
0.0
 40
0.0171302344883294
 50
13.17073296442131
 51
24.9556478733046596
  0
ARC
  5
1802C
  8
0
 10
64.1437464371676498
 20
31.0221676515518787
 30
0.0
 40
0.0007831202030451
 50
320.8855242559238263
 51
16.5353272150308115
  0
ARC
  5
1802D
  8
0
 10
64.0386398438803042
 20
31.0315700204881288
 30
0.0
 40
0.0734065652061666
 50
35.2673766184715021
 51
42.7528369993115192
  0
ARC
  5
1802E
  8
0
 10
63.913836290208657
 20
30.9386779311159614
 30
0.0
 40
0.2289709566801696
 50
31.8230007337691809
 51
36.2139458609445626
  0
ARC
  5
1802F
  8
0
 10
64.0016244894033548
 20
30.9901410893918303
 30
0.0
 40
0.1272684326048736
 50
25.0614439332377614
 51
32.9770111701460422
  0
ARC
  5
18030
  8
0
 10
64.0910997311437143
 20
31.0801196024779891
 30
0.0
 40
0.0019289632055064
 50
41.6329351901679132
 51
75.263362726395286
  0
ARC
  5
18031
  8
0
 10
64.091614652337455
 20
31.0817777481717883
 30
0.0
 40
0.0002087766178896
 50
96.6669389122983489
 51
187.6506309044285956
  0
ARC
  5
18032
  8
0
 10
64.1081052172085606
 20
31.0855277127429588
 30
0.0
 40
0.0171195036662359
 50
192.7483835452412961
 51
208.2766979112784895
  0
ARC
  5
18033
  8
0
 10
64.284165107754049
 20
31.1796460855868496
 30
0.0
 40
0.2167575060697381
 50
208.1398719396302965
 51
213.7927551502293113
  0
ARC
  5
18034
  8
0
 10
64.3032854426006537
 20
31.1924425332244795
 30
0.0
 40
0.2397648152733154
 50
213.7927551502293113
 51
218.0720602675262967
  0
ARC
  5
18035
  8
0
 10
64.1238032848056321
 20
31.0518518237712513
 30
0.0
 40
0.0117744809358198
 50
218.0720602675528141
 51
233.6182243035324859
  0
ARC
  5
18036
  8
0
 10
64.1170349984837031
 20
31.04255486324762
 30
0.0
 40
0.0002826776656534
 50
220.2030900443390067
 51
332.3855316564329883
  0
ARC
  5
18037
  8
0
 10
64.1137241139588383
 20
31.0424608457842588
 30
0.0
 40
0.0035615536975723
 50
359.404610684505883
 51
26.5128378464602292
  0
LINE
  5
18038
  8
0
 10
63.6375204360192726
 20
31.8001482843518488
 30
0.0
 11
63.5984892085817393
 21
31.7751693764998606
 31
0.0
  0
ARC
  5
18039
  8
0
 10
63.6063651493060433
 20
31.7648462442988802
 30
0.0
 40
0.0129845100304814
 50
127.3414946335329034
 51
214.0769621620544001
  0
LINE
  5
1803A
  8
0
 10
63.6444689400442272
 20
31.7436828384719298
 30
0.0
 11
63.6248300108192595
 21
31.7312627771518585
 31
0.0
  0
ARC
  5
1803B
  8
0
 10
63.6290646535112216
 20
31.7212738301516914
 30
0.0
 40
0.0108494820567996
 50
112.9736829062878058
 51
189.6493443033662061
  0
LINE
  5
1803C
  8
0
 10
63.6804192183297317
 20
31.6750841278969801
 30
0.0
 11
63.6641049570192621
 21
31.6646465939518613
 31
0.0
  0
ARC
  5
1803D
  8
0
 10
63.7415134280829818
 20
31.7750878522074096
 30
0.0
 40
0.103583446087838
 50
200.6655711464198077
 51
210.7795190576815116
  0
ARC
  5
1803E
  8
0
 10
64.5740600117737671
 20
32.2373703948173329
 30
0.0
 40
1.0558214087975
 50
209.2122616197054867
 51
212.1583564042603882
  0
ARC
  5
1803F
  8
0
 10
63.8810113430655875
 20
31.7994370785022689
 30
0.0
 40
0.2360125759949922
 50
211.706117094544112
 51
216.1236478866526056
  0
ARC
  5
18040
  8
0
 10
63.7007714475555389
 20
31.6669594985520284
 30
0.0
 40
0.0123478185995594
 50
212.6342706195027006
 51
300.9809145105941184
  0
LINE
  5
18041
  8
0
 10
63.7071275182954935
 20
31.6563732343896085
 30
0.0
 11
63.7481339085774721
 21
31.6815097511382184
 31
0.0
  0
ARC
  5
18042
  8
0
 10
63.6713697061428121
 20
31.65460453153446
 30
0.0
 40
0.0123943373127826
 50
125.8831801256875025
 51
202.4102323860107902
  0
LINE
  5
18043
  8
0
 10
63.731984148819258
 20
31.6470103956518507
 30
0.0
 11
63.691269911819262
 21
31.6212425615518491
 31
0.0
  0
ARC
  5
18044
  8
0
 10
63.6956728679944604
 20
31.6111481713956017
 30
0.0
 40
0.0110128441243514
 50
113.5657958404385965
 51
189.1314027425814004
  0
LINE
  5
18045
  8
0
 10
63.7736740689538806
 20
31.5823184168916491
 30
0.0
 11
63.7339537821207003
 21
31.5569042512239015
 31
0.0
  0
ARC
  5
18046
  8
0
 10
63.741781441952142
 20
31.5466113531404702
 30
0.0
 40
0.0129312029368029
 50
127.252674314356895
 51
214.8819675200095958
  0
LINE
  5
18047
  8
0
 10
63.8005583444776505
 20
31.5384520123471113
 30
0.0
 11
63.7619390171192606
 21
31.5140100752518499
 31
0.0
  0
ARC
  5
18048
  8
0
 10
63.7665238137240777
 20
31.5038413480864108
 30
0.0
 40
0.0111545224941551
 50
114.2692906682100045
 51
189.0492376331455091
  0
LINE
  5
18049
  8
0
 10
63.85334390901928
 20
31.4501469001518501
 30
0.0
 11
63.8154477622192573
 21
31.4266940388518492
 31
0.0
  0
ARC
  5
1804A
  8
0
 10
63.8084052120191032
 20
31.4354095902880317
 30
0.0
 40
0.0112052822436057
 50
233.9618780361379891
 51
308.9397410139700924
  0
LINE
  5
1804B
  8
0
 10
63.8780294766635066
 20
31.4049396588789307
 30
0.0
 11
63.8409777923192578
 21
31.3822626590518503
 31
0.0
  0
ARC
  5
1804C
  8
0
 10
63.835169894005837
 20
31.3937584332504791
 30
0.0
 40
0.0128796159587616
 50
207.8595204247017989
 51
296.8038314161576068
  0
ARC
  5
1804D
  8
0
 10
-31074.8804555444512516
 20
-18560.6685674841392029
 30
0.0
 40
36266.8305951040092623
 50
30.8407417307580687
 51
30.8408697524200193
  0
ARC
  5
1804E
  8
0
 10
65.0279160079697789
 20
32.4630964416699186
 30
0.0
 40
1.591464285824354
 50
210.7295751934582881
 51
212.4403800235720894
  0
ARC
  5
1804F
  8
0
 10
65.6902839465649748
 20
32.8841030291747529
 30
0.0
 40
2.376306838698063
 50
212.4403800235724873
 51
214.4687554652572885
  0
ARC
  5
18050
  8
0
 10
62.8771839925172387
 20
30.9529708013106095
 30
0.0
 40
1.0358483501758029
 50
32.0130543393884679
 51
34.4687554652573169
  0
ARC
  5
18051
  8
0
 10
59.9876187208511027
 20
29.1464544651474284
 30
0.0
 40
4.4436465736690201
 50
30.8684254409160594
 51
32.0130543393884679
  0
ARC
  5
18052
  8
0
 10
62.9112515260639711
 20
30.8940250726006802
 30
0.0
 40
1.0375297512814701
 50
28.4150918575143088
 51
30.8684254409160594
  0
ARC
  5
18053
  8
0
 10
63.6468635672249832
 20
31.7474757430665591
 30
0.0
 40
0.0049912371968416
 50
33.4991500939494813
 51
54.6803915585944935
  0
ARC
  5
18054
  8
0
 10
63.5528799089406391
 20
31.6773803986474185
 30
0.0
 40
0.122228244672325
 50
33.3564591290274279
 51
36.5851770444078568
  0
ARC
  5
18055
  8
0
 10
63.0659774409214293
 20
31.3552296208882311
 30
0.0
 40
0.7060559733068777
 50
31.9158505735793696
 51
33.4668321444233783
  0
ARC
  5
18056
  8
0
 10
62.1773772143671408
 20
30.7998601269532912
 30
0.0
 40
1.753932189458556
 50
30.4677730940926104
 51
31.9691848694902916
  0
ARC
  5
18057
  8
0
 10
63.3389603665155221
 20
31.4757149623280306
 30
0.0
 40
0.4101029906192418
 50
26.1370176092542614
 51
31.3697675791131303
  0
LINE
  5
18058
  8
0
 10
63.9058799283202887
 20
31.3619953245149503
 30
0.0
 11
63.8670844850192623
 21
31.3371738626518699
 31
0.0
  0
ARC
  5
18059
  8
0
 10
63.8749063384981781
 20
31.3269026583315089
 30
0.0
 40
0.0129104233097143
 50
127.2904421645594937
 51
215.5353122641141965
  0
ARC
  5
1805A
  8
0
 10
6192.7081562390158069
 20
3562.5717568143218159
 30
0.0
 40
7073.3633441106394457
 50
209.9492308375417053
 51
209.9495883237279088
  0
ARC
  5
1805B
  8
0
 10
56.7277288918992966
 20
26.7745268739038309
 30
0.0
 40
8.4591241964942814
 50
31.8901548551044911
 51
32.1917229907053297
  0
ARC
  5
1805C
  8
0
 10
64.9543431000240759
 20
31.8705645277300817
 30
0.0
 40
1.218134828083671
 50
210.9868536673527046
 51
215.1702561400103093
  0
ARC
  5
1805D
  8
0
 10
63.9699215232564313
 20
31.1750649696852804
 30
0.0
 40
0.0128991397114028
 50
208.5048205249574096
 51
296.8409557484463903
  0
LINE
  5
1805E
  8
0
 10
63.9757456842192624
 20
31.1635555407518403
 30
0.0
 11
64.0164550861389472
 21
31.1884712435313709
 31
0.0
  0
LINE
  5
1805F
  8
0
 10
63.9070114399394029
 20
31.3018312328724484
 30
0.0
 11
63.8956695296192692
 21
31.2946530173518589
 31
0.0
  0
ARC
  5
18060
  8
0
 10
63.9004904936064122
 20
31.2844114169933789
 30
0.0
 40
0.0113195437923942
 50
115.2074775494575931
 51
189.0499676609599931
  0
LINE
  5
18061
  8
0
 10
63.9614193639475985
 20
31.2149187647237909
 30
0.0
 11
63.9500323266438926
 21
31.2077920727401796
 31
0.0
  0
ARC
  5
18062
  8
0
 10
63.9429468002072028
 20
31.2167054729478117
 30
0.0
 40
0.0113865441704885
 50
234.9320922980907937
 51
308.4822308718170802
  0
ARC
  5
18063
  8
0
 10
69.5961178260927511
 20
34.801933639419488
 30
0.0
 40
6.7047092475005696
 50
211.6615201287415005
 51
212.4200914073828983
  0
LINE
  5
18064
  8
0
 10
63.9520687478617376
 20
31.3354261180947411
 30
0.0
 11
63.9123718687192692
 21
31.3100966526518505
 31
0.0
  0
ARC
  5
18065
  8
0
 10
63.9194138963078871
 20
31.2996587111952707
 30
0.0
 40
0.0125912975665751
 50
124.0058366895518986
 51
209.7482294672809076
  0
ARC
  5
18066
  8
0
 10
64.5023974745237041
 20
31.6118690776084499
 30
0.0
 40
0.6739073883713051
 50
208.2002495159524074
 51
213.8702554501151951
  0
ARC
  5
18067
  8
0
 10
64.0581288194486689
 20
31.3077001455673312
 30
0.0
 40
0.1356032635299713
 50
211.7762688596303917
 51
221.8362178068846902
  0
ARC
  5
18068
  8
0
 10
63.9649382064793599
 20
31.2266066136722316
 30
0.0
 40
0.0122060667622604
 50
230.0287737128477943
 51
300.7939979070421828
  0
ARC
  5
18069
  8
0
 10
64.0542441859532943
 20
31.3878505972961506
 30
0.0
 40
0.1226660050207655
 50
198.7110112347602069
 51
207.5057099758203947
  0
ARC
  5
1806A
  8
0
 10
63.9384694890909486
 20
31.3416133729524304
 30
0.0
 40
0.0068986705302154
 50
32.7918042057050911
 51
93.3925814345791991
  0
ARC
  5
1806B
  8
0
 10
63.8479261606713209
 20
31.2615964804422504
 30
0.0
 40
0.127657721515836
 50
30.2177425843255882
 51
41.001265906191648
  0
ARC
  5
1806C
  8
0
 10
62.8155331936868322
 20
30.5195119185429
 30
0.0
 40
1.398551567676197
 50
33.5754468462199114
 51
35.208161740880243
  0
ARC
  5
1806D
  8
0
 10
62.6687121812681198
 20
30.4958640979743905
 30
0.0
 40
1.535186912589362
 50
29.0215302105625206
 51
31.2797455203766788
  0
ARC
  5
1806E
  8
0
 10
63.912438345160183
 20
31.3099004259076708
 30
0.0
 40
0.000200373961233
 50
40.3985438882785672
 51
119.6140850443636054
  0
ARC
  5
1806F
  8
0
 10
63.8954087740862917
 20
31.2928288251645093
 30
0.0
 40
0.0243129017908747
 50
35.2167742720861483
 51
45.0321548918795926
  0
ARC
  5
18070
  8
0
 10
63.2733071455014482
 20
30.8537115820587111
 30
0.0
 40
0.7857814759820591
 50
31.4862087279786813
 51
35.2167742720861483
  0
ARC
  5
18071
  8
0
 10
63.3466657469858916
 20
30.8821478974707304
 30
0.0
 40
0.7085112872157731
 50
28.2236466378423891
 51
32.6237047800021784
  0
ARC
  5
18072
  8
0
 10
63.9656626687985082
 20
31.2150124822235
 30
0.0
 40
0.0057186672137612
 50
12.5904901328166208
 51
22.6323775112364913
  0
ARC
  5
18073
  8
0
 10
63.9711044760623722
 20
31.2162359634150306
 30
0.0
 40
0.0001412415711296
 50
305.8205669789717831
 51
9.4052062752434917
  0
ARC
  5
18074
  8
0
 10
63.9191800376083208
 20
31.276464887536509
 30
0.0
 40
0.0004955242631552
 50
40.1072633680898676
 51
67.544129565702562
  0
ARC
  5
18075
  8
0
 10
63.9014010700250523
 20
31.2598269188612186
 30
0.0
 40
0.0248446804768447
 50
33.6366906532584267
 51
43.0415245856543933
  0
ARC
  5
18076
  8
0
 10
63.9193547867051493
 20
31.2768372332858497
 30
0.0
 40
0.0000868287758108
 50
80.3686494440990629
 51
189.9716951183835079
  0
ARC
  5
18077
  8
0
 10
63.9351742714893305
 20
31.2821953949492091
 30
0.0
 40
0.0167881008884398
 50
198.6665444874143986
 51
209.6505996418661937
  0
ARC
  5
18078
  8
0
 10
63.5535691235987272
 20
31.0195841723366783
 30
0.0
 40
0.4475746711657143
 50
30.1423447170379113
 51
34.5770413324783235
  0
ARC
  5
18079
  8
0
 10
63.8689522428096197
 20
31.2017879055353298
 30
0.0
 40
0.0833477553034598
 50
25.54786782744074
 51
30.6946270560638013
  0
ARC
  5
1807A
  8
0
 10
63.9418850054963812
 20
31.2365686538080709
 30
0.0
 40
0.0025473060917959
 50
8.34455539650091
 51
27.1963108653643602
  0
ARC
  5
1807B
  8
0
 10
63.9443304924199794
 20
31.2369292344637586
 30
0.0
 40
0.0000754024204016
 50
238.6195619515731892
 51
6.9307624243228751
  0
ARC
  5
1807C
  8
0
 10
63.9858520124124084
 20
31.2733955732695108
 30
0.0
 40
0.0553334585684752
 50
212.6030094037218134
 51
221.3145247962582971
  0
ARC
  5
1807D
  8
0
 10
64.3246944400525962
 20
31.501699995216061
 30
0.0
 40
0.4638989321927648
 50
209.4113571483063936
 51
213.8080233097226142
  0
LINE
  5
1807E
  8
0
 10
63.9711871375192587
 20
31.2161214371518589
 30
0.0
 11
64.0111371364800448
 21
31.2406419817826588
 31
0.0
  0
ARC
  5
1807F
  8
0
 10
63.9313927218399698
 20
31.1956437158505402
 30
0.0
 40
0.0915642703415884
 50
21.3909648342690204
 51
29.4352157900285789
  0
ARC
  5
18080
  8
0
 10
64.0069083325726353
 20
31.2244439336831512
 30
0.0
 40
0.0107709071559978
 50
353.6138016511371234
 51
25.2587189038326692
  0
ARC
  5
18081
  8
0
 10
64.0161109181532169
 20
31.2236610320762793
 30
0.0
 40
0.001557819184107
 50
304.6544668959251112
 51
344.5445583238786753
  0
ARC
  5
18082
  8
0
 10
64.023774657040093
 20
31.2322754669156808
 30
0.0
 40
0.0119945358522598
 50
218.4931414251728938
 51
235.5918630841536867
  0
ARC
  5
18083
  8
0
 10
64.2905192655628639
 20
31.4618114709283603
 30
0.0
 40
0.3638941534688962
 50
218.2239162341494136
 51
220.6391470661181984
  0
ARC
  5
18084
  8
0
 10
63.8926813546992634
 20
31.3753958451400798
 30
0.0
 40
0.0005809642257927
 50
48.7851442336502998
 51
126.7464542228893976
  0
ARC
  5
18085
  8
0
 10
63.8814604357255433
 20
31.3606645414739695
 30
0.0
 40
0.0190977557801143
 50
37.8224837807140801
 51
52.5841676441218482
  0
ARC
  5
18086
  8
0
 10
62.6748300701436634
 20
30.2644283844071005
 30
0.0
 40
1.649283766164692
 50
41.7173411539402821
 51
42.2041908189699768
  0
ARC
  5
18087
  8
0
 10
63.5870605523626722
 20
31.0700910369050085
 30
0.0
 40
0.4322652973306461
 50
36.16731877481417
 51
42.4693408757143374
  0
ARC
  5
18088
  8
0
 10
62.5922693872786695
 20
30.5510144533510584
 30
0.0
 40
1.5396558022211391
 50
31.6873596396219597
 51
32.3940178820080575
  0
ARC
  5
18089
  8
0
 10
63.7214688702817824
 20
31.076494035970299
 30
0.0
 40
0.315524583129282
 50
20.7126733912088383
 51
29.4286109496483697
  0
ARC
  5
1808A
  8
0
 10
63.8410932791583718
 20
31.1200900567548011
 30
0.0
 40
0.1882191074304122
 50
15.7603927859283406
 51
21.1786517838936987
  0
ARC
  5
1808B
  8
0
 10
64.0205047623289545
 20
31.1706553938726891
 30
0.0
 40
0.0018193318109692
 50
316.7533330599846977
 51
17.8542195824974783
  0
ARC
  5
1808C
  8
0
 10
64.018607077760123
 20
31.1790790008986107
 30
0.0
 40
0.0101930394776221
 50
287.0268106393606899
 51
288.432480765654816
  0
ARC
  5
1808D
  8
0
 10
159.6740704103108044
 20
91.045872638371435
 30
0.0
 40
112.8476703123680949
 50
212.0360934515356064
 51
212.0457434278191897
  0
ARC
  5
1808E
  8
0
 10
64.0837772386236537
 20
31.4262591216938212
 30
0.0
 40
0.0692262068550804
 50
186.8068581287197958
 51
201.3194063296554077
  0
ARC
  5
1808F
  8
0
 10
64.0186040948450454
 20
31.4183926104612006
 30
0.0
 40
0.0035811322772338
 50
144.9609645832518936
 51
185.4218543832627972
  0
ARC
  5
18090
  8
0
 10
64.0118305109156864
 20
31.4252272791243996
 30
0.0
 40
0.0061312516910549
 50
308.7955218881912174
 51
315.9097293449138988
  0
ARC
  5
18091
  8
0
 10
64.0175535460605829
 20
31.4169046585174705
 30
0.0
 40
0.0042656955898177
 50
48.8661333160578266
 51
108.0158912824948061
  0
ARC
  5
18092
  8
0
 10
63.9902734787423526
 20
31.3790999142009888
 30
0.0
 40
0.0508686079946836
 50
35.9872152212779071
 51
53.7401795252811993
  0
ARC
  5
18093
  8
0
 10
63.7807757322958793
 20
31.2199152236457707
 30
0.0
 40
0.3139727759645962
 50
31.8226736360834614
 51
37.0278340932934285
  0
ARC
  5
18094
  8
0
 10
63.7342976448234211
 20
31.1215368353194286
 30
0.0
 40
0.4096220145544053
 50
22.7458528433343616
 51
40.1158245237738598
  0
ARC
  5
18095
  8
0
 10
64.0685555139857286
 20
31.2562684623685492
 30
0.0
 40
0.0495181301215366
 50
9.8234305505967452
 51
28.5241544297611789
  0
ARC
  5
18096
  8
0
 10
64.1125357837926799
 20
31.2638805005762102
 30
0.0
 40
0.0048839822370365
 50
331.3557862584663098
 51
9.8603822839087893
  0
ARC
  5
18097
  8
0
 10
64.114796380583968
 20
31.2639343312063609
 30
0.0
 40
0.0031368107389614
 50
230.5719105000036961
 51
310.2232597687520865
  0
ARC
  5
18098
  8
0
 10
64.1560629484447134
 20
31.3254592432330305
 30
0.0
 40
0.0772052499894811
 50
223.254717791268007
 51
235.9228399827044029
  0
ARC
  5
18099
  8
0
 10
63.9047209096055298
 20
32.411262089530851
 30
0.0
 40
0.549930887314766
 50
203.9761083755442996
 51
212.8780732154029067
  0
ARC
  5
1809A
  8
0
 10
63.4541917970074181
 20
32.1191404269919474
 30
0.0
 40
0.0130071883489637
 50
209.5251776384282891
 51
299.105528508331588
  0
LINE
  5
1809B
  8
0
 10
63.4605187495192808
 20
32.1077757175518528
 30
0.0
 11
63.500955564323263
 21
32.1325940245649804
 31
0.0
  0
LINE
  5
1809C
  8
0
 10
63.4339130188192684
 20
32.0910005091518613
 30
0.0
 11
63.4685811182192623
 21
32.1122791248518524
 31
0.0
  0
ARC
  5
1809D
  8
0
 10
67.2363868225837535
 20
34.0149103869126819
 30
0.0
 40
4.220943679464674
 50
206.792435288076291
 51
208.7673316886611019
  0
LINE
  5
1809E
  8
0
 10
63.5052536961192686
 20
31.9636994534518486
 30
0.0
 11
63.5448487034530203
 21
31.9889638187681591
 31
0.0
  0
LINE
  5
1809F
  8
0
 10
63.5612757384110267
 20
31.86797609512573
 30
0.0
 11
63.5977601771760135
 21
31.8903693766944691
 31
0.0
  0
ARC
  5
180A0
  8
0
 10
64.5493741951475357
 20
32.3739460091750288
 30
0.0
 40
1.0773676749599419
 50
206.9805989706648006
 51
212.1807738010917888
  0
ARC
  5
180A1
  8
0
 10
64.1420753503222301
 20
32.0435110299653516
 30
0.0
 40
0.5601795136380902
 50
205.7494790692188928
 51
210.6281815438813112
  0
ARC
  5
180A2
  8
0
 10
57.8350826617343898
 20
27.9125797605030108
 30
0.0
 40
6.9809633796557327
 50
30.4472470806321986
 51
32.517578147592431
  0
ARC
  5
180A3
  8
0
 10
63.1866282779137478
 20
31.0567411264958686
 30
0.0
 40
0.77413037371382
 50
26.7304128689752005
 51
30.5433810361363918
  0
ARC
  5
180A4
  8
0
 10
-7834.0940152368702911
 20
-4911.6528312759710388
 30
0.0
 40
9317.2807742128570681
 50
32.0407764769849095
 51
32.0409749219448727
  0
ARC
  5
180A5
  8
0
 10
-15933.8970037968301767
 20
-9981.2811177063867945
 30
0.0
 40
18872.7995648225114564
 50
32.0406871679083523
 51
32.0407850585805818
  0
ARC
  5
180A6
  8
0
 10
53.6436533123030017
 20
24.1766279181029411
 30
0.0
 40
12.5157852530880795
 50
31.7064491303440192
 51
31.9240956799300584
  0
ARC
  5
180A7
  8
0
 10
60.0554305263644324
 20
28.3610899346353911
 30
0.0
 40
4.8608265683891814
 50
31.3392730363174188
 51
34.9193839569916022
  0
ARC
  5
180A8
  8
0
 10
64.6080125666599088
 20
31.3429333439064308
 30
0.0
 40
0.5310157381906354
 50
200.8730665193448033
 51
202.8215145609111119
  0
ARC
  5
180A9
  8
0
 10
64.1143550485569733
 20
31.1508466021938091
 30
0.0
 40
0.0038243340258386
 50
76.7013594908217442
 51
130.9953404940939947
  0
ARC
  5
180AA
  8
0
 10
64.1097605911290884
 20
31.1384678681688811
 30
0.0
 40
0.0170056755322141
 50
41.6111590214726519
 51
71.2220282621880614
  0
ARC
  5
180AB
  8
0
 10
64.0774961542326622
 20
31.1057488769334611
 30
0.0
 40
0.0629298768543014
 50
36.3623135610960873
 51
44.3773897681323675
  0
ARC
  5
180AC
  8
0
 10
63.7785170443083729
 20
30.8452955942326703
 30
0.0
 40
0.4592627043270527
 50
26.4127139679674592
 51
40.4174389128719369
  0
ARC
  5
180AD
  8
0
 10
64.3001970511668617
 20
30.9485759261740903
 30
0.0
 40
0.0884417182699279
 50
200.7465757426350024
 51
212.5018514001338872
  0
ARC
  5
180AE
  8
0
 10
64.2183885787304689
 20
30.9155203343405702
 30
0.0
 40
0.0019464883095249
 50
67.9655921665596736
 51
117.4916354929243028
  0
ARC
  5
180AF
  8
0
 10
64.1926099538938502
 20
30.8779679487986414
 30
0.0
 40
0.0474517683960292
 50
34.6186129112067817
 51
56.0375918381839995
  0
ARC
  5
180B0
  8
0
 10
63.6630309115714397
 20
30.4441688945235285
 30
0.0
 40
0.7318723740795468
 50
30.2329654752818584
 51
39.0180774848919896
  0
ARC
  5
180B1
  8
0
 10
64.2334526404439572
 20
30.7724118394947688
 30
0.0
 40
0.0738492523875197
 50
20.8420184746731998
 51
33.0426997839308427
  0
ARC
  5
180B2
  8
0
 10
64.2985506525600812
 20
30.7968706394000691
 30
0.0
 40
0.0043193163343214
 50
326.6083589384904258
 51
24.8651736614372609
  0
ARC
  5
180B3
  8
0
 10
64.4065739260507115
 20
30.9065502957025515
 30
0.0
 40
0.1531653802593319
 50
219.7331562193500929
 51
227.0212657499619979
  0
ARC
  5
180B4
  8
0
 10
63.8310762626248192
 20
32.0934471038918616
 30
0.0
 40
0.2974589703594126
 50
201.8854931064649065
 51
210.9635811593666119
  0
ARC
  5
180B5
  8
0
 10
63.7829170001328194
 20
32.0520768262939768
 30
0.0
 40
0.2351214114857409
 50
208.3559298091984999
 51
218.9673419500431066
  0
ARC
  5
180B6
  8
0
 10
63.6088848470965402
 20
31.9131795827083415
 30
0.0
 40
0.0125455622115276
 50
225.6118734151179979
 51
300.1700936986317743
  0
LINE
  5
180B7
  8
0
 10
63.6151898547192616
 20
31.9023334769518598
 30
0.0
 11
63.6600381701563265
 21
31.9293245545587183
 31
0.0
  0
ARC
  5
180B8
  8
0
 10
63.7455955190460273
 20
32.0779046344382621
 30
0.0
 40
0.1600126456996576
 50
192.7915942385359074
 51
200.834055000924991
  0
ARC
  5
180B9
  8
0
 10
63.5944479103043108
 20
32.043548015428442
 30
0.0
 40
0.0050096515588263
 50
162.7687332899386092
 51
192.3449779257358898
  0
ARC
  5
180BA
  8
0
 10
63.5905862875632835
 20
32.0437819941923934
 30
0.0
 40
0.001553971753412
 50
59.2493843593818283
 51
126.446907188260397
  0
ARC
  5
180BB
  8
0
 10
63.5286691361119367
 20
31.978614114897141
 30
0.0
 40
0.0914081771424506
 50
27.0608799763575192
 51
46.680794564661042
  0
ARC
  5
180BC
  8
0
 10
63.1245760024044174
 20
31.6940723494429903
 30
0.0
 40
0.5848618068444748
 50
23.7180075100996
 51
33.8909021845222611
  0
ARC
  5
180BD
  8
0
 10
63.59992583617462
 20
31.9004966261267704
 30
0.0
 40
0.0666673994873515
 50
7.972411899305194
 51
25.6208674853553298
  0
ARC
  5
180BE
  8
0
 10
63.6618951539682882
 20
31.9089791170781183
 30
0.0
 40
0.0041251108699812
 50
305.4875256854689951
 51
10.6736127663016003
  0
ARC
  5
180BF
  8
0
 10
63.7275563071501878
 20
31.9768723170613498
 30
0.0
 40
0.0952863730594407
 50
214.6047985951327064
 51
228.3973467957248999
  0
ARC
  5
180C0
  8
0
 10
63.3496261265573111
 20
31.8372763044161218
 30
0.0
 40
0.2650880490588103
 50
31.3387479990698097
 51
36.3121371602632692
  0
ARC
  5
180C1
  8
0
 10
62.5157580708332006
 20
31.3295038627676696
 30
0.0
 40
1.2413916836186429
 50
28.5019908242428208
 51
31.3387479990698097
  0
ARC
  5
180C2
  8
0
 10
63.46158571340343
 20
31.8428898604195183
 30
0.0
 40
0.1652156375706402
 50
21.8151234124022615
 51
28.5626584440395703
  0
ARC
  5
180C3
  8
0
 10
63.6088687476625125
 20
31.9021089171740613
 30
0.0
 40
0.006477975885772
 50
5.1746290699420063
 51
19.6390448149641088
  0
ARC
  5
180C4
  8
0
 10
63.6147652191611712
 20
31.9026910082733117
 30
0.0
 40
0.0005551071995696
 50
319.9035545143321997
 51
0.2237546167819086
  0
ARC
  5
180C5
  8
0
 10
63.560072712909772
 20
31.9971715677421003
 30
0.0
 40
0.0003591260649851
 50
45.019819152412559
 51
115.9000199539768943
  0
ARC
  5
180C6
  8
0
 10
65.2548934276554888
 20
33.7049049224492876
 30
0.0
 40
2.3006843886915811
 50
203.3506769753437027
 51
205.9949100186188957
  0
ARC
  5
180C7
  8
0
 10
90.5004179600983605
 20
45.5514893133193226
 30
0.0
 40
30.1893670192033206
 50
205.4922506256804127
 51
205.7319557399960956
  0
ARC
  5
180C8
  8
0
 10
67.7993216084741022
 20
34.4451075619011178
 30
0.0
 40
4.9177140924253591
 50
205.3043728400421912
 51
207.001120656787208
  0
ARC
  5
180C9
  8
0
 10
64.9695271389393412
 20
29.8907609635806288
 30
0.0
 40
0.0039112902724825
 50
55.0359002148687466
 51
121.3217991102027042
  0
ARC
  5
180CA
  8
0
 10
64.9599271825381663
 20
29.8719814615102912
 30
0.0
 40
0.0249710165044068
 50
41.1681011659532814
 51
61.6924218808848295
  0
ARC
  5
180CB
  8
0
 10
64.9121849985514956
 20
29.8197977663485005
 30
0.0
 40
0.0955847907943369
 50
38.229234089559931
 51
45.8822811951335225
  0
ARC
  5
180CC
  8
0
 10
62.0429602166507621
 20
27.481532895010421
 30
0.0
 40
3.79691412661913
 50
36.9656880732244986
 51
39.1543059259046728
  0
ARC
  5
180CD
  8
0
 10
64.9439383948464126
 20
29.6561513398807186
 30
0.0
 40
0.1715080948024604
 50
33.1224563098127405
 51
39.2893032702405804
  0
ARC
  5
180CE
  8
0
 10
65.0866955184840492
 20
29.7491601934310985
 30
0.0
 40
0.0011309999601227
 50
358.3659531036370254
 51
38.7784849514240975
  0
ARC
  5
180CF
  8
0
 10
65.2845432077927939
 20
29.9514058739229405
 30
0.0
 40
0.2821595266147088
 50
221.8128407581795045
 51
225.7984778534593033
  0
ARC
  5
180D0
  8
0
 10
63.3217770088186995
 20
33.0501093694861368
 30
0.0
 40
0.2605699184643073
 50
201.5088946096408051
 51
205.778557123101109
  0
ARC
  5
180D1
  8
0
 10
63.0808453936989011
 20
32.9549224829673832
 30
0.0
 40
0.0015328658533836
 50
177.3623728407683018
 51
193.1966253844981054
  0
ARC
  5
180D2
  8
0
 10
63.0793542330001316
 20
32.95491607013075
 30
0.0
 40
0.0000867663047487
 50
33.2645660012229385
 51
117.5126267849877024
  0
ARC
  5
180D3
  8
0
 10
63.0655819669851425
 20
32.9440772719237316
 30
0.0
 40
0.0176122798276393
 50
30.0975874079175796
 51
38.1785114466434123
  0
ARC
  5
180D4
  8
0
 10
62.8041812503697301
 20
32.7956845724430934
 30
0.0
 40
0.3181955865129937
 50
26.5458043335996194
 51
29.6113250737629805
  0
ARC
  5
180D5
  8
0
 10
62.157032880497411
 20
32.3967292511163265
 30
0.0
 40
1.0775456386261719
 50
22.0326099360567689
 51
30.146745123798329
  0
ARC
  5
180D6
  8
0
 10
63.0998197418037492
 20
32.7768760171572069
 30
0.0
 40
0.0610175353407677
 50
8.5552650558213408
 51
23.2410077955043413
  0
ARC
  5
180D7
  8
0
 10
63.1577311363510887
 20
32.7856648911873378
 30
0.0
 40
0.0024442500973746
 50
314.7882808340316956
 51
6.7737319866120531
  0
ARC
  5
180D8
  8
0
 10
62.9982266405334812
 20
32.7153912257034207
 30
0.0
 40
0.1751900481732464
 50
23.0308215543489112
 51
28.4298212477888086
  0
ARC
  5
180D9
  8
0
 10
63.6870629327137223
 20
32.3226327944087615
 30
0.0
 40
0.2610319415749529
 50
197.2564068383724134
 51
201.0301471094487908
  0
ARC
  5
180DA
  8
0
 10
63.4427988336520201
 20
32.2468913541404518
 30
0.0
 40
0.0052959405202648
 50
177.7851705915828973
 51
198.6464493741272008
  0
ARC
  5
180DB
  8
0
 10
63.4382732062978434
 20
32.2456568860633581
 30
0.0
 40
0.0016304658841155
 50
69.7559053825070805
 51
118.0358035919287971
  0
ARC
  5
180DC
  8
0
 10
63.4107932015568707
 20
32.2136692964895133
 30
0.0
 40
0.0437022635825721
 50
26.5094598881059014
 51
50.0805523495283893
  0
ARC
  5
180DD
  8
0
 10
62.7851439920772165
 20
31.8324985672109904
 30
0.0
 40
0.7761723329814348
 50
22.745286025935421
 51
31.0791535437723994
  0
ARC
  5
180DE
  8
0
 10
63.875048088196813
 20
31.8870580866448385
 30
0.0
 40
0.1247155859912377
 50
194.3261132509720142
 51
200.6802208485680126
  0
ARC
  5
180DF
  8
0
 10
63.7637751328188713
 20
31.8595534381039691
 30
0.0
 40
0.0101357446485036
 50
159.357312887928714
 51
199.3302187409283874
  0
ARC
  5
180E0
  8
0
 10
63.7545376318443004
 20
31.8542792739359015
 30
0.0
 40
0.0088508700196189
 50
44.8113817375711179
 51
91.602390393555666
  0
ARC
  5
180E1
  8
0
 10
63.7278595521497095
 20
31.8184499999032901
 30
0.0
 40
0.0534398653873194
 50
37.2879854982543222
 51
51.9233690794998424
  0
ARC
  5
180E2
  8
0
 10
63.211595332328983
 20
31.4419360928328793
 30
0.0
 40
0.6924062172312602
 50
23.594157657742219
 51
36.1948621766642802
  0
ARC
  5
180E3
  8
0
 10
63.7972710142321802
 20
31.6937682056017991
 30
0.0
 40
0.0550142934688522
 50
12.6306766520433005
 51
27.3880126819446801
  0
ARC
  5
180E4
  8
0
 10
63.8458178620148971
 20
31.7043233398745485
 30
0.0
 40
0.0053435836153665
 50
310.2619537438362727
 51
16.0191285537283008
  0
ARC
  5
180E5
  8
0
 10
63.9224959036677731
 20
31.7910005758675283
 30
0.0
 40
0.1166117155755045
 50
222.0361595333127127
 51
231.102068335847207
  0
ARC
  5
180E6
  8
0
 10
63.8966922769193602
 20
31.5970681351278415
 30
0.0
 40
0.0545595403463279
 50
187.2886467527872014
 51
206.2752167275679938
  0
ARC
  5
180E7
  8
0
 10
63.844251481006431
 20
31.5851868277863801
 30
0.0
 40
0.00523558726821
 50
40.435791927160011
 51
108.6917313637537035
  0
ARC
  5
180E8
  8
0
 10
63.8080202303737707
 20
31.5433326837711085
 30
0.0
 40
0.0605384229900274
 50
35.9033074251179301
 51
48.370650318901049
  0
ARC
  5
180E9
  8
0
 10
63.4669074206702177
 20
31.2809270855400392
 30
0.0
 40
0.4908816886244388
 50
24.2694536522047883
 51
37.3642774200366503
  0
ARC
  5
180EA
  8
0
 10
63.8559675278967518
 20
31.4531641985010992
 30
0.0
 40
0.0654756133095072
 50
13.7922793919706095
 51
26.8075672725372414
  0
ARC
  5
180EB
  8
0
 10
63.9131881232399408
 20
31.4668669342084506
 30
0.0
 40
0.0066465176255297
 50
330.2123114999185987
 51
16.6718649275377508
  0
ARC
  5
180EC
  8
0
 10
63.9178205304395419
 20
31.4642152513027611
 30
0.0
 40
0.0013088572115329
 50
292.4229973939745264
 51
330.2123115001351721
  0
ARC
  5
180ED
  8
0
 10
63.9560005351446321
 20
31.5146436592984607
 30
0.0
 40
0.0639245945507572
 50
216.4468407209969882
 51
233.8815678611406952
  0
ARC
  5
180EE
  8
0
 10
64.1655579377047331
 20
31.0320651366579483
 30
0.0
 40
0.0299452922828244
 50
2.588501151014841
 51
35.8220872100645593
  0
ARC
  5
180EF
  8
0
 10
64.1918237296988252
 20
31.0334700625758906
 30
0.0
 40
0.0036493236896198
 50
291.1006473289539827
 51
359.1753619181631052
  0
ARC
  5
180F0
  8
0
 10
64.9158273861811637
 20
31.7553690488729785
 30
0.0
 40
1.0238876868145499
 50
224.0484340192313084
 51
225.1034234980720896
  0
ARC
  5
180F1
  8
0
 10
63.433266668414241
 20
32.1011859928305228
 30
0.0
 40
0.0746207148640083
 50
14.6936373209963609
 51
24.8915676042745204
  0
ARC
  5
180F2
  8
0
 10
63.4956105780088293
 20
32.1175342117844025
 30
0.0
 40
0.0101689706944049
 50
349.1940229641259066
 51
14.6936373209904403
  0
ARC
  5
180F3
  8
0
 10
63.5040292455288125
 20
32.1160838621476117
 30
0.0
 40
0.0016349123090829
 50
294.8921437365897873
 51
343.7984861205011953
  0
ARC
  5
180F4
  8
0
 10
63.7353117680186116
 20
32.2899294694761707
 30
0.0
 40
0.2896789512609331
 50
213.8157461776906132
 51
217.2469466056568024
  0
ARC
  5
180F5
  8
0
 10
63.1223668851964987
 20
31.8030659994145708
 30
0.0
 40
0.4577629057577445
 50
23.6821584284005198
 51
26.1091102412325711
  0
ARC
  5
180F6
  8
0
 10
63.5337630353432417
 20
32.0023766647756602
 30
0.0
 40
0.0021700425640707
 50
27.090127768726429
 51
99.1335460549486953
  0
ARC
  5
180F7
  8
0
 10
63.4628888226114967
 20
31.9467884085223091
 30
0.0
 40
0.0922043263056369
 50
27.2314255784717609
 51
37.8501858627201671
  0
ARC
  5
180F8
  8
0
 10
62.593961392299903
 20
31.4155021231372302
 30
0.0
 40
1.110455271057659
 50
25.3174341685737296
 51
31.0934024665103799
  0
ARC
  5
180F9
  8
0
 10
63.4807078511702727
 20
31.8293079364653693
 30
0.0
 40
0.1320217652745462
 50
21.66631515087251
 51
27.5492184117863914
  0
ARC
  5
180FA
  8
0
 10
63.5982797132033397
 20
31.8750394243803612
 30
0.0
 40
0.0059419318171532
 50
341.7290163562877865
 51
30.4468377024749586
  0
ARC
  5
180FB
  8
0
 10
63.272649118697089
 20
31.6803349953082716
 30
0.0
 40
0.3833140267505129
 50
30.2046633577376511
 51
32.8769481787687781
  0
ARC
  5
180FC
  8
0
 10
64.9488551004129135
 20
29.8644745594086807
 30
0.0
 40
0.0350028758207381
 50
30.8687743354456607
 51
57.8259953974931307
  0
ARC
  5
180FD
  8
0
 10
63.6400164832976287
 20
31.7032015622518806
 30
0.0
 40
0.0221410851852737
 50
31.9724239675849304
 51
41.8888639495277317
  0
ARC
  5
180FE
  8
0
 10
57.8415655965820008
 20
28.0838065810001112
 30
0.0
 40
6.8574942374345316
 50
31.8448183792564592
 51
31.9724239675852715
  0
ARC
  5
180FF
  8
0
 10
63.3333877466209714
 20
31.4948307924670914
 30
0.0
 40
0.3925737662398055
 50
28.273101623226701
 51
31.8448183792568109
  0
ARC
  5
18100
  8
0
 10
63.6579738250106431
 20
31.6691802455268316
 30
0.0
 40
0.0241267394567512
 50
20.3682176759454485
 51
28.7450099986599987
  0
ARC
  5
18101
  8
0
 10
63.6804518313998216
 20
31.6775089189532899
 30
0.0
 40
0.0001561343079047
 50
323.7010319996604721
 51
26.0994970350580999
  0
ARC
  5
18102
  8
0
 10
63.6806927709671484
 20
31.6778530350984191
 30
0.0
 40
0.0004514673843372
 50
226.7363471081945931
 51
255.2289525499579099
  0
ARC
  5
18103
  8
0
 10
63.732775818243951
 20
31.7192116619014293
 30
0.0
 40
0.0669537796352452
 50
210.3972639332563119
 51
218.5083993804043985
  0
ARC
  5
18104
  8
0
 10
64.1242358864362529
 20
31.9689167435659698
 30
0.0
 40
0.5312337206543596
 50
208.8217143505623881
 51
212.2639236300028074
  0
ARC
  5
18105
  8
0
 10
63.7005801988727072
 20
31.7362582554630706
 30
0.0
 40
0.0478991231355287
 50
202.8257763931763122
 51
209.3009976112703896
  0
ARC
  5
18106
  8
0
 10
63.6569740608123524
 20
31.7179611748701404
 30
0.0
 40
0.0006120527960758
 50
180.4224313895726937
 51
207.692776111857313
  0
ARC
  5
18107
  8
0
 10
63.6564379084825731
 20
31.7179353793228316
 30
0.0
 40
0.0000788119494764
 50
38.9244024691522483
 51
164.3328582661758901
  0
ARC
  5
18108
  8
0
 10
63.6786670703244724
 20
31.7119411297546492
 30
0.0
 40
0.0841112331746731
 50
27.44671496990766
 51
42.7709021119469597
  0
ARC
  5
18109
  8
0
 10
63.6475262096942487
 20
31.6870289015815416
 30
0.0
 40
0.1234732528875823
 50
21.1574826852293612
 51
31.0474592047526983
  0
ARC
  5
1810A
  8
0
 10
63.7559759406597593
 20
31.7291831792696009
 30
0.0
 40
0.0071210809346018
 50
357.5490743483546794
 51
19.7920241458351498
  0
ARC
  5
1810B
  8
0
 10
63.7625407411043312
 20
31.7293596627477292
 30
0.0
 40
0.0007304866411022
 50
223.5041383277186924
 51
318.8163396367347104
  0
ARC
  5
1810C
  8
0
 10
63.8364911613682224
 20
31.7959414400363016
 30
0.0
 40
0.1002380134816648
 50
208.1655746355056067
 51
222.0094818652613924
  0
ARC
  5
1810D
  8
0
 10
63.8307385444773274
 20
31.7988981595102587
 30
0.0
 40
0.096708761160463
 50
198.4937302087440969
 51
211.3202023129908866
  0
ARC
  5
1810E
  8
0
 10
63.7405944025906379
 20
31.768692843328779
 30
0.0
 40
0.001639470855174
 50
150.239150087877988
 51
196.6879177948152062
  0
ARC
  5
1810F
  8
0
 10
63.7394018609538477
 20
31.7682058727704089
 30
0.0
 40
0.0013210706324543
 50
40.1919501184735211
 51
100.0567910398586946
  0
ARC
  5
18110
  8
0
 10
64.1666927266926024
 20
30.8166136066072092
 30
0.0
 40
0.0454093863915755
 50
33.3685567298721466
 51
42.0111578188329418
  0
ARC
  5
18111
  8
0
 10
64.3650733492619764
 20
30.9472653793025394
 30
0.0
 40
0.1921295727697454
 50
213.3685567298726937
 51
215.9587849335381975
  0
ARC
  5
18112
  8
0
 10
63.7822776584142872
 20
30.5445524113406499
 30
0.0
 40
0.5163383554263952
 50
31.3032750246474798
 51
34.1555589676735423
  0
ARC
  5
18113
  8
0
 10
64.1852773616284509
 20
30.7889155215541486
 30
0.0
 40
0.0450443545783213
 50
24.70145031829394
 51
32.0598359981643384
  0
ARC
  5
18114
  8
0
 10
64.2260986870037556
 20
30.8076836638999403
 30
0.0
 40
0.0001155364160482
 50
313.2408966829253245
 51
28.67900790871224
  0
ARC
  5
18115
  8
0
 10
64.2261354275244543
 20
30.8077198919687092
 30
0.0
 40
0.0001276452173281
 50
217.2045861090576864
 51
289.4051943632866823
  0
ARC
  5
18116
  8
0
 10
64.2588369226604357
 20
30.8370413154916889
 30
0.0
 40
0.0440491257071551
 50
214.6469407185423961
 51
221.8670944500588007
  0
ARC
  5
18117
  8
0
 10
64.6559282756956435
 20
31.1185077865913513
 30
0.0
 40
0.5307750490417265
 50
212.0558539518613088
 51
215.2731252980483134
  0
ARC
  5
18118
  8
0
 10
64.2995047920670828
 20
30.8975244044379203
 30
0.0
 40
0.1114249346670933
 50
207.0400756384244119
 51
213.0225869077962955
  0
ARC
  5
18119
  8
0
 10
64.2004498587221519
 20
30.846991734826311
 30
0.0
 40
0.0002261359760073
 50
154.3682505402229026
 51
212.8367471737915082
  0
ARC
  5
1811A
  8
0
 10
64.200229797605374
 20
30.846805753448109
 30
0.0
 40
0.0002842652645991
 50
44.4972720124610888
 51
86.7373371399111477
  0
ARC
  5
1811B
  8
0
 10
63.6037053963268733
 20
31.7479747814698392
 30
0.0
 40
0.0867229957478548
 50
18.0153859914286798
 51
30.6491141672764513
  0
ARC
  5
1811C
  8
0
 10
63.6804200695577194
 20
31.7898340480906008
 30
0.0
 40
0.003156089104572
 50
50.6500472137831821
 51
131.8677209008442901
  0
ARC
  5
1811D
  8
0
 10
63.6609226882129207
 20
31.7646533782188385
 30
0.0
 40
0.0350016973392954
 50
24.2728141221738483
 51
52.1052032338439375
  0
ARC
  5
1811E
  8
0
 10
63.1570416641657388
 20
31.4107879572521291
 30
0.0
 40
0.6501387014234693
 50
24.1532523384956583
 51
34.5012157292610269
  0
ARC
  5
1811F
  8
0
 10
63.7237951101833886
 20
31.6625788576848599
 30
0.0
 40
0.0300520475557322
 50
8.9621249491806871
 51
28.2668439779154106
  0
ARC
  5
18120
  8
0
 10
63.7495831562721733
 20
31.6660216537207795
 30
0.0
 40
0.0040892546349262
 50
293.4475741525158128
 51
17.6336689300268787
  0
ARC
  5
18121
  8
0
 10
63.6428675139863671
 20
31.5968676139071398
 30
0.0
 40
0.1265529257506148
 50
31.1177954286887193
 51
39.2960513846206396
  0
ARC
  5
18122
  8
0
 10
63.5343618290115231
 20
31.9352136369503015
 30
0.0
 40
0.0431814335560466
 50
31.3897154855579892
 51
41.800554534015113
  0
ARC
  5
18123
  8
0
 10
63.295778396168707
 20
31.7838557203756089
 30
0.0
 40
0.3257199979728333
 50
26.4104596792549593
 51
32.2583874940219104
  0
ARC
  5
18124
  8
0
 10
63.5652850613497833
 20
31.9174497573285798
 30
0.0
 40
0.0249201546090536
 50
13.9630354215832195
 51
26.9284875540574298
  0
ARC
  5
18125
  8
0
 10
63.5892736108547396
 20
31.9233526419532083
 30
0.0
 40
0.0002242283280345
 50
209.4501290083543097
 51
29.4501290067732491
  0
ARC
  5
18126
  8
0
 10
63.7221468900490535
 20
32.0252417764737913
 30
0.0
 40
0.1676636756928616
 50
207.3170066045721001
 51
217.4708018949677069
  0
ARC
  5
18127
  8
0
 10
63.6627764397956781
 20
31.999803655091231
 30
0.0
 40
0.1033446866554903
 50
200.4529290914371984
 51
209.8929072347874012
  0
ARC
  5
18128
  8
0
 10
63.5664548698934198
 20
31.9639097095300606
 30
0.0
 40
0.0005532390199424
 50
144.3882963970843036
 51
203.2726847621943023
  0
ARC
  5
18129
  8
0
 10
63.566009967502012
 20
31.9634909899800803
 30
0.0
 40
0.0007408805836363
 50
42.9478658880574571
 51
90.3766909807240779
  0
ARC
  5
1812A
  8
0
 10
63.2721844504537927
 20
32.0749406699190232
 30
0.0
 40
0.1700687684961068
 50
28.0853826758033591
 51
33.4339794994292774
  0
ARC
  5
1812B
  8
0
 10
63.4029473524059384
 20
32.1615901991722026
 30
0.0
 40
0.0132051911853195
 50
32.2898042082611809
 51
43.8634412357412771
  0
ARC
  5
1812C
  8
0
 10
63.1930336212075687
 20
32.0246448371851784
 30
0.0
 40
0.2636738486736319
 50
23.7330999036289008
 51
29.6305974679274797
  0
ARC
  5
1812D
  8
0
 10
63.430496456813529
 20
32.1290217816084294
 30
0.0
 40
0.0042839664724377
 50
4.3533240954058874
 51
24.0466707118791803
  0
ARC
  5
1812E
  8
0
 10
63.4346453932364867
 20
32.129381422676687
 30
0.0
 40
0.0001274184865279
 50
211.1080255537129915
 51
344.3095407004262256
  0
ARC
  5
1812F
  8
0
 10
63.4568958911205527
 20
32.1488391254733017
 30
0.0
 40
0.0296836617411243
 50
210.1826705924580097
 51
221.1262076545667981
  0
ARC
  5
18130
  8
0
 10
63.7121999766823279
 20
32.3056042285120029
 30
0.0
 40
0.329268135745639
 50
207.8042423729588961
 51
211.4279228457282898
  0
ARC
  5
18131
  8
0
 10
63.5519990531177399
 20
32.2252368997838019
 30
0.0
 40
0.1501195412512468
 50
201.3334139564927909
 51
209.1926672254357129
  0
ARC
  5
18132
  8
0
 10
63.4123156731776234
 20
32.1706859139867234
 30
0.0
 40
0.0001620516453962
 50
19.7334036843448004
 51
202.3720571787536073
  0
ARC
  5
18133
  8
0
 10
63.4063964203074022
 20
32.2046969117670017
 30
0.0
 40
0.000153433529787
 50
65.9905483395174031
 51
119.4171793876040937
  0
ARC
  5
18134
  8
0
 10
63.3859840638215815
 20
32.1846233691275074
 30
0.0
 40
0.0287716977278934
 50
31.3197737480770897
 51
44.6323552431042927
  0
ARC
  5
18135
  8
0
 10
63.2048287580369532
 20
32.0630790926985014
 30
0.0
 40
0.2468986437697858
 50
31.9745061177674899
 51
33.5633936343145507
  0
ARC
  5
18136
  8
0
 10
62.4953511150308216
 20
31.6319029260501487
 30
0.0
 40
1.0771087204910439
 50
28.1222430789413913
 51
31.4458369065625014
  0
ARC
  5
18137
  8
0
 10
63.0320321115727822
 20
31.9139112434281813
 30
0.0
 40
0.4708795239038814
 50
24.8812583758041797
 51
28.6395489249131714
  0
ARC
  5
18138
  8
0
 10
63.4392263772927265
 20
32.102705896865281
 30
0.0
 40
0.022047111339703
 50
14.2217863858411704
 51
25.0150806959795915
  0
ARC
  5
18139
  8
0
 10
63.4602828518583024
 20
32.1080118323014005
 30
0.0
 40
0.0003337632115924
 50
314.973648448916606
 51
19.3358382976063297
  0
ARC
  5
1813A
  8
0
 10
63.9744606089224632
 20
32.7596533739830278
 30
0.0
 40
0.6714246625288283
 50
201.1649300726249123
 51
202.8124006215442989
  0
ARC
  5
1813B
  8
0
 10
63.3497469792193684
 20
32.516834554209872
 30
0.0
 40
0.0014748816451714
 50
105.1114810323694968
 51
164.3297277479649097
  0
ARC
  5
1813C
  8
0
 10
63.3498897455745364
 20
32.5163058598164909
 30
0.0
 40
0.0020225129022793
 50
62.5633686844924668
 51
105.1114810326073012
  0
ARC
  5
1813D
  8
0
 10
63.3261579177422789
 20
32.4827476205088175
 30
0.0
 40
0.0431062986832934
 50
30.2146437613264709
 51
55.0989551020502617
  0
ARC
  5
1813E
  8
0
 10
62.7323670425535198
 20
32.0985364119912902
 30
0.0
 40
0.7503138495651772
 50
21.0929741573625513
 51
32.7503104861985079
  0
ARC
  5
1813F
  8
0
 10
63.8129932980538399
 20
32.6466915567825424
 30
0.0
 40
0.5358701455292155
 50
201.4745568399405045
 51
213.9861084783242973
  0
ARC
  5
18140
  8
0
 10
63.3900577633894713
 20
32.4759164280018311
 30
0.0
 40
0.0798806599239478
 50
191.8661537501392047
 51
198.5408540774319022
  0
ARC
  5
18141
  8
0
 10
63.3175805592849272
 20
32.4732461713452096
 30
0.0
 40
0.0012151739254908
 50
38.6114983393649425
 51
106.010062353404507
  0
ARC
  5
18142
  8
0
 10
63.1304980705723935
 20
32.3238557841194876
 30
0.0
 40
0.2406255859326628
 50
33.3660132651289203
 51
38.6083201617591527
  0
ARC
  5
18143
  8
0
 10
62.9447546730353267
 20
32.2015386007628592
 30
0.0
 40
0.4630263572283312
 50
24.8887185300178189
 51
33.3660132651289203
  0
ARC
  5
18144
  8
0
 10
62.9469420353663907
 20
32.1772250893541809
 30
0.0
 40
0.4718343996972669
 50
21.3216318810759518
 51
27.6798441135219484
  0
ARC
  5
18145
  8
0
 10
63.3649384897333476
 20
32.3402965259976227
 30
0.0
 40
0.0231549874172343
 50
5.4141955091151592
 51
21.5069614505025903
  0
ARC
  5
18146
  8
0
 10
63.3869714990431916
 20
32.3423848729882693
 30
0.0
 40
0.0010232298696216
 50
312.6262166960303261
 51
5.4082510158880082
  0
ARC
  5
18147
  8
0
 10
68.7426156343150154
 20
35.0275147387461629
 30
0.0
 40
5.9945689082905691
 50
202.5233834351238045
 51
202.7089193130601927
  0
ARC
  5
18148
  8
0
 10
63.2066572017465589
 20
32.7292612000085228
 30
0.0
 40
0.0023973831596271
 50
59.7891860920044209
 51
124.6887824027031968
  0
ARC
  5
18149
  8
0
 10
63.2038660917508395
 20
32.7236724364841081
 30
0.0
 40
0.0086407895729771
 50
41.4266942899383324
 51
62.4434707941450213
  0
ARC
  5
1814A
  8
0
 10
63.1588416883804484
 20
32.6860877291686123
 30
0.0
 40
0.0672878210393901
 50
27.4340359666520399
 51
40.055829161019517
  0
ARC
  5
1814B
  8
0
 10
62.2541024924129403
 20
32.1675371323286612
 30
0.0
 40
1.1100406811044621
 50
21.7711537854885684
 51
29.6746086774424285
  0
ARC
  5
1814C
  8
0
 10
63.2386154971446572
 20
32.5609889762526876
 30
0.0
 40
0.0498194716408218
 50
2.7732559124117881
 51
21.5045926426950516
  0
ARC
  5
1814D
  8
0
 10
63.2854849645884201
 20
32.5632593464335116
 30
0.0
 40
0.002895047731527
 50
303.8165508486172826
 51
2.7732559123677532
  0
ARC
  5
1814E
  8
0
 10
63.3874488145651469
 20
32.638288816260669
 30
0.0
 40
0.126754859961355
 50
210.0185063142245951
 51
217.6547216470484898
  0
ARC
  5
1814F
  8
0
 10
63.4059522186703006
 20
32.3552759165199006
 30
0.0
 40
0.0296042625357467
 50
350.4920326585021826
 51
26.6642362383444009
  0
ARC
  5
18150
  8
0
 10
59.1850528868823389
 20
29.1679748581024789
 30
0.0
 40
5.309525665136551
 50
36.8253363463636418
 51
37.0095978653341007
  0
ARC
  5
18151
  8
0
 10
63.6975925655577697
 20
33.6194186320435477
 30
0.0
 40
0.0309738988467858
 50
37.6342406874681714
 51
119.7085313218680938
  0
LINE
  5
18152
  8
0
 10
64.2108655056192674
 20
30.7727630830518386
 30
0.0
 11
64.2351999373192655
 21
30.7356337737518608
 31
0.0
  0
LINE
  5
18153
  8
0
 10
63.5956102654192676
 20
31.7575709454518496
 30
0.0
 11
63.6183686694168813
 21
31.71945526334828
 31
0.0
  0
LINE
  5
18154
  8
0
 10
65.6351500151373841
 20
24.3854485712161413
 30
0.0
 11
66.258150324982438
 21
24.4407959654305493
 31
0.0
  0
LINE
  5
18155
  8
0
 10
64.4277335227461521
 20
30.7063164064235004
 30
0.0
 11
64.3748594292218854
 21
30.8396617082422111
 31
0.0
  0
LINE
  5
18156
  8
0
 10
64.3947059911180588
 20
30.789614506951839
 30
0.0
 11
64.3637702337688893
 21
30.8329878938097011
 31
0.0
  0
LINE
  5
18157
  8
0
 10
64.399850181018067
 20
30.8328663079518286
 30
0.0
 11
64.6397830764474293
 21
30.4881660708003288
 31
0.0
  0
LINE
  5
18158
  8
0
 10
64.2947470843850937
 20
30.9888408440147316
 30
0.0
 11
64.1157101063180619
 21
31.2608657477518399
 31
0.0
  0
LINE
  5
18159
  8
0
 10
64.0894938274409753
 20
31.2663320452110192
 30
0.0
 11
64.1361401520791787
 21
31.1334412941383896
 31
0.0
  0
LINE
  5
1815A
  8
0
 10
64.1118404762180631
 20
31.15372991365183
 30
0.0
 11
64.0517729905430997
 21
31.2497261622421583
 31
0.0
  0
LINE
  5
1815B
  8
0
 10
64.0092420574124645
 20
31.3945566404538283
 30
0.0
 11
63.9076294841603172
 21
31.4970957580617892
 31
0.0
  0
LINE
  5
1815C
  8
0
 10
63.8666325011565732
 20
31.5658563614261212
 30
0.0
 11
63.8241378282192429
 21
31.7058467085068507
 31
0.0
  0
LINE
  5
1815D
  8
0
 10
64.9018711153938028
 20
29.9581370757171612
 30
0.0
 11
64.9710477761180698
 21
29.8773283439518309
 31
0.0
  0
LINE
  5
1815E
  8
0
 10
64.9748988138265986
 20
29.8798325995424783
 30
0.0
 11
64.9029951753244916
 21
29.9588135691029684
 31
0.0
  0
LINE
  5
1815F
  8
0
 10
64.9101076307180449
 20
29.9630940606518408
 30
0.0
 11
64.9674942599671681
 21
29.8941017087775585
 31
0.0
  0
LINE
  5
18160
  8
0
 10
64.9240645714241396
 20
29.9714944974246293
 30
0.0
 11
64.9922757786188754
 21
29.8727866667487092
 31
0.0
  0
LINE
  5
18161
  8
0
 10
64.9400435809420742
 20
29.9593524191608616
 30
0.0
 11
65.131836957118054
 21
29.7134842071518399
 31
0.0
  0
LINE
  5
18162
  8
0
 10
64.9222115426405679
 20
29.9916683753944611
 30
0.0
 11
65.013077919642754
 21
29.9032455875364498
 31
0.0
  0
LINE
  5
18163
  8
0
 10
65.0687427615180667
 20
29.7599807984518314
 30
0.0
 11
65.1902376598047226
 21
29.6058560044868813
 31
0.0
  0
LINE
  5
18164
  8
0
 10
65.0713488195180645
 20
29.7615448824518296
 30
0.0
 11
65.1902376598047226
 21
29.6058560044868813
 31
0.0
  0
LINE
  5
18165
  8
0
 10
65.0766378050515186
 20
29.7648106211214696
 30
0.0
 11
65.1429013925845481
 21
29.6958339016118806
 31
0.0
  0
LINE
  5
18166
  8
0
 10
64.8582555892670172
 20
30.074479834901009
 30
0.0
 11
64.792098788418059
 21
30.192262956451831
 31
0.0
  0
LINE
  5
18167
  8
0
 10
64.8108105273627046
 20
30.181960204330661
 30
0.0
 11
64.9671739980952623
 21
29.9765924050106491
 31
0.0
  0
LINE
  5
18168
  8
0
 10
64.7670666251367351
 20
30.1772356689542001
 30
0.0
 11
64.8232194754754971
 21
30.1068404238249805
 31
0.0
  0
LINE
  5
18169
  8
0
 10
64.7423651659180734
 20
30.1737318203518292
 30
0.0
 11
64.8262422700155554
 21
30.08914372964799
 31
0.0
  0
LINE
  5
1816A
  8
0
 10
64.7311819554991672
 20
30.1770866906494284
 30
0.0
 11
64.8126273840180716
 21
30.0802883284518394
 31
0.0
  0
LINE
  5
1816B
  8
0
 10
64.7258501743454104
 20
30.1738373630479799
 30
0.0
 11
64.8043101181124541
 21
30.0748786038165505
 31
0.0
  0
LINE
  5
1816C
  8
0
 10
64.5654735648692224
 20
30.3761150408276706
 30
0.0
 11
64.6560346983784342
 21
30.2618932969697489
 31
0.0
  0
LINE
  5
1816D
  8
0
 10
64.5739727206652105
 20
30.3816922218673611
 30
0.0
 11
64.6615096142514147
 21
30.2654018384691916
 31
0.0
  0
LINE
  5
1816E
  8
0
 10
64.5891826866656658
 20
30.3910303568644089
 30
0.0
 11
64.6660173516336556
 21
30.2682631029906304
 31
0.0
  0
LINE
  5
1816F
  8
0
 10
64.6067965725180642
 20
30.3789443455518402
 30
0.0
 11
64.6730584290309736
 21
30.2955502480580208
 31
0.0
  0
LINE
  5
18170
  8
0
 10
64.6974091140278347
 20
30.3113884355644316
 30
0.0
 11
64.5895597353506616
 21
30.4107792505642003
 31
0.0
  0
LINE
  5
18171
  8
0
 10
64.5393774719180726
 20
30.4765106766518414
 30
0.0
 11
64.4681556993922129
 21
30.6183791500650102
 31
0.0
  0
LINE
  5
18172
  8
0
 10
64.4913202860680599
 20
30.6047158293018384
 30
0.0
 11
64.6987959088335742
 21
30.3321535240749505
 31
0.0
  0
LINE
  5
18173
  8
0
 10
64.7349348848180597
 20
30.2977096019518406
 30
0.0
 11
64.6266642035855909
 21
30.5206931065562799
 31
0.0
  0
LINE
  5
18174
  8
0
 10
64.6445942968798164
 20
30.4837660733546691
 30
0.0
 11
64.4738349984562262
 21
30.6399302914454701
 31
0.0
  0
LINE
  5
18175
  8
0
 10
64.4411869468244305
 20
30.6021485361430301
 30
0.0
 11
64.516984718616925
 21
30.4972837295582089
 31
0.0
  0
LINE
  5
18176
  8
0
 10
64.5215374502063668
 20
30.4804601714011909
 30
0.0
 11
64.4120651230393548
 21
30.6015327773911991
 31
0.0
  0
LINE
  5
18177
  8
0
 10
64.4163228402180721
 20
30.5858869417518413
 30
0.0
 11
64.5064893735380736
 21
30.4708584156224482
 31
0.0
  0
LINE
  5
18178
  8
0
 10
64.3985907180180561
 20
30.7328505280518414
 30
0.0
 11
64.3374046114557245
 21
30.8214188802811613
 31
0.0
  0
LINE
  5
18179
  8
0
 10
64.2889143046645586
 20
30.823519853651181
 30
0.0
 11
64.4023155726226264
 21
30.7084118701165885
 31
0.0
  0
LINE
  5
1817A
  8
0
 10
64.3764220177180562
 20
30.6917493733518398
 30
0.0
 11
64.3021569709023453
 21
30.794493465533531
 31
0.0
  0
LINE
  5
1817B
  8
0
 10
64.285665716111339
 20
30.8067303304103497
 30
0.0
 11
64.3642361962828318
 21
30.6674601106203291
 31
0.0
  0
LINE
  5
1817C
  8
0
 10
64.2705617465828425
 20
30.7974598046449692
 30
0.0
 11
64.3428114296180667
 21
30.6925782241518483
 31
0.0
  0
LINE
  5
1817D
  8
0
 10
64.2937209342717182
 20
30.8687526776691392
 30
0.0
 11
64.3513276215274459
 21
30.7609949538283587
 31
0.0
  0
LINE
  5
1817E
  8
0
 10
64.1337419927984911
 20
31.0058981527696709
 30
0.0
 11
64.2222009204276674
 21
30.8988801098804409
 31
0.0
  0
LINE
  5
1817F
  8
0
 10
64.2174902137672348
 20
30.9172467609933115
 30
0.0
 11
64.1475753693151631
 21
31.0236507870791201
 31
0.0
  0
LINE
  5
18180
  8
0
 10
64.1742295401620026
 20
31.0400106069350592
 30
0.0
 11
64.2408967344770758
 21
30.8932883248073082
 31
0.0
  0
LINE
  5
18181
  8
0
 10
64.1891635260489437
 20
31.0340469089187394
 30
0.0
 11
64.2639930620524495
 21
30.9176664724505805
 31
0.0
  0
LINE
  5
18182
  8
0
 10
64.1931591179541527
 20
31.0300738438551313
 30
0.0
 11
64.2578459497573959
 21
30.9363365786097404
 31
0.0
  0
LINE
  5
18183
  8
0
 10
64.1932124114636053
 20
31.0435521123706195
 30
0.0
 11
64.2709234044669699
 21
30.9523088773406592
 31
0.0
  0
LINE
  5
18184
  8
0
 10
64.1841781098593742
 20
31.0606124107655006
 30
0.0
 11
64.2889641471196569
 21
30.9640429498216498
 31
0.0
  0
LINE
  5
18185
  8
0
 10
64.3026911955933826
 20
31.0383288746128905
 30
0.0
 11
64.3238665437555852
 21
30.9584592758526611
 31
0.0
  0
LINE
  5
18186
  8
0
 10
64.0033986019752206
 20
31.2544226092085182
 30
0.0
 11
64.1129022601126337
 21
31.1333157709578394
 31
0.0
  0
LINE
  5
18187
  8
0
 10
64.0169967349456925
 20
31.2223795761774916
 30
0.0
 11
64.0865614393846386
 21
31.1165084318246308
 31
0.0
  0
LINE
  5
18188
  8
0
 10
64.0015267281588507
 20
31.2347432971015486
 30
0.0
 11
64.0674333847751427
 21
31.1054419514259415
 31
0.0
  0
LINE
  5
18189
  8
0
 10
63.6637280128080718
 20
32.0592567415498593
 30
0.0
 11
63.7524749733429772
 21
31.8391811752390907
 31
0.0
  0
LINE
  5
1818A
  8
0
 10
63.8097372533118232
 20
31.6971816226186185
 30
0.0
 11
63.8582144950983306
 21
31.5769672921779296
 31
0.0
  0
LINE
  5
1818B
  8
0
 10
63.8998371032609285
 20
31.4737511481263184
 30
0.0
 11
63.9611547808447085
 21
31.3216949814951384
 31
0.0
  0
LINE
  5
1818C
  8
0
 10
63.8732072267801527
 20
31.4574062397004788
 30
0.0
 11
63.9380613262051511
 21
31.3484998051241917
 31
0.0
  0
LINE
  5
1818D
  8
0
 10
63.8608181999119324
 20
31.4371958341581603
 30
0.0
 11
63.942381337274071
 21
31.3292448531414003
 31
0.0
  0
LINE
  5
1818E
  8
0
 10
63.9183115191213176
 20
31.4629996956578708
 30
0.0
 11
63.9774946105765707
 21
31.368393149648881
 31
0.0
  0
LINE
  5
1818F
  8
0
 10
63.7225843969151029
 20
31.9133041141552489
 30
0.0
 11
63.7537326297534577
 21
31.8609250983244685
 31
0.0
  0
LINE
  5
18190
  8
0
 10
63.8492796706107768
 20
31.7002527419946603
 30
0.0
 11
64.0156718032724541
 21
31.4204469438285692
 31
0.0
  0
LINE
  5
18191
  8
0
 10
63.7859404417719489
 20
31.6903627722310901
 30
0.0
 11
63.8425760961544313
 21
31.5901480858198198
 31
0.0
  0
LINE
  5
18192
  8
0
 10
63.7456784243683785
 20
31.6868080572933195
 30
0.0
 11
63.8427223028971866
 21
31.5696927298129708
 31
0.0
  0
LINE
  5
18193
  8
0
 10
63.7512103177836309
 20
31.6622700742021088
 30
0.0
 11
63.8163580511891766
 21
31.5528704400158695
 31
0.0
  0
LINE
  5
18194
  8
0
 10
63.736755599328319
 20
31.6745262670718013
 30
0.0
 11
63.7935027002935371
 21
31.5500349632774792
 31
0.0
  0
LINE
  5
18195
  8
0
 10
63.6539083445456129
 20
31.9428103736144493
 30
0.0
 11
63.7498213471599797
 21
31.8374551114710904
 31
0.0
  0
LINE
  5
18196
  8
0
 10
63.6642898907860229
 20
31.9056202810306893
 30
0.0
 11
63.717376326638572
 21
31.81168496601558
 31
0.0
  0
LINE
  5
18197
  8
0
 10
63.6447384166928174
 20
31.9201166985590987
 30
0.0
 11
63.6964675208036297
 21
31.7736930085797304
 31
0.0
  0
LINE
  5
18198
  8
0
 10
63.617795978005951
 20
31.9039019211716095
 30
0.0
 11
63.6783486791462465
 21
31.7921251871466701
 31
0.0
  0
LINE
  5
18199
  8
0
 10
63.5927335573982901
 20
31.9008525854265201
 30
0.0
 11
63.681614088180531
 21
31.77188526726923
 31
0.0
  0
LINE
  5
1819A
  8
0
 10
63.6039220900967095
 20
31.8731765396078011
 30
0.0
 11
63.6666740516198288
 21
31.7623524488615487
 31
0.0
  0
LINE
  5
1819B
  8
0
 10
63.5930174734163174
 20
31.8874583960590599
 30
0.0
 11
63.6375205348929711
 21
31.8001481272262083
 31
0.0
  0
LINE
  5
1819C
  8
0
 10
63.4760452363140999
 20
32.117304545459632
 30
0.0
 11
63.5334185632180635
 21
32.0045192087518302
 31
0.0
  0
LINE
  5
1819D
  8
0
 10
63.4912582087871513
 20
32.1266419767384903
 30
0.0
 11
63.5507400903345427
 21
31.9791380268968091
 31
0.0
  0
LINE
  5
1819E
  8
0
 10
63.5047176864452396
 20
32.1146009731537632
 30
0.0
 11
63.5655862991770775
 21
32.0011844270969377
 31
0.0
  0
LINE
  5
1819F
  8
0
 10
63.4951792873722809
 20
32.1460163018307412
 30
0.0
 11
63.5919709623386993
 21
32.0183455558819219
 31
0.0
  0
LINE
  5
181A0
  8
0
 10
63.2375329996367768
 20
32.7402380728098024
 30
0.0
 11
63.349935189137689
 21
32.5183278621217369
 31
0.0
  0
LINE
  5
181A1
  8
0
 10
63.5433357244531578
 20
32.2516479974592016
 30
0.0
 11
63.6135702818918602
 21
32.0149273443144011
 31
0.0
  0
LINE
  5
181A2
  8
0
 10
63.4156546669124168
 20
32.3584773597587088
 30
0.0
 11
63.4577157140267332
 21
32.2199140667973225
 31
0.0
  0
LINE
  5
181A3
  8
0
 10
63.422721967177111
 20
32.3924427761572815
 30
0.0
 11
63.5456185544317833
 21
32.2439538790185765
 31
0.0
  0
LINE
  5
181A4
  8
0
 10
63.2741825375080111
 20
32.6052893628263689
 30
0.0
 11
63.349931992500423
 21
32.4956743927304501
 31
0.0
  0
LINE
  5
181A5
  8
0
 10
63.2870961333336979
 20
32.5608541311748709
 30
0.0
 11
63.3258508104684665
 21
32.4800114956552903
 31
0.0
  0
LINE
  5
181A6
  8
0
 10
63.2724841779106129
 20
32.5717390827087669
 30
0.0
 11
63.3118656948386729
 21
32.4595434142028623
 31
0.0
  0
LINE
  5
181A7
  8
0
 10
63.2587738754004079
 20
32.5634878064910467
 30
0.0
 11
63.3107117522287126
 21
32.4482115919693612
 31
0.0
  0
LINE
  5
181A8
  8
0
 10
63.3911748947538811
 20
32.3437446897917482
 30
0.0
 11
63.4375066632620985
 21
32.2470959818392018
 31
0.0
  0
LINE
  5
181A9
  8
0
 10
63.363555239354163
 20
32.3493390061429835
 30
0.0
 11
63.4402044534600975
 21
32.22686902551348
 31
0.0
  0
LINE
  5
181AA
  8
0
 10
63.3593297635051727
 20
32.3467455604459033
 30
0.0
 11
63.4252562067505608
 21
32.2171463755995333
 31
0.0
  0
LINE
  5
181AB
  8
0
 10
63.2514769323941124
 20
32.5590962846960181
 30
0.0
 11
63.3084882532573019
 21
32.4467928396199525
 31
0.0
  0
LINE
  5
181AC
  8
0
 10
63.1858722945833904
 20
32.822764709288947
 30
0.0
 11
63.2255362274148567
 21
32.7046654337679712
 31
0.0
  0
LINE
  5
181AD
  8
0
 10
63.0837826603722931
 20
32.985888437263327
 30
0.0
 11
63.2054268114224769
 21
32.7309093447182988
 31
0.0
  0
LINE
  5
181AE
  8
0
 10
63.1458953204360895
 20
32.8248129791425214
 30
0.0
 11
63.2095944980584719
 21
32.711256112215743
 31
0.0
  0
LINE
  5
181AF
  8
0
 10
63.159452984233809
 20
32.7839302949532794
 30
0.0
 11
63.1961395061568183
 21
32.7025047081877531
 31
0.0
  0
LINE
  5
181B0
  8
0
 10
63.1496027161375224
 20
32.7971721900989905
 30
0.0
 11
63.1889799825206282
 21
32.697848006463488
 31
0.0
  0
LINE
  5
181B1
  8
0
 10
63.0377034367651987
 20
33.0271819996910523
 30
0.0
 11
63.0857672113577124
 21
32.9358970674258984
 31
0.0
  0
LINE
  5
181B2
  8
0
 10
63.0570540648439817
 20
33.0285995128433001
 30
0.0
 11
63.0936782438779531
 21
32.9294581376806335
 31
0.0
  0
LINE
  5
181B3
  8
0
 10
65.9367646999691459
 20
30.0997653656706916
 30
0.0
 11
63.7221215664180818
 21
33.6383318688518216
 31
0.0
  0
LINE
  5
181B4
  8
0
 10
65.9367646999691885
 20
30.0997653656705886
 30
0.0
 11
63.7221215664180676
 21
33.6383318688518429
 31
0.0
  0
LINE
  5
181B5
  8
0
 10
65.6729033839981753
 20
24.3887557953572198
 30
0.0
 11
65.6762436866550132
 21
24.3086183520563317
 31
0.0
  0
ENDSEC
  0
EOF
