  0
SECTION
  2
HEADER
  9
$ACADVER
  1
AC1009
  9
$INSBASE
 10
4328.6148775427882356
 20
416.0845231039216969
 30
0.0
  9
$EXTMIN
 10
4312.7522334348050208
 20
408.0643801830165103
 30
-0.0015258207003583
  9
$EXTMAX
 10
4344.5816368321266054
 20
418.5962624205748739
 30
0.0000000349246037
  9
$LIMMIN
 10
0.0
 20
0.0
  9
$LIMMAX
 10
11.6929133858000007
 20
8.2677165353999982
  9
$ORTHOMODE
 70
     0
  9
$REGENMODE
 70
     1
  9
$FILLMODE
 70
     1
  9
$QTEXTMODE
 70
     0
  9
$MIRRTEXT
 70
     0
  9
$DRAGMODE
 70
     2
  9
$LTSCALE
 40
0.6431102362
  9
$OSMODE
 70
     3
  9
$ATTMODE
 70
     1
  9
$TEXTSIZE
 40
0.2
  9
$TRACEWID
 40
0.05
  9
$TEXTSTYLE
  7
STANDARD
  9
$CLAYER
  8
0
  9
$CELTYPE
  6
BYLAYER
  9
$CECOLOR
 62
   256
  9
$DIMSCALE
 40
1.0
  9
$DIMASZ
 40
0.1875
  9
$DIMEXO
 40
0.0625
  9
$DIMDLI
 40
0.4443307087
  9
$DIMRND
 40
0.0
  9
$DIMDLE
 40
0.0
  9
$DIMEXE
 40
0.125
  9
$DIMTP
 40
0.01
  9
$DIMTM
 40
0.01
  9
$DIMTXT
 40
2.0
  9
$DIMCEN
 40
0.1052362205
  9
$DIMTSZ
 40
0.0
  9
$DIMTOL
 70
     1
  9
$DIMLIM
 70
     0
  9
$DIMTIH
 70
     1
  9
$DIMTOH
 70
     1
  9
$DIMSE1
 70
     0
  9
$DIMSE2
 70
     0
  9
$DIMTAD
 70
     0
  9
$DIMZIN
 70
     0
  9
$DIMBLK
  1

  9
$DIMASO
 70
     1
  9
$DIMSHO
 70
     1
  9
$DIMPOST
  1
\X
  9
$DIMAPOST
  1

  9
$DIMALT
 70
     1
  9
$DIMALTD
 70
     2
  9
$DIMALTF
 40
25.3999999999999986
  9
$DIMLFAC
 40
1.0
  9
$DIMTOFL
 70
     0
  9
$DIMTVP
 40
0.0
  9
$DIMTIX
 70
     0
  9
$DIMSOXD
 70
     0
  9
$DIMSAH
 70
     0
  9
$DIMBLK1
  1

  9
$DIMBLK2
  1

  9
$DIMSTYLE
  2
STANDARD
  9
$DIMCLRD
 70
     0
  9
$DIMCLRE
 70
     0
  9
$DIMCLRT
 70
     0
  9
$DIMTFAC
 40
1.0
  9
$DIMGAP
 40
0.09
  9
$LUNITS
 70
     2
  9
$LUPREC
 70
     4
  9
$SKETCHINC
 40
0.1
  9
$FILLETRAD
 40
0.0
  9
$AUNITS
 70
     0
  9
$AUPREC
 70
     0
  9
$MENU
  1
.
  9
$ELEVATION
 40
0.0
  9
$PELEVATION
 40
0.0
  9
$THICKNESS
 40
0.0
  9
$LIMCHECK
 70
     0
  9
$BLIPMODE
 70
     0
  9
$CHAMFERA
 40
0.0
  9
$CHAMFERB
 40
0.0
  9
$SKPOLY
 70
     0
  9
$TDCREATE
 40
2458060.468368056230247
  9
$TDUPDATE
 40
2459166.4313310189172626
  9
$TDINDWG
 40
1.1408172454000001
  9
$TDUSRTIMER
 40
1.1408172454000001
  9
$USRTIMER
 70
     1
  9
$ANGBASE
 50
0.0
  9
$ANGDIR
 70
     0
  9
$PDMODE
 70
     0
  9
$PDSIZE
 40
0.3125
  9
$PLINEWID
 40
0.0
  9
$COORDS
 70
     1
  9
$SPLFRAME
 70
     0
  9
$SPLINETYPE
 70
     6
  9
$SPLINESEGS
 70
     8
  9
$ATTDIA
 70
     1
  9
$ATTREQ
 70
     1
  9
$HANDLING
 70
     1
  9
$HANDSEED
  5
1728C
  9
$SURFTAB1
 70
     6
  9
$SURFTAB2
 70
     6
  9
$SURFTYPE
 70
     6
  9
$SURFU
 70
     6
  9
$SURFV
 70
     6
  9
$UCSNAME
  2

  9
$UCSORG
 10
0.0
 20
0.0
 30
0.0
  9
$UCSXDIR
 10
1.0
 20
0.0
 30
0.0
  9
$UCSYDIR
 10
0.0
 20
1.0
 30
0.0
  9
$PUCSNAME
  2

  9
$PUCSORG
 10
0.0
 20
0.0
 30
0.0
  9
$PUCSXDIR
 10
1.0
 20
0.0
 30
0.0
  9
$PUCSYDIR
 10
0.0
 20
1.0
 30
0.0
  9
$USERI1
 70
     0
  9
$USERI2
 70
     0
  9
$USERI3
 70
     0
  9
$USERI4
 70
     0
  9
$USERI5
 70
     0
  9
$USERR1
 40
0.0
  9
$USERR2
 40
0.0
  9
$USERR3
 40
0.0
  9
$USERR4
 40
0.0
  9
$USERR5
 40
0.0
  9
$WORLDVIEW
 70
     1
  9
$SHADEDGE
 70
     3
  9
$SHADEDIF
 70
    70
  9
$TILEMODE
 70
     1
  9
$MAXACTVP
 70
    64
  9
$PLIMCHECK
 70
     0
  9
$PEXTMIN
 10
1.0000000000000000E+20
 20
1.0000000000000000E+20
 30
1.0000000000000000E+20
  9
$PEXTMAX
 10
-1.0000000000000000E+20
 20
-1.0000000000000000E+20
 30
-1.0000000000000000E+20
  9
$PLIMMIN
 10
0.0
 20
0.0
  9
$PLIMMAX
 10
12.0
 20
9.0
  9
$UNITMODE
 70
     0
  9
$VISRETAIN
 70
     1
  9
$PLINEGEN
 70
     0
  9
$PSLTSCALE
 70
     1
  0
ENDSEC
  0
SECTION
  2
TABLES
  0
TABLE
  2
VPORT
 70
     1
  0
VPORT
  2
*ACTIVE
 70
     0
 10
0.0
 20
0.0
 11
1.0
 21
1.0
 12
417.3015786881533131
 22
280.7507161992567148
 13
0.0
 23
0.0
 14
1.0
 24
1.0
 15
0.0
 25
0.0
 16
0.0
 26
0.0
 36
60.4960186965801583
 17
3911.3653564453120453
 27
132.5796051025390057
 37
0.0
 40
16.5717076645343901
 41
1.9267068273092369
 42
50.0
 43
0.0
 44
0.0
 50
0.0
 51
0.0
 71
     0
 72
   100
 73
     1
 74
     1
 75
     0
 76
     0
 77
     0
 78
     0
  0
ENDTAB
  0
TABLE
  2
LTYPE
 70
     2
  0
LTYPE
  2
CONTINUOUS
 70
     0
  3
Solid line
 72
    65
 73
     0
 40
0.0
  0
LTYPE
  2
PHANTOM2
 70
     0
  3
___ _ _ ___ _ _ ___ _ _ ___ _ _
 72
    65
 73
     6
 40
1.25
 49
0.625
 49
-0.125
 49
0.125
 49
-0.125
 49
0.125
 49
-0.125
  0
ENDTAB
  0
TABLE
  2
LAYER
 70
     2
  0
LAYER
  2
0
 70
     0
 62
   255
  6
CONTINUOUS
  0
LAYER
  2
DEFPOINTS
 70
     0
 62
     7
  6
CONTINUOUS
  0
ENDTAB
  0
TABLE
  2
STYLE
 70
     1
  0
STYLE
  2
STANDARD
 70
     0
 40
0.0
 41
0.8
 50
0.0
 71
     0
 42
0.2
  3
txt
  4

  0
ENDTAB
  0
TABLE
  2
VIEW
 70
     0
  0
ENDTAB
  0
TABLE
  2
UCS
 70
     0
  0
ENDTAB
  0
TABLE
  2
APPID
 70
    11
  0
APPID
  2
ACAD
 70
     0
  0
APPID
  2
ACAD_MLEADERVER
 70
     0
  0
APPID
  2
ACAD_EXEMPT_FROM_CAD_STANDARDS
 70
     0
  0
APPID
  2
ACAD_NAV_VCDISPLAY
 70
     0
  0
APPID
  2
ACAECLAYERSTANDARD
 70
     0
  0
APPID
  2
ACCMTRANSPARENCY
 70
     0
  0
APPID
  2
ACAD_DSTYLE_DIMJAG
 70
     0
  0
APPID
  2
ACAD_DSTYLE_DIMTALN
 70
     0
  0
APPID
  2
ACDBATTR
 70
     0
  0
APPID
  2
ACADANNOTATIVE
 70
     0
  0
APPID
  2
DCO15
 70
     0
  0
ENDTAB
  0
TABLE
  2
DIMSTYLE
 70
     1
  0
DIMSTYLE
  2
STANDARD
 70
     0
  3

  4

  5

  6

  7

 40
1.0
 41
0.1875
 42
0.0625
 43
0.38
 44
0.125
 45
0.0
 46
0.0
 47
0.01
 48
0.01
140
0.15625
141
0.09
142
0.0
143
25.3999999999999986
144
1.0
145
0.0
146
1.0
147
0.09
 71
     1
 72
     0
 73
     1
 74
     1
 75
     0
 76
     0
 77
     0
 78
     4
170
     0
171
     2
172
     0
173
     0
174
     0
175
     0
176
     0
177
     0
178
     0
  0
ENDTAB
  0
ENDSEC
  0
SECTION
  2
BLOCKS
  0
BLOCK
  8
0
  2
$MODEL_SPACE
 70
     0
 10
0.0
 20
0.0
 30
0.0
  3
$MODEL_SPACE
  1

  0
ENDBLK
  5
21
  8
0
  0
BLOCK
 67
     1
  8
0
  2
$PAPER_SPACE
 70
     0
 10
0.0
 20
0.0
 30
0.0
  3
$PAPER_SPACE
  1

  0
ENDBLK
  5
1D
 67
     1
  8
0
  0
ENDSEC
  0
SECTION
  2
ENTITIES
  0
ATTDEF
  5
159BF
  8
0
 10
4328.615889168875583
 20
416.0887284973346141
 30
0.0
 40
0.001
  1
K-3581T-2FD
  3

  2
MODELNUMBER
 70
     0
1001
ACDBATTR
1070
     0
1070
     1
  0
ATTDEF
  5
159C0
  8
0
 10
4328.6157633592201819
 20
416.0870616569554272
 30
0.0
 40
0.001
  1
VAULT
  3

  2
TRADENAME
 70
     0
1001
ACDBATTR
1070
     0
1070
     1
  0
ATTDEF
  5
159C1
  8
0
 10
4328.615889168875583
 20
416.0853951640012269
 30
0.0
 40
0.001
  1
KITCHEN SINK
  3

  2
PRODUCT
 70
     0
1001
ACDBATTR
1070
     0
1070
     1
  0
LINE
  5
1718B
  8
0
 10
4312.8668460467379191
 20
416.0845231039216969
 30
0.0
 11
4312.8668460467379191
 21
416.1640191669216051
 31
0.0
  0
LINE
  5
1718C
  8
0
 10
4344.3629090388376426
 20
416.0845231039216969
 30
0.0
 11
4344.3629090388376426
 21
416.1640191669216051
 31
0.0
  0
LINE
  5
1718D
  8
0
 10
4320.0675978547378691
 20
408.0845388519215931
 30
0.0
 11
4323.6188501442384222
 21
408.0845388519215931
 31
0.0
  0
LINE
  5
1718E
  8
0
 10
4335.3038183271391972
 20
408.0845388519215931
 30
0.0
 11
4338.8550706166388409
 21
408.0845388519215931
 31
0.0
  0
LINE
  5
1718F
  8
0
 10
4344.3629090388376426
 20
416.0845231039216969
 30
0.0
 11
4312.8668460467379191
 21
416.0845231039216969
 31
0.0
  0
LINE
  5
17190
  8
0
 10
4313.4259011648382511
 20
415.525467985821706
 30
0.0
 11
4313.4573972278376459
 21
415.525467985821706
 31
0.0
  0
LINE
  5
17191
  8
0
 10
4314.6384995900389185
 20
415.525467985821706
 30
0.0
 11
4342.5912554955393716
 21
415.525467985821706
 31
0.0
  0
LINE
  5
17192
  8
0
 10
4343.7723578577388253
 20
415.525467985821706
 30
0.0
 11
4343.80385392073822
 21
415.525467985821706
 31
0.0
  0
LINE
  5
17193
  8
0
 10
4344.3629090388376426
 20
416.1640191669216051
 30
0.0
 11
4312.8668460467379191
 21
416.1640191669216051
 31
0.0
  0
LINE
  5
17194
  8
0
 10
4313.9212082514377471
 20
416.0460191669216101
 30
0.0
 11
4313.9212082514377471
 21
408.6023623872216035
 31
0.0
  0
LINE
  5
17195
  8
0
 10
4314.042060723438226
 20
408.4750831491215877
 30
0.0
 11
4319.457899270038979
 21
408.2446329881216229
 31
0.0
  0
LINE
  5
17196
  8
0
 10
4319.529682380538361
 20
408.2128438891215865
 30
0.0
 11
4319.5384492303383013
 21
408.2040770393215894
 31
0.0
  0
LINE
  5
17197
  8
0
 10
4319.6285387241377975
 20
408.1577153737216008
 30
0.0
 11
4320.0675978547378691
 21
408.0845388519215931
 31
0.0
  0
ARC
  5
17198
  8
0
 10
4319.4526167527737925
 20
408.1357630763116049
 30
0.0
 40
0.1089979939547694
 50
45.0056442368777567
 51
87.2221089382160528
  0
ARC
  5
17199
  8
0
 10
4319.6558289558079196
 20
408.3214567648853972
 30
0.0
 40
0.1659999997736394
 50
225.0000000228523049
 51
260.537677856840503
  0
ARC
  5
1719A
  8
0
 10
4314.0482803330451134
 20
408.6020034360192881
 30
0.0
 40
0.1270725885855495
 50
179.8381522204905139
 51
267.1945183255875804
  0
LINE
  5
1719B
  8
0
 10
4329.7652397475394537
 20
409.0380349149215817
 30
0.0
 11
4329.7652397475394537
 21
414.8649168046216005
 31
0.0
  0
LINE
  5
1719C
  8
0
 10
4329.8352397475382531
 20
414.9349168046215937
 30
0.0
 11
4330.78034210973874
 21
414.9349168046215937
 31
0.0
  0
LINE
  5
1719D
  8
0
 10
4330.8503421097384489
 20
414.8649168046216005
 30
0.0
 11
4330.8503421097384489
 21
409.0380349149215817
 31
0.0
  0
LINE
  5
1719E
  8
0
 10
4327.3550350231380435
 20
408.4361409930216951
 30
0.0
 11
4327.3550350231380435
 21
409.0380349149215817
 31
0.0
  0
LINE
  5
1719F
  8
0
 10
4327.3550350231380435
 20
409.0380349149215817
 30
0.0
 11
4333.2605468341380401
 21
409.0380349149215817
 31
0.0
  0
LINE
  5
171A0
  8
0
 10
4333.2605468341380401
 20
409.0380349149215817
 30
0.0
 11
4333.2605468341380401
 21
408.4361409930216951
 31
0.0
  0
LINE
  5
171A1
  8
0
 10
4333.2605468341380401
 20
408.4361409930216951
 30
0.0
 11
4327.3550350231380435
 21
408.4361409930216951
 31
0.0
  0
ARC
  5
171A2
  8
0
 10
4329.8352397475382531
 20
414.8649168046216005
 30
0.0
 40
0.0699999999999976
 50
90.0
 51
180.0
  0
ARC
  5
171A3
  8
0
 10
4330.78034210973874
 20
414.8649168046216005
 30
0.0
 40
0.0700000000000003
 50
0.0
 51
90.0
  0
LINE
  5
171A4
  8
0
 10
4313.4259011648382511
 20
416.0372790094216953
 30
0.0
 11
4313.4259011648382511
 21
415.525467985821706
 31
0.0
  0
LINE
  5
171A5
  8
0
 10
4313.4573972278376459
 20
416.0372790094216953
 30
0.0
 11
4313.4573972278376459
 21
415.525467985821706
 31
0.0
  0
ARC
  5
171A6
  8
0
 10
4313.3786570703377947
 20
416.0372790094216953
 30
0.0
 40
0.078740157500004
 50
0.0
 51
36.8785442013872071
  0
ARC
  5
171A7
  8
0
 10
4313.3786570703377947
 20
416.0372790094216953
 30
0.0
 40
0.0472440945000052
 50
0.0000000000065138
 51
90.0
  0
LINE
  5
171A8
  8
0
 10
4314.4416491963384033
 20
416.0845231039216969
 30
0.0
 11
4314.4416491963384033
 21
415.7223183795215959
 31
0.0
  0
LINE
  5
171A9
  8
0
 10
4314.4416491963384033
 20
415.7223183795215959
 30
0.0
 11
4314.6384995900389185
 21
415.525467985821706
 31
0.0
  0
ARC
  5
171AA
  8
0
 10
4313.8512082514380381
 20
416.0460191669216101
 30
0.0
 40
0.0700000000000252
 50
0.0000000000065138
 51
33.3767557340847887
  0
LINE
  5
171AB
  8
0
 10
4315.3668460467379191
 20
415.9585388519216167
 30
0.0
 11
4315.8786570703387042
 21
415.9585388519216167
 31
0.0
  0
LINE
  5
171AC
  8
0
 10
4315.3668460467379191
 20
415.682948300721705
 30
0.0
 11
4315.8786570703387042
 21
415.682948300721705
 31
0.0
  0
ARC
  5
171AD
  8
0
 10
4315.3668460467379191
 20
415.820743576321604
 30
0.0
 40
0.1377952756000003
 50
90.0
 51
270.0
  0
ARC
  5
171AE
  8
0
 10
4315.8786570703387042
 20
415.820743576321604
 30
0.0
 40
0.1377952756000003
 50
270.0
 51
90.0
  0
LINE
  5
171AF
  8
0
 10
4323.6345625821377325
 20
415.9585388519216167
 30
0.0
 11
4324.1463736057376082
 21
415.9585388519216167
 31
0.0
  0
LINE
  5
171B0
  8
0
 10
4323.6345625821377325
 20
415.682948300721705
 30
0.0
 11
4324.1463736057376082
 21
415.682948300721705
 31
0.0
  0
ARC
  5
171B1
  8
0
 10
4323.6345625821377325
 20
415.820743576321604
 30
0.0
 40
0.137795275600002
 50
90.0
 51
270.0
  0
ARC
  5
171B2
  8
0
 10
4324.1463736057376082
 20
415.820743576321604
 30
0.0
 40
0.137795275600002
 50
270.0
 51
90.0
  0
LINE
  5
171B3
  8
0
 10
4333.083381479838863
 20
415.9585388519216167
 30
0.0
 11
4333.5951925034378291
 21
415.9585388519216167
 31
0.0
  0
LINE
  5
171B4
  8
0
 10
4333.083381479838863
 20
415.682948300721705
 30
0.0
 11
4333.5951925034378291
 21
415.682948300721705
 31
0.0
  0
ARC
  5
171B5
  8
0
 10
4333.083381479838863
 20
415.820743576321604
 30
0.0
 40
0.137795275600002
 50
90.0
 51
270.0
  0
ARC
  5
171B6
  8
0
 10
4333.5951925034378291
 20
415.820743576321604
 30
0.0
 40
0.137795275600002
 50
270.0
 51
90.0
  0
LINE
  5
171B7
  8
0
 10
4341.351098015237767
 20
415.9585388519216167
 30
0.0
 11
4341.8629090388376426
 21
415.9585388519216167
 31
0.0
  0
LINE
  5
171B8
  8
0
 10
4341.351098015237767
 20
415.682948300721705
 30
0.0
 11
4341.8629090388376426
 21
415.682948300721705
 31
0.0
  0
ARC
  5
171B9
  8
0
 10
4341.351098015237767
 20
415.820743576321604
 30
0.0
 40
0.137795275600002
 50
90.0
 51
270.0
  0
ARC
  5
171BA
  8
0
 10
4341.8629090388376426
 20
415.820743576321604
 30
0.0
 40
0.137795275600002
 50
270.0
 51
90.0
  0
LINE
  5
171BB
  8
0
 10
4342.7881058892389774
 20
416.0845231039216969
 30
0.0
 11
4342.7881058892389774
 21
415.7223183795215959
 31
0.0
  0
LINE
  5
171BC
  8
0
 10
4342.7881058892389774
 20
415.7223183795215959
 30
0.0
 11
4342.5912554955393716
 21
415.525467985821706
 31
0.0
  0
LINE
  5
171BD
  8
0
 10
4343.80385392073822
 20
416.0372790094216953
 30
0.0
 11
4343.80385392073822
 21
415.525467985821706
 31
0.0
  0
LINE
  5
171BE
  8
0
 10
4343.7723578577388253
 20
416.0372790094216953
 30
0.0
 11
4343.7723578577388253
 21
415.525467985821706
 31
0.0
  0
ARC
  5
171BF
  8
0
 10
4343.851098015237767
 20
416.0372790094216953
 30
0.0
 40
0.0472440945000052
 50
90.0
 51
179.9999999999934914
  0
ARC
  5
171C0
  8
0
 10
4343.851098015237767
 20
416.0372790094216953
 30
0.0
 40
0.0787401574999791
 50
143.1214585546044873
 51
180.0000000000032117
  0
LINE
  5
171C1
  8
0
 10
4343.3085468341387241
 20
416.0460191669216101
 30
0.0
 11
4343.3085468341387241
 21
408.6015332051215978
 31
0.0
  0
ARC
  5
171C2
  8
0
 10
4343.378546834138433
 20
416.0460191669216101
 30
0.0
 40
0.0700000000000038
 50
146.6232556175100115
 51
179.9999999999967031
  0
ARC
  5
171C3
  8
0
 10
4343.1815390081310397
 20
408.6005465966932206
 30
0.0
 40
0.1270116579809252
 50
273.5081613307236239
 51
0.4450699123256519
  0
LINE
  5
171C4
  8
0
 10
4323.6188501442384222
 20
408.0845388519215931
 30
0.0
 11
4324.0579092748375842
 21
408.1577153737216008
 31
0.0
  0
LINE
  5
171C5
  8
0
 10
4324.1479987686388995
 20
408.2040770393215894
 30
0.0
 11
4324.1567804912392603
 21
408.2128587620217104
 31
0.0
  0
ARC
  5
171C6
  8
0
 10
4324.0306190431683717
 20
408.3214567648853972
 30
0.0
 40
0.1659999997736441
 50
279.4623221431593834
 51
314.9999999771475814
  0
ARC
  5
171C7
  8
0
 10
4324.2338401072047418
 20
408.1357429734046036
 30
0.0
 40
0.1090184813096598
 50
92.7009799184768184
 51
134.9791247143961073
  0
LINE
  5
171C8
  8
0
 10
4324.2287027710381153
 20
408.2446403427215955
 30
0.0
 11
4328.7292457505382117
 21
408.4361409930216951
 31
0.0
  0
LINE
  5
171C9
  8
0
 10
4331.5842760548375736
 20
408.4361409930216951
 30
0.0
 11
4334.6946966714376686
 21
408.2457197735216141
 31
0.0
  0
LINE
  5
171CA
  8
0
 10
4334.7646974045383104
 20
408.2140493376217023
 30
0.0
 11
4334.7746697027378104
 21
408.2040770393215894
 31
0.0
  0
LINE
  5
171CB
  8
0
 10
4334.8647591965382162
 20
408.1577153737216008
 30
0.0
 11
4335.3038183271391972
 21
408.0845388519215931
 31
0.0
  0
LINE
  5
171CC
  8
0
 10
4338.8550706166388409
 20
408.0845388519215931
 30
0.0
 11
4339.2941297473389568
 21
408.1577153737216008
 31
0.0
  0
LINE
  5
171CD
  8
0
 10
4339.3842192410384087
 20
408.2040770393215894
 30
0.0
 11
4339.3944689256386482
 21
408.2143255608215782
 31
0.0
  0
LINE
  5
171CE
  8
0
 10
4339.4640031949384138
 20
408.2457074135215862
 30
0.0
 11
4343.1893109423381247
 21
408.4737729468217253
 31
0.0
  0
ARC
  5
171CF
  8
0
 10
4339.4712344840272635
 20
408.1369585745514996
 30
0.0
 40
0.1089889972393198
 50
93.8043008491255961
 51
134.7764320021827018
  0
ARC
  5
171D0
  8
0
 10
4339.2668395159043939
 20
408.3214567641733765
 30
0.0
 40
0.1659999990325081
 50
279.4623221031682192
 51
315.0000000688542059
  0
ARC
  5
171D1
  8
0
 10
4334.8920494282083382
 20
408.3214567648853972
 30
0.0
 40
0.1659999997736256
 50
225.0000000228523049
 51
260.537677856840503
  0
ARC
  5
171D2
  8
0
 10
4334.6876334194448646
 20
408.1369119124378244
 30
0.0
 40
0.1090368752411554
 50
45.0272877332899526
 51
86.2858611110186757
  0
LINE
  5
171D3
  8
0
 10
4315.7329877188876708
 20
418.0970901276465952
 30
0.0
 11
4315.7329877188876708
 21
417.4284607902627044
 31
0.0
  0
LINE
  5
171D4
  8
0
 10
4315.5125154671386554
 20
418.0970901276465952
 30
0.0
 11
4315.5125154671386554
 21
417.4284607902627044
 31
0.0
  0
LINE
  5
171D5
  8
0
 10
4316.1877365809377807
 20
418.4199489201216124
 30
0.0
 11
4316.1974327522393651
 21
416.8452427364217101
 31
0.0
  0
LINE
  5
171D6
  8
0
 10
4316.1777457056386993
 20
416.8254364897217101
 30
0.0
 11
4315.0677574114388335
 21
416.8254364897217101
 31
0.0
  0
LINE
  5
171D7
  8
0
 10
4316.0829209209387045
 20
416.8254364897217101
 30
0.0
 11
4316.0865802056378016
 21
416.4061239928216764
 31
0.0
  0
LINE
  5
171D8
  8
0
 10
4316.1011696323394062
 20
416.3872814871216974
 30
0.0
 11
4316.4339521327383409
 21
416.2981126848216036
 31
0.0
  0
LINE
  5
171D9
  8
0
 10
4316.4485393108388962
 20
416.2794419482215744
 30
0.0
 11
4316.4495232120380024
 21
416.2230742850215961
 31
0.0
  0
LINE
  5
171DA
  8
0
 10
4316.4495232120380024
 20
416.2230742850215961
 30
0.0
 11
4314.7959906078376662
 21
416.2230742850215961
 31
0.0
  0
LINE
  5
171DB
  8
0
 10
4316.3904680939376703
 20
416.2230742850215961
 30
0.0
 11
4316.3904680939376703
 21
416.1640191669216051
 31
0.0
  0
ARC
  5
171DC
  8
0
 10
4316.4288572698578719
 20
416.2790983971221976
 30
0.0
 40
0.0196850391027516
 50
0.9999994068811071
 51
75.0000004335354902
  0
ARC
  5
171DD
  8
0
 10
4316.1777480859909701
 20
416.8451215289858283
 30
0.0
 40
0.0196850394081254
 50
269.9930716836959732
 51
0.3527916940035055
  0
LINE
  5
171DE
  8
0
 10
4316.1837907172375708
 20
418.4238616865216045
 30
0.0
 11
4315.0617123999381874
 21
418.4238616865216045
 31
0.0
  0
LINE
  5
171DF
  8
0
 10
4316.1755575873376074
 20
418.4632317653216091
 30
0.0
 11
4316.1758671069383126
 21
418.4277643380216887
 31
0.0
  0
ARC
  5
171E0
  8
0
 10
4316.1798039647337646
 20
418.4277986942399821
 30
0.0
 40
0.0039370077031248
 50
180.4999968113411057
 51
270.0
  0
LINE
  5
171E1
  8
0
 10
4316.1865283446386456
 20
418.4632317653216091
 30
0.0
 11
4315.0589695044382097
 21
418.4632317653216091
 31
0.0
  0
LINE
  5
171E2
  8
0
 10
4316.1937034221382419
 20
418.5518342115216797
 30
0.0
 11
4316.1944073288386789
 21
418.4711744939216942
 31
0.0
  0
LINE
  5
171E3
  8
0
 10
4316.0879379010393677
 20
418.5802911620216946
 30
0.0
 11
4316.1839438109382172
 21
418.5633627298216766
 31
0.0
  0
ARC
  5
171E4
  8
0
 10
4316.0537551890456598
 20
418.3864313695406736
 30
0.0
 40
0.1968503922776193
 50
79.9999999705745211
 51
87.375865022858676
  0
ARC
  5
171E5
  8
0
 10
4316.1818928482416595
 20
418.5517311421800741
 30
0.0
 40
0.0118110236239704
 50
0.5000001198431847
 51
80.0000001602178941
  0
ARC
  5
171E6
  8
0
 10
4316.1865336097707768
 20
418.471105782435302
 30
0.0
 40
0.0078740188739795
 50
269.9616879413457013
 51
0.4999896750812404
  0
ARC
  5
171E7
  8
0
 10
4316.183799630649446
 20
418.4199246716477205
 30
0.0
 40
0.0039370249639729
 50
0.3528918450424293
 51
90.1297175582245842
  0
ARC
  5
171E8
  8
0
 10
4316.1062644952480696
 20
416.4062957748660097
 30
0.0
 40
0.0196850391539158
 50
180.4999995676035098
 51
255.0000003838484872
  0
ARC
  5
171E9
  8
0
 10
4315.5688243085005524
 20
417.4284607902627044
 30
0.0
 40
0.0563088413619392
 50
180.0
 51
218.7282339087873027
  0
ARC
  5
171EA
  8
0
 10
4315.6227495153916607
 20
417.5209588539054835
 30
0.0
 40
0.1660840264002227
 50
247.3100871557190885
 51
292.6899128442807978
  0
ARC
  5
171EB
  8
0
 10
4315.5939412765073939
 20
417.4495700770493158
 30
0.0
 40
0.0891128786317032
 50
219.2130077671073991
 51
246.693407981312788
  0
ARC
  5
171EC
  8
0
 10
4315.6766936146077569
 20
417.4284607902627044
 30
0.0
 40
0.0562941042804662
 50
321.2597362271047814
 51
0.0
  0
ARC
  5
171ED
  8
0
 10
4315.6516138084607519
 20
417.449495816890817
 30
0.0
 40
0.0890225028764206
 50
293.2923688187000266
 51
320.8012154328665133
  0
ARC
  5
171EE
  8
0
 10
4315.6225830485545885
 20
417.3784210577068734
 30
0.0
 40
0.1008618982265078
 50
52.5159018452403288
 51
125.2659300676503022
  0
ARC
  5
171EF
  8
0
 10
4315.623005785647365
 20
417.4849101477799991
 30
0.0
 40
0.1116866209420445
 50
236.5112810562629022
 51
301.5074776566560786
  0
ARC
  5
171F0
  8
0
 10
4315.5848346916645824
 20
417.4253235603067083
 30
0.0
 40
0.0409432718122553
 50
120.0240235157540951
 51
235.0504686513718866
  0
ARC
  5
171F1
  8
0
 10
4315.6606243868873207
 20
417.4249026218853942
 30
0.0
 40
0.0408722382761918
 50
300.5092687511843792
 51
55.1813161747549685
  0
LINE
  5
171F2
  8
0
 10
4315.0577666050885455
 20
418.4199489201216124
 30
0.0
 11
4315.0480704337878706
 21
416.8452427364217101
 31
0.0
  0
LINE
  5
171F3
  8
0
 10
4315.1625822650876216
 20
416.8254364897217101
 30
0.0
 11
4315.1589229803894341
 21
416.4061239928216764
 31
0.0
  0
LINE
  5
171F4
  8
0
 10
4315.1443335536878294
 20
416.3872814871216974
 30
0.0
 11
4314.8115510532879853
 21
416.2981126848216036
 31
0.0
  0
LINE
  5
171F5
  8
0
 10
4314.7969638751874299
 20
416.2794419482215744
 30
0.0
 11
4314.7959906078376662
 21
416.2230742850215961
 31
0.0
  0
LINE
  5
171F6
  8
0
 10
4314.8550350920877463
 20
416.2230742850215961
 30
0.0
 11
4314.8550350920877463
 21
416.1640191669216051
 31
0.0
  0
ARC
  5
171F7
  8
0
 10
4314.8166459161684543
 20
416.2790983971221976
 30
0.0
 40
0.0196850391027516
 50
104.9999995664644956
 51
179.000000593118898
  0
ARC
  5
171F8
  8
0
 10
4315.0677551000217136
 20
416.8451215289802008
 30
0.0
 40
0.0196850393942065
 50
179.6472082891449986
 51
270.0067276692820997
  0
LINE
  5
171F9
  8
0
 10
4315.0699455986887187
 20
418.4632317653216091
 30
0.0
 11
4315.069636079088923
 21
418.4277643380216887
 31
0.0
  0
ARC
  5
171FA
  8
0
 10
4315.0656992212916521
 20
418.4277986942399821
 30
0.0
 40
0.0039370077031248
 50
270.0
 51
359.5000031886589227
  0
LINE
  5
171FB
  8
0
 10
4315.0517997638889938
 20
418.5518342115216797
 30
0.0
 11
4315.0510958571876472
 21
418.4711744939216942
 31
0.0
  0
LINE
  5
171FC
  8
0
 10
4315.1575652849878679
 20
418.5802911620216946
 30
0.0
 11
4315.0615593750881089
 21
418.5633627298216766
 31
0.0
  0
ARC
  5
171FD
  8
0
 10
4315.1917481051659706
 20
418.3864306146739978
 30
0.0
 40
0.1968511544626311
 50
92.6241764208064495
 51
99.9999928873457975
  0
ARC
  5
171FE
  8
0
 10
4315.0636103377846666
 20
418.5517311421800741
 30
0.0
 40
0.0118110236239704
 50
99.9999998397821344
 51
179.4999998801567926
  0
ARC
  5
171FF
  8
0
 10
4315.0589695732705877
 20
418.4711057812211834
 30
0.0
 40
0.0078740158998361
 50
179.5000013010478881
 51
269.9994991322625992
  0
ARC
  5
17200
  8
0
 10
4315.0617035551113077
 20
418.4199246717593041
 30
0.0
 40
0.0039370246976411
 50
89.8712805481239343
 51
179.6471097560352064
  0
ARC
  5
17201
  8
0
 10
4315.1392386907791661
 20
416.4062957748660097
 30
0.0
 40
0.0196850391539158
 50
284.9999996161513991
 51
359.5000004323964049
  0
ARC
  5
17202
  8
0
 10
4315.6227515582386332
 20
408.9824106159152279
 30
0.0
 40
9.6107428106064745
 50
87.3758650126865035
 51
92.6241349837662682
  0
ARC
  5
17203
  8
0
 10
4315.6227515930131631
 20
418.0970901276465952
 30
0.0
 40
0.1102361258749989
 50
0.0
 51
180.0
  0
ARC
  5
17204
  8
0
 10
4315.6227515930131631
 20
418.0970901276465952
 30
0.0
 40
0.1139952193750027
 50
345.2450890282578939
 51
194.7549109717452041
  0
LINE
  5
17206
  8
0
 10
4314.042060723438226
 20
408.4750831491215877
 30
0.0
 11
4327.3550350231380435
 21
408.4750831491215877
 31
0.0
  0
LINE
  5
17207
  8
0
 10
4343.1893109423381247
 20
408.4737729468217253
 30
0.0
 11
4333.2605468341380401
 21
408.4737729468217253
 31
0.0
  0
LINE
  5
17208
  8
0
 10
4315.1443335536878294
 20
416.3872814871216974
 30
0.0
 11
4316.1011696323394062
 21
416.3872814871216974
 31
0.0
  0
LINE
  5
17209
  8
0
 10
4314.8115510532879853
 20
416.2981126848216036
 30
0.0
 11
4316.4339521327383409
 21
416.2981126848216036
 31
0.0
  0
ENDSEC
  0
EOF
