  0
SECTION
  2
HEADER
  9
$ACADVER
  1
AC1009
  9
$INSBASE
 10
4382.0374556362739895
 20
411.4406517237399044
 30
0.0
  9
$EXTMIN
 10
4372.4473242120629948
 20
403.4278685768280752
 30
-0.0000000349181948
  9
$EXTMAX
 10
4391.7891190727814319
 20
413.9598289517891203
 30
0.0000000814935746
  9
$LIMMIN
 10
0.0
 20
0.0
  9
$LIMMAX
 10
11.6929133858000007
 20
8.2677165353999982
  9
$ORTHOMODE
 70
     0
  9
$REGENMODE
 70
     1
  9
$FILLMODE
 70
     1
  9
$QTEXTMODE
 70
     0
  9
$MIRRTEXT
 70
     0
  9
$DRAGMODE
 70
     2
  9
$LTSCALE
 40
0.6431102362
  9
$OSMODE
 70
     3
  9
$ATTMODE
 70
     1
  9
$TEXTSIZE
 40
0.2
  9
$TRACEWID
 40
0.05
  9
$TEXTSTYLE
  7
STANDARD
  9
$CLAYER
  8
0
  9
$CELTYPE
  6
BYLAYER
  9
$CECOLOR
 62
   256
  9
$DIMSCALE
 40
1.0
  9
$DIMASZ
 40
0.1875
  9
$DIMEXO
 40
0.0625
  9
$DIMDLI
 40
0.4443307087
  9
$DIMRND
 40
0.0
  9
$DIMDLE
 40
0.0
  9
$DIMEXE
 40
0.125
  9
$DIMTP
 40
0.01
  9
$DIMTM
 40
0.01
  9
$DIMTXT
 40
2.0
  9
$DIMCEN
 40
0.1052362205
  9
$DIMTSZ
 40
0.0
  9
$DIMTOL
 70
     1
  9
$DIMLIM
 70
     0
  9
$DIMTIH
 70
     1
  9
$DIMTOH
 70
     1
  9
$DIMSE1
 70
     0
  9
$DIMSE2
 70
     0
  9
$DIMTAD
 70
     0
  9
$DIMZIN
 70
     0
  9
$DIMBLK
  1

  9
$DIMASO
 70
     1
  9
$DIMSHO
 70
     1
  9
$DIMPOST
  1
\X
  9
$DIMAPOST
  1

  9
$DIMALT
 70
     1
  9
$DIMALTD
 70
     2
  9
$DIMALTF
 40
25.3999999999999986
  9
$DIMLFAC
 40
1.0
  9
$DIMTOFL
 70
     0
  9
$DIMTVP
 40
0.0
  9
$DIMTIX
 70
     0
  9
$DIMSOXD
 70
     0
  9
$DIMSAH
 70
     0
  9
$DIMBLK1
  1

  9
$DIMBLK2
  1

  9
$DIMSTYLE
  2
STANDARD
  9
$DIMCLRD
 70
     0
  9
$DIMCLRE
 70
     0
  9
$DIMCLRT
 70
     0
  9
$DIMTFAC
 40
1.0
  9
$DIMGAP
 40
0.09
  9
$LUNITS
 70
     2
  9
$LUPREC
 70
     4
  9
$SKETCHINC
 40
0.1
  9
$FILLETRAD
 40
0.0
  9
$AUNITS
 70
     0
  9
$AUPREC
 70
     0
  9
$MENU
  1
.
  9
$ELEVATION
 40
0.0
  9
$PELEVATION
 40
0.0
  9
$THICKNESS
 40
0.0
  9
$LIMCHECK
 70
     0
  9
$BLIPMODE
 70
     0
  9
$CHAMFERA
 40
0.0
  9
$CHAMFERB
 40
0.0
  9
$SKPOLY
 70
     0
  9
$TDCREATE
 40
2458060.468368056230247
  9
$TDUPDATE
 40
2459166.4318402782082558
  9
$TDINDWG
 40
1.1427269676
  9
$TDUSRTIMER
 40
1.1427269676
  9
$USRTIMER
 70
     1
  9
$ANGBASE
 50
0.0
  9
$ANGDIR
 70
     0
  9
$PDMODE
 70
     0
  9
$PDSIZE
 40
0.3125
  9
$PLINEWID
 40
0.0
  9
$COORDS
 70
     1
  9
$SPLFRAME
 70
     0
  9
$SPLINETYPE
 70
     6
  9
$SPLINESEGS
 70
     8
  9
$ATTDIA
 70
     1
  9
$ATTREQ
 70
     1
  9
$HANDLING
 70
     1
  9
$HANDSEED
  5
174D6
  9
$SURFTAB1
 70
     6
  9
$SURFTAB2
 70
     6
  9
$SURFTYPE
 70
     6
  9
$SURFU
 70
     6
  9
$SURFV
 70
     6
  9
$UCSNAME
  2

  9
$UCSORG
 10
0.0
 20
0.0
 30
0.0
  9
$UCSXDIR
 10
1.0
 20
0.0
 30
0.0
  9
$UCSYDIR
 10
0.0
 20
1.0
 30
0.0
  9
$PUCSNAME
  2

  9
$PUCSORG
 10
0.0
 20
0.0
 30
0.0
  9
$PUCSXDIR
 10
1.0
 20
0.0
 30
0.0
  9
$PUCSYDIR
 10
0.0
 20
1.0
 30
0.0
  9
$USERI1
 70
     0
  9
$USERI2
 70
     0
  9
$USERI3
 70
     0
  9
$USERI4
 70
     0
  9
$USERI5
 70
     0
  9
$USERR1
 40
0.0
  9
$USERR2
 40
0.0
  9
$USERR3
 40
0.0
  9
$USERR4
 40
0.0
  9
$USERR5
 40
0.0
  9
$WORLDVIEW
 70
     1
  9
$SHADEDGE
 70
     3
  9
$SHADEDIF
 70
    70
  9
$TILEMODE
 70
     1
  9
$MAXACTVP
 70
    64
  9
$PLIMCHECK
 70
     0
  9
$PEXTMIN
 10
1.0000000000000000E+20
 20
1.0000000000000000E+20
 30
1.0000000000000000E+20
  9
$PEXTMAX
 10
-1.0000000000000000E+20
 20
-1.0000000000000000E+20
 30
-1.0000000000000000E+20
  9
$PLIMMIN
 10
0.0
 20
0.0
  9
$PLIMMAX
 10
12.0
 20
9.0
  9
$UNITMODE
 70
     0
  9
$VISRETAIN
 70
     1
  9
$PLINEGEN
 70
     0
  9
$PSLTSCALE
 70
     1
  0
ENDSEC
  0
SECTION
  2
TABLES
  0
TABLE
  2
VPORT
 70
     1
  0
VPORT
  2
*ACTIVE
 70
     0
 10
0.0
 20
0.0
 11
1.0
 21
1.0
 12
470.7528651971097133
 22
276.1142436617695921
 13
0.0
 23
0.0
 14
1.0
 24
1.0
 15
0.0
 25
0.0
 16
0.0
 26
0.0
 36
60.4960186965801583
 17
3911.3653564453120453
 27
132.5796051025390057
 37
0.0
 40
10.5953422829347801
 41
1.9267068273092369
 42
50.0
 43
0.0
 44
0.0
 50
0.0
 51
0.0
 71
     0
 72
   100
 73
     1
 74
     1
 75
     0
 76
     0
 77
     0
 78
     0
  0
ENDTAB
  0
TABLE
  2
LTYPE
 70
     2
  0
LTYPE
  2
CONTINUOUS
 70
     0
  3
Solid line
 72
    65
 73
     0
 40
0.0
  0
LTYPE
  2
PHANTOM2
 70
     0
  3
___ _ _ ___ _ _ ___ _ _ ___ _ _
 72
    65
 73
     6
 40
1.25
 49
0.625
 49
-0.125
 49
0.125
 49
-0.125
 49
0.125
 49
-0.125
  0
ENDTAB
  0
TABLE
  2
LAYER
 70
     2
  0
LAYER
  2
0
 70
     0
 62
   255
  6
CONTINUOUS
  0
LAYER
  2
DEFPOINTS
 70
     0
 62
     7
  6
CONTINUOUS
  0
ENDTAB
  0
TABLE
  2
STYLE
 70
     1
  0
STYLE
  2
STANDARD
 70
     0
 40
0.0
 41
0.8
 50
0.0
 71
     0
 42
0.2
  3
txt
  4

  0
ENDTAB
  0
TABLE
  2
VIEW
 70
     0
  0
ENDTAB
  0
TABLE
  2
UCS
 70
     0
  0
ENDTAB
  0
TABLE
  2
APPID
 70
    11
  0
APPID
  2
ACAD
 70
     0
  0
APPID
  2
ACAD_MLEADERVER
 70
     0
  0
APPID
  2
ACAD_EXEMPT_FROM_CAD_STANDARDS
 70
     0
  0
APPID
  2
ACAD_NAV_VCDISPLAY
 70
     0
  0
APPID
  2
ACAECLAYERSTANDARD
 70
     0
  0
APPID
  2
ACCMTRANSPARENCY
 70
     0
  0
APPID
  2
ACAD_DSTYLE_DIMJAG
 70
     0
  0
APPID
  2
ACAD_DSTYLE_DIMTALN
 70
     0
  0
APPID
  2
ACDBATTR
 70
     0
  0
APPID
  2
ACADANNOTATIVE
 70
     0
  0
APPID
  2
DCO15
 70
     0
  0
ENDTAB
  0
TABLE
  2
DIMSTYLE
 70
     1
  0
DIMSTYLE
  2
STANDARD
 70
     0
  3

  4

  5

  6

  7

 40
1.0
 41
0.1875
 42
0.0625
 43
0.38
 44
0.125
 45
0.0
 46
0.0
 47
0.01
 48
0.01
140
0.15625
141
0.09
142
0.0
143
25.3999999999999986
144
1.0
145
0.0
146
1.0
147
0.09
 71
     1
 72
     0
 73
     1
 74
     1
 75
     0
 76
     0
 77
     0
 78
     4
170
     0
171
     2
172
     0
173
     0
174
     0
175
     0
176
     0
177
     0
178
     0
  0
ENDTAB
  0
ENDSEC
  0
SECTION
  2
BLOCKS
  0
BLOCK
  8
0
  2
$MODEL_SPACE
 70
     0
 10
0.0
 20
0.0
 30
0.0
  3
$MODEL_SPACE
  1

  0
ENDBLK
  5
21
  8
0
  0
BLOCK
 67
     1
  8
0
  2
$PAPER_SPACE
 70
     0
 10
0.0
 20
0.0
 30
0.0
  3
$PAPER_SPACE
  1

  0
ENDBLK
  5
1D
 67
     1
  8
0
  0
BLOCK
  8
0
  2
_CLOSED
 70
     0
 10
0.0
 20
0.0
 30
0.0
  3
_CLOSED
  1

  0
LINE
  5
1736D
  8
0
  6
BYBLOCK
 62
     0
 10
0.0
 20
0.0
 30
0.0
 11
-1.0
 21
0.1666666667
 31
0.0
  0
LINE
  5
1736E
  8
0
  6
BYBLOCK
 62
     0
 10
-1.0
 20
0.1666666667
 30
0.0
 11
-1.0
 21
-0.1666666667
 31
0.0
  0
LINE
  5
1736F
  8
0
  6
BYBLOCK
 62
     0
 10
-1.0
 20
-0.1666666667
 30
0.0
 11
0.0
 21
0.0
 31
0.0
  0
LINE
  5
17370
  8
0
  6
BYBLOCK
 62
     0
 10
-1.0
 20
0.0
 30
0.0
 11
0.0
 21
0.0
 31
0.0
  0
ENDBLK
  5
17371
  8
0
  6
BYBLOCK
 62
     0
  0
ENDSEC
  0
SECTION
  2
ENTITIES
  0
ATTDEF
  5
159BF
  8
0
 10
4382.0384965384419047
 20
411.4448953172994834
 30
0.0
 40
0.001
  1
K-3581T-2FD
  3

  2
MODELNUMBER
 70
     0
1001
ACDBATTR
1070
     0
1070
     1
  0
ATTDEF
  5
159C0
  8
0
 10
4382.0383707287846846
 20
411.4432284769204102
 30
0.0
 40
0.001
  1
VAULT
  3

  2
TRADENAME
 70
     0
1001
ACDBATTR
1070
     0
1070
     1
  0
ATTDEF
  5
159C1
  8
0
 10
4382.0384965384419047
 20
411.4415619839662099
 30
0.0
 40
0.001
  1
KITCHEN SINK
  3

  2
PRODUCT
 70
     0
1001
ACDBATTR
1070
     0
1070
     1
  0
LINE
  5
173E6
  8
0
 10
4381.2460814599753576
 20
403.4406674717398005
 30
0.0
 11
4384.7973337495750457
 21
403.4406674717398005
 31
0.0
  0
LINE
  5
173E7
  8
0
 10
4391.4862745338750756
 20
411.4406517237399044
 30
0.0
 11
4372.5886367386747224
 21
411.4406517237399044
 31
0.0
  0
LINE
  5
173E8
  8
0
 10
4373.147691856774145
 20
410.8815966056399134
 30
0.0
 11
4373.1791879197762682
 21
410.8815966056399134
 31
0.0
  0
LINE
  5
173E9
  8
0
 10
4374.7539910693749334
 20
410.8815966056399134
 30
0.0
 11
4389.3209202031739551
 21
410.8815966056399134
 31
0.0
  0
LINE
  5
173EA
  8
0
 10
4390.8957233527753488
 20
410.8815966056399134
 30
0.0
 11
4390.927219415773834
 21
410.8815966056399134
 31
0.0
  0
LINE
  5
173EB
  8
0
 10
4372.5886367386747224
 20
411.5201477867398125
 30
0.0
 11
4372.5886367386747224
 21
411.4406517237399044
 31
0.0
  0
LINE
  5
173EC
  8
0
 10
4391.4862745338750756
 20
411.5201477867398125
 30
0.0
 11
4372.5886367386747224
 21
411.5201477867398125
 31
0.0
  0
LINE
  5
173ED
  8
0
 10
4391.4862745338750756
 20
411.4406517237399044
 30
0.0
 11
4391.4862745338750756
 21
411.5201477867398125
 31
0.0
  0
LINE
  5
173EE
  8
0
 10
4375.0886367386738129
 20
411.3146674717398241
 30
0.0
 11
4375.6004477622736886
 21
411.3146674717398241
 31
0.0
  0
LINE
  5
173EF
  8
0
 10
4375.0886367386738129
 20
411.0390769205399124
 30
0.0
 11
4375.6004477622736886
 21
411.0390769205399124
 31
0.0
  0
ARC
  5
173F0
  8
0
 10
4375.0886367386738129
 20
411.1768721961398114
 30
0.0
 40
0.137795275600002
 50
90.0
 51
270.0
  0
ARC
  5
173F1
  8
0
 10
4375.6004477622736886
 20
411.1768721961398114
 30
0.0
 40
0.137795275600002
 50
270.0
 51
90.0
  0
LINE
  5
173F2
  8
0
 10
4382.0768257150739373
 20
411.3146674717398241
 30
0.0
 11
4382.5886367386747224
 21
411.3146674717398241
 31
0.0
  0
LINE
  5
173F3
  8
0
 10
4382.0768257150739373
 20
411.0390769205399124
 30
0.0
 11
4382.5886367386747224
 21
411.0390769205399124
 31
0.0
  0
ARC
  5
173F4
  8
0
 10
4382.0768257150739373
 20
411.1768721961398114
 30
0.0
 40
0.137795275600002
 50
90.0
 51
270.0
  0
ARC
  5
173F5
  8
0
 10
4382.5886367386747224
 20
411.1768721961398114
 30
0.0
 40
0.137795275600002
 50
270.0
 51
90.0
  0
LINE
  5
173F6
  8
0
 10
4388.4744635102752
 20
411.3146674717398241
 30
0.0
 11
4388.9862745338750756
 21
411.3146674717398241
 31
0.0
  0
LINE
  5
173F7
  8
0
 10
4388.4744635102752
 20
411.0390769205399124
 30
0.0
 11
4388.9862745338750756
 21
411.0390769205399124
 31
0.0
  0
ARC
  5
173F8
  8
0
 10
4388.4744635102752
 20
411.1768721961398114
 30
0.0
 40
0.137795275600002
 50
90.0
 51
270.0
  0
ARC
  5
173F9
  8
0
 10
4388.9862745338750756
 20
411.1768721961398114
 30
0.0
 40
0.137795275600002
 50
270.0
 51
90.0
  0
LINE
  5
173FA
  8
0
 10
4390.927219415773834
 20
411.3934076292399027
 30
0.0
 11
4390.927219415773834
 21
410.8815966056399134
 31
0.0
  0
LINE
  5
173FB
  8
0
 10
4390.8957233527753488
 20
411.3934076292399027
 30
0.0
 11
4390.8957233527753488
 21
410.8815966056399134
 31
0.0
  0
ARC
  5
173FC
  8
0
 10
4390.9744635102752
 20
411.3934076292399027
 30
0.0
 40
0.0472440945000052
 50
90.0
 51
179.9999999999934914
  0
ARC
  5
173FD
  8
0
 10
4390.9744635102752
 20
411.3934076292399027
 30
0.0
 40
0.0787401574999791
 50
143.1214585546044873
 51
180.0000000000032117
  0
LINE
  5
173FE
  8
0
 10
4373.147691856774145
 20
411.3934076292399027
 30
0.0
 11
4373.147691856774145
 21
410.8815966056399134
 31
0.0
  0
LINE
  5
173FF
  8
0
 10
4373.1791879197762682
 20
411.3934076292399027
 30
0.0
 11
4373.1791879197762682
 21
410.8815966056399134
 31
0.0
  0
ARC
  5
17400
  8
0
 10
4373.1004477622745981
 20
411.3934076292399027
 30
0.0
 40
0.078740157500004
 50
0.0
 51
36.8785442013872071
  0
ARC
  5
17401
  8
0
 10
4373.1004477622745981
 20
411.3934076292399027
 30
0.0
 40
0.0472440945000052
 50
0.0000000000065138
 51
90.0
  0
LINE
  5
17402
  8
0
 10
4374.5571406756753277
 20
411.4406517237399044
 30
0.0
 11
4374.5571406756753277
 21
411.0784469993399171
 31
0.0
  0
LINE
  5
17403
  8
0
 10
4374.5571406756753277
 20
411.0784469993399171
 30
0.0
 11
4374.7539910693749334
 21
410.8815966056399134
 31
0.0
  0
LINE
  5
17404
  8
0
 10
4389.5177705968753799
 20
411.4406517237399044
 30
0.0
 11
4389.5177705968753799
 21
411.0784469993399171
 31
0.0
  0
LINE
  5
17405
  8
0
 10
4389.5177705968753799
 20
411.0784469993399171
 30
0.0
 11
4389.3209202031739551
 21
410.8815966056399134
 31
0.0
  0
LINE
  5
17406
  8
0
 10
4373.6429989433736409
 20
411.4021477867398744
 30
0.0
 11
4373.6429989433736409
 21
403.9588732058397795
 31
0.0
  0
LINE
  5
17407
  8
0
 10
4373.6429989433736409
 20
404.3941635347397892
 30
0.0
 11
4373.6115028803751557
 21
404.3941635347397892
 31
0.0
  0
LINE
  5
17408
  8
0
 10
4373.6115028803751557
 20
404.3941635347397892
 30
0.0
 11
4373.6115028803751557
 21
403.8886055240399173
 31
0.0
  0
LINE
  5
17409
  8
0
 10
4373.6874950459750835
 20
403.8099133329398001
 30
0.0
 11
4374.1927450843750194
 21
403.7922696128399025
 31
0.0
  0
LINE
  5
1740A
  8
0
 10
4374.1927450843750194
 20
403.7922696128399025
 30
0.0
 11
4374.1936220990737638
 21
403.8173840291398164
 31
0.0
  0
LINE
  5
1740B
  8
0
 10
4373.7658577806751055
 20
403.8318020898398117
 30
0.0
 11
4380.6353178366271095
 21
403.6000303072975726
 31
0.0
  0
LINE
  5
1740C
  8
0
 10
4380.7087569283139601
 20
403.5681655869797737
 30
0.0
 11
4380.7169328355994367
 21
403.5602056591627047
 31
0.0
  0
LINE
  5
1740D
  8
0
 10
4380.8070223293752861
 20
403.5138439935399219
 30
0.0
 11
4381.2460814599753576
 21
403.4406674717398005
 31
0.0
  0
ARC
  5
1740E
  8
0
 10
4380.8343125609362687
 20
403.6775853843756749
 30
0.0
 40
0.1659999994322454
 50
224.9999999694765052
 51
260.5376778752769837
  0
ARC
  5
1740F
  8
0
 10
4380.6316822741746364
 20
403.4910909328398816
 30
0.0
 40
0.109000021200025
 50
44.9999999999976907
 51
88.0886148128798965
  0
ARC
  5
17410
  8
0
 10
4373.7702583636437339
 20
403.9589854516282799
 30
0.0
 40
0.1272594697705183
 50
180.050536205994689
 51
268.0183391666647026
  0
ARC
  5
17411
  8
0
 10
4373.6902430378750068
 20
403.8886055240399173
 30
0.0
 40
0.0472440945000159
 50
180.0000000000065086
 51
268.0000000432742127
  0
ARC
  5
17412
  8
0
 10
4373.6902430378349891
 20
403.888605524023717
 30
0.0
 40
0.0787401574601425
 50
179.9999999882849124
 51
268.0000000040113264
  0
LINE
  5
17413
  8
0
 10
4373.6429989433736409
 20
403.8886055240399173
 30
0.0
 11
4373.6430057768457118
 21
403.9576618960148835
 31
0.0
  0
LINE
  5
17414
  8
0
 10
4373.6885942427907139
 20
403.8413902093644765
 30
0.0
 11
4373.724742349175358
 21
403.8401278897397901
 31
0.0
  0
LINE
  5
17415
  8
0
 10
4388.1878178409742759
 20
410.8815966056399134
 30
0.0
 11
4388.1878178409742759
 21
403.8886055240399173
 31
0.0
  0
LINE
  5
17416
  8
0
 10
4388.1878178409742759
 20
404.3941635347397892
 30
0.0
 11
4388.2193139039745802
 21
404.3941635347397892
 31
0.0
  0
LINE
  5
17417
  8
0
 10
4388.2193139039745802
 20
404.3941635347397892
 30
0.0
 11
4388.2193139039745802
 21
403.8886055240399173
 31
0.0
  0
LINE
  5
17418
  8
0
 10
4388.1433217383737428
 20
403.8099133329398001
 30
0.0
 11
4387.6478824696750962
 21
403.7926122124399058
 31
0.0
  0
LINE
  5
17419
  8
0
 10
4385.4057870678752806
 20
403.6031519931398179
 30
0.0
 11
4388.071512763975079
 21
403.8284095690398203
 31
0.0
  0
ARC
  5
1741A
  8
0
 10
4388.0606748886739297
 20
403.955096820249878
 30
0.0
 40
0.1271499868667374
 50
274.8896497529676139
 51
0.6026985151764733
  0
ARC
  5
1741B
  8
0
 10
4388.140573746474729
 20
403.8886055240399173
 30
0.0
 40
0.0472440945000017
 50
272.0000000041227963
 51
359.9999999999902229
  0
LINE
  5
1741C
  8
0
 10
4388.1422225415981302
 20
403.8413902093657839
 30
0.0
 11
4388.1156870413260549
 21
403.8404635693112823
 31
0.0
  0
ARC
  5
1741D
  8
0
 10
4388.1405737465147467
 20
403.888605524023717
 30
0.0
 40
0.0787401574601417
 50
271.9999999959886736
 51
0.000000011718283
  0
ARC
  5
1741E
  8
0
 10
4385.4149650756371557
 20
403.4945390844343933
 30
0.0
 40
0.1089999989171412
 50
94.8301329760858778
 51
134.9999999837870917
  0
ARC
  5
1741F
  8
0
 10
4385.2091026486141345
 20
403.6775853843756749
 30
0.0
 40
0.1659999994322219
 50
279.4623221247230163
 51
315.0000000305280992
  0
LINE
  5
17420
  8
0
 10
4385.3378904372739271
 20
403.5716137228399134
 30
0.0
 11
4385.3264823739518761
 21
403.5602056591627047
 31
0.0
  0
LINE
  5
17421
  8
0
 10
4385.2363928801751172
 20
403.5138439935399219
 30
0.0
 11
4384.7973337495750457
 21
403.4406674717398005
 31
0.0
  0
LINE
  5
17422
  8
0
 10
4390.2995430208748076
 20
413.7760775399398767
 30
0.0
 11
4390.3092391921736635
 21
412.2013713562398038
 31
0.0
  0
LINE
  5
17423
  8
0
 10
4390.2895521455739072
 20
412.1815651095398039
 30
0.0
 11
4389.1795638513740414
 21
412.1815651095398039
 31
0.0
  0
LINE
  5
17424
  8
0
 10
4390.1947273608739124
 20
412.1815651095398039
 30
0.0
 11
4390.1983866455739189
 21
411.7622526126398839
 31
0.0
  0
LINE
  5
17425
  8
0
 10
4390.2129760722737046
 20
411.7434101069399048
 30
0.0
 11
4390.5457585726762773
 21
411.654241304639811
 31
0.0
  0
LINE
  5
17426
  8
0
 10
4390.5603457507750136
 20
411.6355705680397818
 30
0.0
 11
4390.5613296519750293
 21
411.5792029048399172
 31
0.0
  0
LINE
  5
17427
  8
0
 10
4390.5613296519750293
 20
411.5792029048399172
 30
0.0
 11
4388.9077970477746931
 21
411.5792029048399172
 31
0.0
  0
LINE
  5
17428
  8
0
 10
4390.5022745338746972
 20
411.5792029048399172
 30
0.0
 11
4390.5022745338746972
 21
411.5201477867398125
 31
0.0
  0
ARC
  5
17429
  8
0
 10
4390.5406637097958082
 20
411.6352270169405188
 30
0.0
 40
0.0196850391027516
 50
0.9999994068811071
 51
75.0000004335354902
  0
ARC
  5
1742A
  8
0
 10
4390.289554525927997
 20
412.2012501488040925
 30
0.0
 40
0.0196850394081254
 50
269.9930716836959732
 51
0.3527916940035055
  0
LINE
  5
1742B
  8
0
 10
4390.2955971571745977
 20
413.7799903063398119
 30
0.0
 11
4389.1735188398752143
 21
413.7799903063398119
 31
0.0
  0
LINE
  5
1742C
  8
0
 10
4390.2873640272737248
 20
413.8193603851398166
 30
0.0
 11
4390.28767354687443
 21
413.7838929578397824
 31
0.0
  0
ARC
  5
1742D
  8
0
 10
4390.2916104046707915
 20
413.7839273140581895
 30
0.0
 40
0.0039370077031248
 50
180.4999968113378088
 51
270.0
  0
LINE
  5
1742E
  8
0
 10
4390.2983347845738535
 20
413.8193603851398166
 30
0.0
 11
4389.1707759443752366
 21
413.8193603851398166
 31
0.0
  0
LINE
  5
1742F
  8
0
 10
4390.3055098620752688
 20
413.9079628313398871
 30
0.0
 11
4390.3062137687738868
 21
413.8273031137399016
 31
0.0
  0
LINE
  5
17430
  8
0
 10
4390.1997443409736661
 20
413.936419781839902
 30
0.0
 11
4390.2957502508752441
 21
413.919491349639884
 31
0.0
  0
ARC
  5
17431
  8
0
 10
4390.1655616289826867
 20
413.742559989358881
 30
0.0
 40
0.1968503922776193
 50
79.9999999705745211
 51
87.375865022858676
  0
ARC
  5
17432
  8
0
 10
4390.2936992881777769
 20
413.9078597619982816
 30
0.0
 40
0.0118110236239704
 50
0.5000001198431847
 51
80.0000001602178941
  0
ARC
  5
17433
  8
0
 10
4390.2983400497068942
 20
413.8272344022535094
 30
0.0
 40
0.0078740188739795
 50
269.9616879413457013
 51
0.4999896750812404
  0
ARC
  5
17434
  8
0
 10
4390.2956060705846539
 20
413.7760532914659279
 30
0.0
 40
0.0039370249639729
 50
0.3528918450424293
 51
90.1297175582245842
  0
ARC
  5
17435
  8
0
 10
4390.218070935184187
 20
411.7624243946842739
 30
0.0
 40
0.0196850391539158
 50
180.4999995676035098
 51
255.0000003838484872
  0
LINE
  5
17436
  8
0
 10
4389.1695730450237534
 20
413.7760775399398767
 30
0.0
 11
4389.1682638320307888
 21
413.5634548733398219
 31
0.0
  0
LINE
  5
17437
  8
0
 10
4389.1669062844594009
 20
413.3429824323399089
 30
0.0
 11
4389.159876873723988
 21
412.2013713562398038
 31
0.0
  0
LINE
  5
17438
  8
0
 10
4389.274388705023739
 20
412.1815651095398039
 30
0.0
 11
4389.2707294203237325
 21
411.7622526126398839
 31
0.0
  0
LINE
  5
17439
  8
0
 10
4389.2561399936248563
 20
411.7434101069399048
 30
0.0
 11
4388.9233574932250121
 21
411.654241304639811
 31
0.0
  0
LINE
  5
1743A
  8
0
 10
4388.9087703151253663
 20
411.6355705680397818
 30
0.0
 11
4388.9077970477746931
 21
411.5792029048399172
 31
0.0
  0
LINE
  5
1743B
  8
0
 10
4388.9668415320247732
 20
411.5792029048399172
 30
0.0
 11
4388.9668415320247732
 21
411.5201477867398125
 31
0.0
  0
ARC
  5
1743C
  8
0
 10
4388.9284523561036622
 20
411.6352270169405188
 30
0.0
 40
0.0196850391027516
 50
104.9999995664644956
 51
179.000000593118898
  0
ARC
  5
1743D
  8
0
 10
4389.179561539957831
 20
412.2012501487984082
 30
0.0
 40
0.0196850393942065
 50
179.6472082891449986
 51
270.0067276692820997
  0
LINE
  5
1743E
  8
0
 10
4389.1817520386239266
 20
413.8193603851398166
 30
0.0
 11
4389.1814425190250404
 21
413.7838929578397824
 31
0.0
  0
ARC
  5
1743F
  8
0
 10
4389.1775056612286789
 20
413.7839273140581895
 30
0.0
 40
0.0039370077031248
 50
270.0
 51
359.5000031886589227
  0
LINE
  5
17440
  8
0
 10
4389.1636062038251112
 20
413.9079628313398871
 30
0.0
 11
4389.1629022971237646
 21
413.8273031137399016
 31
0.0
  0
LINE
  5
17441
  8
0
 10
4389.2693717249248948
 20
413.936419781839902
 30
0.0
 11
4389.1733658150242263
 21
413.919491349639884
 31
0.0
  0
ARC
  5
17442
  8
0
 10
4389.3035545451029975
 20
413.7425592344922052
 30
0.0
 40
0.1968511544626311
 50
92.6241764208064495
 51
99.9999928873457975
  0
ARC
  5
17443
  8
0
 10
4389.1754167777198745
 20
413.9078597619982816
 30
0.0
 40
0.0118110236239704
 50
99.9999998397821344
 51
179.4999998801567926
  0
ARC
  5
17444
  8
0
 10
4389.1707760132076146
 20
413.8272344010393908
 30
0.0
 40
0.0078740158998361
 50
179.5000013010478881
 51
269.9994991322625992
  0
ARC
  5
17445
  8
0
 10
4389.173509995049244
 20
413.7760532915775116
 30
0.0
 40
0.0039370246976411
 50
89.8712805481239343
 51
179.6471097560352064
  0
ARC
  5
17446
  8
0
 10
4389.2510451307152834
 20
411.7624243946842739
 30
0.0
 40
0.0196850391539158
 50
284.9999996161513991
 51
359.5000004323964049
  0
ARC
  5
17447
  8
0
 10
4389.734557998173841
 20
404.3385392357316732
 30
0.0
 40
9.6107428106081034
 50
87.3758650126865035
 51
92.6241349837662682
  0
ARC
  5
17448
  8
0
 10
4389.1409221624753627
 20
405.5792029048398035
 30
0.0
 40
7.984251968500014
 50
90.0
 51
114.173360979813495
  0
LINE
  5
17449
  8
0
 10
4389.1409221624753627
 20
413.5634548733398219
 30
0.0
 11
4389.169007285612679
 21
413.5634548733398219
 31
0.0
  0
ARC
  5
1744A
  8
0
 10
4388.6111025835489272
 20
413.4566390379977747
 30
0.0
 40
0.5680503392704926
 50
348.0697349359945179
 51
11.2246824534717593
  0
LINE
  5
1744B
  8
0
 10
4389.1676504272027159
 20
413.3429824323399089
 30
0.0
 11
4389.1409221624753627
 21
413.3429824324398965
 31
0.0
  0
ARC
  5
1744C
  8
0
 10
4389.1409221624753627
 20
405.5792029048399172
 30
0.0
 40
7.7637795275999277
 50
90.0
 51
113.2660189204950001
  0
ARC
  5
1744D
  8
0
 10
4386.5130225653747402
 20
413.5608145841400187
 30
0.0
 40
0.9587401575001553
 50
227.8242190081018919
 51
242.3066544539186964
  0
ARC
  5
1744E
  8
0
 10
4386.0711181377637331
 20
412.7189180092374841
 30
0.0
 40
0.0079145619139493
 50
242.4577251130282036
 51
293.1027598507286029
  0
ARC
  5
1744F
  8
0
 10
4385.8746108833420294
 20
412.8561366955004814
 30
0.0
 40
0.0078771823574494
 50
114.2172113210487936
 51
227.7776158103386877
  0
LINE
  5
17451
  8
0
 10
4373.7658577806751055
 20
403.8318020898398117
 30
0.0
 11
4388.071512763975079
 21
403.8284095690398203
 31
0.0
  0
LINE
  5
17452
  8
0
 10
4388.9233574932250121
 20
411.654241304639811
 30
0.0
 11
4390.5457585726762773
 21
411.654241304639811
 31
0.0
  0
LINE
  5
17453
  8
0
 10
4389.2561399936248563
 20
411.7434101069399048
 30
0.0
 11
4390.2129760722737046
 21
411.7434101069399048
 31
0.0
  0
ENDSEC
  0
EOF
