  0
SECTION
  2
HEADER
  9
$ACADVER
  1
AC1009
  9
$INSBASE
 10
4330.1403789692903956
 20
442.4299062354901935
 30
0.0
  9
$EXTMIN
 10
4314.4734566127117432
 20
434.8871050298948262
 30
-0.0000000000112498
  9
$EXTMAX
 10
4345.6426009252281801
 20
444.846149797650412
 30
0.0000000000002956
  9
$LIMMIN
 10
0.0
 20
0.0
  9
$LIMMAX
 10
11.6929133858000007
 20
8.2677165353999982
  9
$ORTHOMODE
 70
     0
  9
$REGENMODE
 70
     1
  9
$FILLMODE
 70
     1
  9
$QTEXTMODE
 70
     0
  9
$MIRRTEXT
 70
     0
  9
$DRAGMODE
 70
     2
  9
$LTSCALE
 40
0.6431102362
  9
$OSMODE
 70
     3
  9
$ATTMODE
 70
     1
  9
$TEXTSIZE
 40
0.2
  9
$TRACEWID
 40
0.05
  9
$TEXTSTYLE
  7
STANDARD
  9
$CLAYER
  8
0
  9
$CELTYPE
  6
BYLAYER
  9
$CECOLOR
 62
   256
  9
$DIMSCALE
 40
1.0
  9
$DIMASZ
 40
0.1875
  9
$DIMEXO
 40
0.0625
  9
$DIMDLI
 40
0.4443307087
  9
$DIMRND
 40
0.0
  9
$DIMDLE
 40
0.0
  9
$DIMEXE
 40
0.125
  9
$DIMTP
 40
0.01
  9
$DIMTM
 40
0.01
  9
$DIMTXT
 40
2.0
  9
$DIMCEN
 40
0.1052362205
  9
$DIMTSZ
 40
0.0
  9
$DIMTOL
 70
     1
  9
$DIMLIM
 70
     0
  9
$DIMTIH
 70
     1
  9
$DIMTOH
 70
     1
  9
$DIMSE1
 70
     0
  9
$DIMSE2
 70
     0
  9
$DIMTAD
 70
     0
  9
$DIMZIN
 70
     0
  9
$DIMBLK
  1

  9
$DIMASO
 70
     1
  9
$DIMSHO
 70
     1
  9
$DIMPOST
  1
\X
  9
$DIMAPOST
  1

  9
$DIMALT
 70
     1
  9
$DIMALTD
 70
     2
  9
$DIMALTF
 40
25.3999999999999986
  9
$DIMLFAC
 40
1.0
  9
$DIMTOFL
 70
     0
  9
$DIMTVP
 40
0.0
  9
$DIMTIX
 70
     0
  9
$DIMSOXD
 70
     0
  9
$DIMSAH
 70
     0
  9
$DIMBLK1
  1

  9
$DIMBLK2
  1

  9
$DIMSTYLE
  2
STANDARD
  9
$DIMCLRD
 70
     0
  9
$DIMCLRE
 70
     0
  9
$DIMCLRT
 70
     0
  9
$DIMTFAC
 40
1.0
  9
$DIMGAP
 40
0.09
  9
$LUNITS
 70
     2
  9
$LUPREC
 70
     4
  9
$SKETCHINC
 40
0.1
  9
$FILLETRAD
 40
0.0
  9
$AUNITS
 70
     0
  9
$AUPREC
 70
     0
  9
$MENU
  1
.
  9
$ELEVATION
 40
0.0
  9
$PELEVATION
 40
0.0
  9
$THICKNESS
 40
0.0
  9
$LIMCHECK
 70
     0
  9
$BLIPMODE
 70
     0
  9
$CHAMFERA
 40
0.0
  9
$CHAMFERB
 40
0.0
  9
$SKPOLY
 70
     0
  9
$TDCREATE
 40
2458060.468368056230247
  9
$TDUPDATE
 40
2459165.6242824080400169
  9
$TDINDWG
 40
1.1376112269
  9
$TDUSRTIMER
 40
1.1376112269
  9
$USRTIMER
 70
     1
  9
$ANGBASE
 50
0.0
  9
$ANGDIR
 70
     0
  9
$PDMODE
 70
     0
  9
$PDSIZE
 40
0.3125
  9
$PLINEWID
 40
0.0
  9
$COORDS
 70
     1
  9
$SPLFRAME
 70
     0
  9
$SPLINETYPE
 70
     6
  9
$SPLINESEGS
 70
     8
  9
$ATTDIA
 70
     1
  9
$ATTREQ
 70
     1
  9
$HANDLING
 70
     1
  9
$HANDSEED
  5
16FF8
  9
$SURFTAB1
 70
     6
  9
$SURFTAB2
 70
     6
  9
$SURFTYPE
 70
     6
  9
$SURFU
 70
     6
  9
$SURFV
 70
     6
  9
$UCSNAME
  2

  9
$UCSORG
 10
0.0
 20
0.0
 30
0.0
  9
$UCSXDIR
 10
1.0
 20
0.0
 30
0.0
  9
$UCSYDIR
 10
0.0
 20
1.0
 30
0.0
  9
$PUCSNAME
  2

  9
$PUCSORG
 10
0.0
 20
0.0
 30
0.0
  9
$PUCSXDIR
 10
1.0
 20
0.0
 30
0.0
  9
$PUCSYDIR
 10
0.0
 20
1.0
 30
0.0
  9
$USERI1
 70
     0
  9
$USERI2
 70
     0
  9
$USERI3
 70
     0
  9
$USERI4
 70
     0
  9
$USERI5
 70
     0
  9
$USERR1
 40
0.0
  9
$USERR2
 40
0.0
  9
$USERR3
 40
0.0
  9
$USERR4
 40
0.0
  9
$USERR5
 40
0.0
  9
$WORLDVIEW
 70
     1
  9
$SHADEDGE
 70
     3
  9
$SHADEDIF
 70
    70
  9
$TILEMODE
 70
     1
  9
$MAXACTVP
 70
    64
  9
$PLIMCHECK
 70
     0
  9
$PEXTMIN
 10
1.0000000000000000E+20
 20
1.0000000000000000E+20
 30
1.0000000000000000E+20
  9
$PEXTMAX
 10
-1.0000000000000000E+20
 20
-1.0000000000000000E+20
 30
-1.0000000000000000E+20
  9
$PLIMMIN
 10
0.0
 20
0.0
  9
$PLIMMAX
 10
12.0
 20
9.0
  9
$UNITMODE
 70
     0
  9
$VISRETAIN
 70
     1
  9
$PLINEGEN
 70
     0
  9
$PSLTSCALE
 70
     1
  0
ENDSEC
  0
SECTION
  2
TABLES
  0
TABLE
  2
VPORT
 70
     1
  0
VPORT
  2
*ACTIVE
 70
     0
 10
0.0
 20
0.0
 11
1.0
 21
1.0
 12
418.6926723236574048
 22
307.2870223112336134
 13
0.0
 23
0.0
 14
1.0
 24
1.0
 15
0.0
 25
0.0
 16
0.0
 26
0.0
 36
60.4960186965801583
 17
3911.3653564453120453
 27
132.5796051025390057
 37
0.0
 40
16.2279493980139087
 41
1.9267068273092369
 42
50.0
 43
0.0
 44
0.0
 50
0.0
 51
0.0
 71
     0
 72
   100
 73
     1
 74
     1
 75
     0
 76
     0
 77
     0
 78
     0
  0
ENDTAB
  0
TABLE
  2
LTYPE
 70
     2
  0
LTYPE
  2
CONTINUOUS
 70
     0
  3
Solid line
 72
    65
 73
     0
 40
0.0
  0
LTYPE
  2
PHANTOM2
 70
     0
  3
___ _ _ ___ _ _ ___ _ _ ___ _ _
 72
    65
 73
     6
 40
1.25
 49
0.625
 49
-0.125
 49
0.125
 49
-0.125
 49
0.125
 49
-0.125
  0
ENDTAB
  0
TABLE
  2
LAYER
 70
     2
  0
LAYER
  2
0
 70
     0
 62
   255
  6
CONTINUOUS
  0
LAYER
  2
DEFPOINTS
 70
     0
 62
     7
  6
CONTINUOUS
  0
ENDTAB
  0
TABLE
  2
STYLE
 70
     1
  0
STYLE
  2
STANDARD
 70
     0
 40
0.0
 41
0.8
 50
0.0
 71
     0
 42
0.2
  3
txt
  4

  0
ENDTAB
  0
TABLE
  2
VIEW
 70
     0
  0
ENDTAB
  0
TABLE
  2
UCS
 70
     0
  0
ENDTAB
  0
TABLE
  2
APPID
 70
    11
  0
APPID
  2
ACAD
 70
     0
  0
APPID
  2
ACAD_MLEADERVER
 70
     0
  0
APPID
  2
ACAD_EXEMPT_FROM_CAD_STANDARDS
 70
     0
  0
APPID
  2
ACAD_NAV_VCDISPLAY
 70
     0
  0
APPID
  2
ACAECLAYERSTANDARD
 70
     0
  0
APPID
  2
ACCMTRANSPARENCY
 70
     0
  0
APPID
  2
ACAD_DSTYLE_DIMJAG
 70
     0
  0
APPID
  2
ACAD_DSTYLE_DIMTALN
 70
     0
  0
APPID
  2
ACDBATTR
 70
     0
  0
APPID
  2
ACADANNOTATIVE
 70
     0
  0
APPID
  2
DCO15
 70
     0
  0
ENDTAB
  0
TABLE
  2
DIMSTYLE
 70
     1
  0
DIMSTYLE
  2
STANDARD
 70
     0
  3

  4

  5

  6

  7

 40
1.0
 41
0.1875
 42
0.0625
 43
0.38
 44
0.125
 45
0.0
 46
0.0
 47
0.01
 48
0.01
140
0.15625
141
0.09
142
0.0
143
25.3999999999999986
144
1.0
145
0.0
146
1.0
147
0.09
 71
     1
 72
     0
 73
     1
 74
     1
 75
     0
 76
     0
 77
     0
 78
     4
170
     0
171
     2
172
     0
173
     0
174
     0
175
     0
176
     0
177
     0
178
     0
  0
ENDTAB
  0
ENDSEC
  0
SECTION
  2
BLOCKS
  0
BLOCK
  8
0
  2
$MODEL_SPACE
 70
     0
 10
0.0
 20
0.0
 30
0.0
  3
$MODEL_SPACE
  1

  0
ENDBLK
  5
21
  8
0
  0
BLOCK
 67
     1
  8
0
  2
$PAPER_SPACE
 70
     0
 10
0.0
 20
0.0
 30
0.0
  3
$PAPER_SPACE
  1

  0
ENDBLK
  5
1D
 67
     1
  8
0
  0
ENDSEC
  0
SECTION
  2
ENTITIES
  0
ATTDEF
  5
159BF
  8
0
 10
4330.1411048002255484
 20
442.4337594674382785
 30
0.0
 40
0.001
  1
K-3583T-2SD
  3

  2
MODELNUMBER
 70
     0
1001
ACDBATTR
1070
     0
1070
     1
  0
ATTDEF
  5
159C0
  8
0
 10
4330.1409789905701473
 20
442.4320926270592054
 30
0.0
 40
0.001
  1
EOLIA
  3

  2
TRADENAME
 70
     0
1001
ACDBATTR
1070
     0
1070
     1
  0
ATTDEF
  5
159C1
  8
0
 10
4330.1411048002255484
 20
442.4304261341050051
 30
0.0
 40
0.001
  1
KITCHEN SINK
  3

  2
PRODUCT
 70
     0
1001
ACDBATTR
1070
     0
1070
     1
  0
LINE
  5
16EEC
  8
0
 10
4314.7860482606411097
 20
442.5558904873901156
 30
0.0
 11
4314.7860482606411097
 21
442.4299062354901935
 31
0.0
  0
LINE
  5
16EED
  8
0
 10
4345.4947096779396816
 20
442.4299062354901935
 30
0.0
 11
4314.7860482606411097
 21
442.4299062354901935
 31
0.0
  0
LINE
  5
16EEE
  8
0
 10
4344.5796451142459773
 20
442.3590400936901119
 30
0.0
 11
4341.1640010165410786
 21
442.3590400936901119
 31
0.0
  0
LINE
  5
16EEF
  8
0
 10
4339.5891978669396849
 20
442.3590400936901119
 30
0.0
 11
4330.9277805441397504
 21
442.3590400936901119
 31
0.0
  0
LINE
  5
16EF0
  8
0
 10
4329.3529773945410852
 20
442.3590400936901119
 30
0.0
 11
4320.6915600716411063
 21
442.3590400936901119
 31
0.0
  0
LINE
  5
16EF1
  8
0
 10
4319.1167569220397127
 20
442.3590400936901119
 30
0.0
 11
4315.7011128546400869
 21
442.3590400936901119
 31
0.0
  0
LINE
  5
16EF2
  8
0
 10
4325.9706501854407179
 20
434.9180952117901029
 30
0.0
 11
4322.4203439736411383
 21
434.9180952117901029
 31
0.0
  0
LINE
  5
16EF3
  8
0
 10
4345.4632136149402868
 20
442.5873865503900788
 30
0.0
 11
4314.8175443236395949
 21
442.5873865503900788
 31
0.0
  0
LINE
  5
16EF4
  8
0
 10
4340.419469083039985
 20
436.0991975740901125
 30
0.0
 11
4336.8691628713404498
 21
436.0991975740901125
 31
0.0
  0
LINE
  5
16EF5
  8
0
 10
4315.4238435362385644
 20
442.4299062354901935
 30
0.0
 11
4315.4238435362385644
 21
441.9653393062901046
 31
0.0
  0
LINE
  5
16EF6
  8
0
 10
4315.4238435362385644
 20
441.9653393062901046
 30
0.0
 11
4315.4553395992406877
 21
441.9653393062901046
 31
0.0
  0
LINE
  5
16EF7
  8
0
 10
4315.4553395992406877
 20
441.9653393062901046
 30
0.0
 11
4315.4553395992406877
 21
442.4299062354901935
 31
0.0
  0
LINE
  5
16EF8
  8
0
 10
4316.3028669055411228
 20
442.2052202980901825
 30
0.0
 11
4316.700479104140868
 21
436.5191009454902087
 31
0.0
  0
LINE
  5
16EF9
  8
0
 10
4318.0573081422407995
 20
435.2087914362900847
 30
0.0
 11
4321.8278813813412853
 21
435.077120117390109
 31
0.0
  0
LINE
  5
16EFA
  8
0
 10
4321.9651632154400431
 20
435.0205108823901128
 30
0.0
 11
4322.4203439736411383
 21
434.9180952117901029
 31
0.0
  0
LINE
  5
16EFB
  8
0
 10
4321.892144544040093
 20
435.0568433033902238
 30
0.0
 11
4321.9164699323400782
 21
435.0410318009901971
 31
0.0
  0
LINE
  5
16EFC
  8
0
 10
4319.1167569220397127
 20
442.4299062354901935
 30
0.0
 11
4319.1167569220397127
 21
442.1621896999901082
 31
0.0
  0
LINE
  5
16EFD
  8
0
 10
4319.3136073157402279
 20
441.9653393062901046
 30
0.0
 11
4320.4947096779396816
 21
441.9653393062901046
 31
0.0
  0
LINE
  5
16EFE
  8
0
 10
4320.6915600716411063
 20
442.1621896999901082
 30
0.0
 11
4320.6915600716411063
 21
442.4299062354901935
 31
0.0
  0
LINE
  5
16EFF
  8
0
 10
4319.608882906341023
 20
442.3196700149900948
 30
0.0
 11
4319.608882906341023
 21
442.1228196212902049
 31
0.0
  0
LINE
  5
16F00
  8
0
 10
4319.608882906341023
 20
442.1228196212902049
 30
0.0
 11
4320.1994340874407499
 21
442.1228196212902049
 31
0.0
  0
LINE
  5
16F01
  8
0
 10
4320.1994340874407499
 20
442.1228196212902049
 30
0.0
 11
4320.1994340874407499
 21
442.3196700149900948
 31
0.0
  0
LINE
  5
16F02
  8
0
 10
4320.1994340874407499
 20
442.3196700149900948
 30
0.0
 11
4319.608882906341023
 21
442.3196700149900948
 31
0.0
  0
ARC
  5
16F03
  8
0
 10
4318.1067238301657198
 20
436.6176163372924179
 30
0.0
 40
1.409691282478972
 50
184.007346031361493
 51
267.9911271574757166
  0
ARC
  5
16F04
  8
0
 10
4321.8234845944089102
 20
434.9512126120454809
 30
0.0
 40
0.1259842515453329
 50
56.9761323457663309
 51
88.0000000178289383
  0
ARC
  5
16F05
  8
0
 10
4321.9980036233600913
 20
435.1664682490144855
 30
0.0
 40
0.1496063008842037
 50
236.9761325072310001
 51
257.3196163478467042
  0
ARC
  5
16F06
  8
0
 10
4316.1379153696079811
 20
442.1936857629086148
 30
0.0
 40
0.1653543307815812
 50
4.0000000513891187
 51
89.9999999889526379
  0
LINE
  5
16F07
  8
0
 10
4316.2382923551404019
 20
442.3250878766043002
 30
0.0
 11
4316.2382923551404019
 21
442.2855361566901138
 31
0.0
  0
LINE
  5
16F08
  8
0
 10
4316.2532927469410424
 20
442.2705361566901843
 30
0.0
 11
4316.2843259965584366
 21
442.2705361566901843
 31
0.0
  0
ARC
  5
16F09
  8
0
 10
4316.2532923551498243
 20
442.2855361566938086
 30
0.0
 40
0.0150000000087287
 50
180.0000000138091991
 51
270.0014965324252216
  0
ARC
  5
16F0A
  8
0
 10
4315.7011128546400869
 20
442.5086463929901015
 30
0.0
 40
0.1496062991999985
 50
224.9999999997835118
 51
269.999999999687418
  0
LINE
  5
16F0B
  8
0
 10
4315.5953252259678266
 20
442.4028587643180117
 30
0.0
 11
4315.5682777547408477
 21
442.4299062354901935
 31
0.0
  0
ARC
  5
16F0C
  8
0
 10
4314.8175443236395949
 20
442.5558904873901156
 30
0.0
 40
0.031496062999997
 50
90.0
 51
180.0000000000098055
  0
ARC
  5
16F0D
  8
0
 10
4319.3136073157402279
 20
442.1621896999901082
 30
0.0
 40
0.1968503937000028
 50
180.0
 51
270.0
  0
ARC
  5
16F0E
  8
0
 10
4320.4947096779396816
 20
442.1621896999901082
 30
0.0
 40
0.1968503937000054
 50
270.0
 51
0.0
  0
LINE
  5
16F0F
  8
0
 10
4329.3529773945410852
 20
442.4299062354901935
 30
0.0
 11
4329.3529773945410852
 21
442.1621896999901082
 31
0.0
  0
LINE
  5
16F10
  8
0
 10
4329.5498277882397815
 20
441.9653393062901046
 30
0.0
 11
4330.7309301504410541
 21
441.9653393062901046
 31
0.0
  0
LINE
  5
16F11
  8
0
 10
4330.9277805441397504
 20
442.1621896999901082
 30
0.0
 11
4330.9277805441397504
 21
442.4299062354901935
 31
0.0
  0
LINE
  5
16F12
  8
0
 10
4329.8451033788396671
 20
442.3196700149900948
 30
0.0
 11
4329.8451033788396671
 21
442.1228196212902049
 31
0.0
  0
LINE
  5
16F13
  8
0
 10
4329.8451033788396671
 20
442.1228196212902049
 30
0.0
 11
4330.4356545599403034
 21
442.1228196212902049
 31
0.0
  0
LINE
  5
16F14
  8
0
 10
4330.4356545599403034
 20
442.1228196212902049
 30
0.0
 11
4330.4356545599403034
 21
442.3196700149900948
 31
0.0
  0
LINE
  5
16F15
  8
0
 10
4330.4356545599403034
 20
442.3196700149900948
 30
0.0
 11
4329.8451033788396671
 21
442.3196700149900948
 31
0.0
  0
ARC
  5
16F16
  8
0
 10
4329.5498277882397815
 20
442.1621896999901082
 30
0.0
 40
0.1968503937000028
 50
180.0
 51
270.0
  0
ARC
  5
16F17
  8
0
 10
4330.7309301504410541
 20
442.1621896999901082
 30
0.0
 40
0.1968503937000054
 50
270.0
 51
0.0
  0
LINE
  5
16F18
  8
0
 10
4339.5891978669396849
 20
442.4299062354901935
 30
0.0
 11
4339.5891978669396849
 21
442.1621896999901082
 31
0.0
  0
LINE
  5
16F19
  8
0
 10
4339.7860482606402002
 20
441.9653393062901046
 30
0.0
 11
4340.9671506228396538
 21
441.9653393062901046
 31
0.0
  0
LINE
  5
16F1A
  8
0
 10
4341.1640010165410786
 20
442.1621896999901082
 30
0.0
 11
4341.1640010165410786
 21
442.4299062354901935
 31
0.0
  0
LINE
  5
16F1B
  8
0
 10
4340.0813238512409953
 20
442.3196700149900948
 30
0.0
 11
4340.0813238512409953
 21
442.1228196212902049
 31
0.0
  0
LINE
  5
16F1C
  8
0
 10
4340.0813238512409953
 20
442.1228196212902049
 30
0.0
 11
4340.6718750323407221
 21
442.1228196212902049
 31
0.0
  0
LINE
  5
16F1D
  8
0
 10
4340.6718750323407221
 20
442.1228196212902049
 30
0.0
 11
4340.6718750323407221
 21
442.3196700149900948
 31
0.0
  0
LINE
  5
16F1E
  8
0
 10
4340.6718750323407221
 20
442.3196700149900948
 30
0.0
 11
4340.0813238512409953
 21
442.3196700149900948
 31
0.0
  0
ARC
  5
16F1F
  8
0
 10
4339.7860482606402002
 20
442.1621896999901082
 30
0.0
 40
0.1968503937000028
 50
180.0
 51
270.0
  0
ARC
  5
16F20
  8
0
 10
4340.9671506228396538
 20
442.1621896999901082
 30
0.0
 40
0.1968503937000054
 50
270.0
 51
0.0
  0
LINE
  5
16F21
  8
0
 10
4344.8254183393410131
 20
442.4299062354901935
 30
0.0
 11
4344.8254183393410131
 21
441.9653393062901046
 31
0.0
  0
LINE
  5
16F22
  8
0
 10
4344.8254183393410131
 20
441.9653393062901046
 30
0.0
 11
4344.8569144023404078
 21
441.9653393062901046
 31
0.0
  0
LINE
  5
16F23
  8
0
 10
4344.8569144023404078
 20
441.9653393062901046
 30
0.0
 11
4344.8569144023404078
 21
442.4299062354901935
 31
0.0
  0
LINE
  5
16F24
  8
0
 10
4344.7124801838399435
 20
442.4299062354901935
 30
0.0
 11
4344.6854327126402495
 21
442.4028587642901016
 31
0.0
  0
ARC
  5
16F25
  8
0
 10
4344.5796450835177893
 20
442.5086463938021097
 30
0.0
 40
0.1496063001119157
 50
270.0000117684650718
 51
314.9999998946299797
  0
LINE
  5
16F26
  8
0
 10
4333.6322234828394357
 20
437.6079608557901111
 30
0.0
 11
4333.3107409212398125
 21
442.2052202980901825
 31
0.0
  0
LINE
  5
16F27
  8
0
 10
4343.9778910330396684
 20
442.2052202980901825
 30
0.0
 11
4343.6568057522408708
 21
437.6134868576901908
 31
0.0
  0
ARC
  5
16F28
  8
0
 10
4344.1428425689728101
 20
442.1936857629086148
 30
0.0
 40
0.1653543307815894
 50
90.0000000110473479
 51
175.9999999486109061
  0
ARC
  5
16F29
  8
0
 10
4333.1457893854812937
 20
442.1936857630942086
 30
0.0
 40
0.1653543305959221
 50
3.9999999913951458
 51
90.0000000142260745
  0
ARC
  5
16F2A
  8
0
 10
4333.486835662240992
 20
442.1621896999901082
 30
0.0
 40
0.1968503936999806
 50
180.0
 51
212.7016967689453111
  0
LINE
  5
16F2B
  8
0
 10
4333.2899852685413862
 20
442.1621896999901082
 30
0.0
 11
4333.2899852685413862
 21
442.2746153742119191
 31
0.0
  0
ARC
  5
16F2C
  8
0
 10
4335.0378425664166571
 20
437.7117922848078138
 30
0.0
 40
1.4094488191369641
 50
184.2246988468515951
 51
267.6025385794524141
  0
LINE
  5
16F2D
  8
0
 10
4336.2767002789396429
 20
436.2582224795900743
 30
0.0
 11
4334.9788833688398881
 21
436.3035771780901086
 31
0.0
  0
LINE
  5
16F2E
  8
0
 10
4336.3409634416402696
 20
436.237945665590189
 30
0.0
 11
4336.3652888300402992
 21
436.2221341631901055
 31
0.0
  0
LINE
  5
16F2F
  8
0
 10
4336.4139821131402641
 20
436.201613244590078
 30
0.0
 11
4336.8691628713404498
 21
436.0991975740901125
 31
0.0
  0
ARC
  5
16F30
  8
0
 10
4336.2723034920081773
 20
436.132314974245503
 30
0.0
 40
0.125984251545324
 50
56.9761323457645616
 51
88.0000000178289383
  0
ARC
  5
16F31
  8
0
 10
4336.4468225201007954
 20
436.3475706089375876
 30
0.0
 40
0.1496062984521472
 50
236.9761323401095012
 51
257.3196165149748822
  0
ARC
  5
16F32
  8
0
 10
4340.841809433321032
 20
436.3475706112145076
 30
0.0
 40
0.1496063008841963
 50
282.6803836521531821
 51
303.0238674927688862
  0
ARC
  5
16F33
  8
0
 10
4341.0163284621448838
 20
436.1323149749895833
 30
0.0
 40
0.1259842507972133
 50
91.9999999358169305
 51
123.0238677517477015
  0
LINE
  5
16F34
  8
0
 10
4340.8746498412410801
 20
436.201613244590078
 30
0.0
 11
4340.419469083039985
 21
436.0991975740901125
 31
0.0
  0
LINE
  5
16F35
  8
0
 10
4340.9233431242801089
 20
436.2221341631674818
 30
0.0
 11
4340.9476685127410747
 21
436.237945665590189
 31
0.0
  0
LINE
  5
16F36
  8
0
 10
4341.0119316753407475
 20
436.2582224795900743
 30
0.0
 11
4342.3097486386395758
 21
436.3035771802901195
 31
0.0
  0
ARC
  5
16F37
  8
0
 10
4342.2505415635887402
 20
437.7120471370951122
 30
0.0
 40
1.4097138351304681
 50
272.4070939334341119
 51
355.9908893180697191
  0
LINE
  5
16F38
  8
0
 10
4332.0881272535398239
 20
442.2052202980901825
 30
0.0
 11
4331.6905150548400343
 21
436.5191009454902087
 31
0.0
  0
ARC
  5
16F39
  8
0
 10
4332.2530787894729656
 20
442.1936857629086148
 30
0.0
 40
0.1653543307815878
 50
90.0000000111515845
 51
175.9999999486109061
  0
ARC
  5
16F3A
  8
0
 10
4330.284265769502781
 20
436.6176193683178894
 30
0.0
 40
1.4096960424670399
 50
272.4147348339652126
 51
355.9925440268328884
  0
LINE
  5
16F3B
  8
0
 10
4330.3436599263413882
 20
435.2091750966901031
 30
0.0
 11
4326.5631127777396614
 21
435.077120117390109
 31
0.0
  0
LINE
  5
16F3C
  8
0
 10
4326.4745242267408685
 20
435.0410318009901971
 30
0.0
 11
4326.4988496150408537
 21
435.0568433033902238
 31
0.0
  0
LINE
  5
16F3D
  8
0
 10
4326.4258309436399941
 20
435.0205108823901128
 30
0.0
 11
4325.9706501854407179
 21
434.9180952117901029
 31
0.0
  0
ARC
  5
16F3E
  8
0
 10
4326.5675095646720365
 20
434.9512126120454809
 30
0.0
 40
0.1259842515453377
 50
91.9999999821710759
 51
123.023867654233598
  0
ARC
  5
16F3F
  8
0
 10
4326.3929905357208554
 20
435.1664682490144855
 30
0.0
 40
0.1496063008841897
 50
282.6803836521531821
 51
303.0238674927688862
  0
ARC
  5
16F40
  8
0
 10
4345.4632136149402868
 20
442.5558904873901156
 30
0.0
 40
0.0314960630000041
 50
0.0000000000065138
 51
90.0
  0
LINE
  5
16F41
  8
0
 10
4345.4947096779396816
 20
442.4299062354901935
 30
0.0
 11
4345.4947096779396816
 21
442.5558904873901156
 31
0.0
  0
LINE
  5
16F43
  8
0
 10
4317.2971210021396473
 20
442.6326409825902033
 30
0.0
 11
4317.2934617174396408
 21
443.0519534794901801
 31
0.0
  0
LINE
  5
16F44
  8
0
 10
4316.2782958276402496
 20
443.0519534794901801
 30
0.0
 11
4317.3882888825410191
 21
443.0519534794901801
 31
0.0
  0
LINE
  5
16F45
  8
0
 10
4317.4079735487403013
 20
443.0717597261901233
 30
0.0
 11
4317.3982773774396264
 21
444.6464659099901269
 31
0.0
  0
LINE
  5
16F46
  8
0
 10
4317.4042442186409971
 20
444.7783512012902065
 30
0.0
 11
4317.4049481253396152
 21
444.6976914836901074
 31
0.0
  0
LINE
  5
16F47
  8
0
 10
4317.3970596789404226
 20
444.6897487550900792
 30
0.0
 11
4316.2695250311408017
 21
444.6897487550900792
 31
0.0
  0
LINE
  5
16F48
  8
0
 10
4316.2722442658723594
 20
444.6503786763901189
 30
0.0
 11
4317.3943403643397687
 21
444.6503786763901189
 31
0.0
  0
LINE
  5
16F49
  8
0
 10
4317.3117104288403425
 20
442.6137984768901106
 30
0.0
 11
4317.4102810805397894
 21
442.5873865503900788
 31
0.0
  0
LINE
  5
16F4A
  8
0
 10
4317.3117104288403425
 20
442.6137984768901106
 30
0.0
 11
4316.3548742812399723
 21
442.6137984768901106
 31
0.0
  0
ARC
  5
16F4B
  8
0
 10
4317.3168052917490058
 20
442.6328127646344797
 30
0.0
 40
0.0196850391539141
 50
180.4999995676230071
 51
255.0000003838501925
  0
ARC
  5
16F4C
  8
0
 10
4317.3882888825673945
 20
443.0716385188227946
 30
0.0
 40
0.0196850393326678
 50
269.9999999184475996
 51
0.352791496082051
  0
ARC
  5
16F4D
  8
0
 10
4317.3943404442870815
 20
444.6464416686059735
 30
0.0
 40
0.0039370077849625
 50
0.352790203587515
 51
90.0011634735748345
  0
ARC
  5
16F4E
  8
0
 10
4317.3903447614457036
 20
444.6543156842055282
 30
0.0
 40
0.003937007915272
 50
180.4999996498920041
 51
269.9999999085986815
  0
LINE
  5
16F4F
  8
0
 10
4317.3860983838403627
 20
444.6897487550900792
 30
0.0
 11
4317.3864079034401584
 21
444.6542813277901018
 31
0.0
  0
ARC
  5
16F50
  8
0
 10
4317.3970743859727008
 20
444.6976227804560722
 30
0.0
 40
0.0078740391007015
 50
269.8929835908743939
 51
0.4999283407117802
  0
ARC
  5
16F51
  8
0
 10
4317.392433644531593
 20
444.7782481318697023
 30
0.0
 40
0.0118110238369931
 50
0.5000004933994099
 51
79.9999992964487063
  0
ARC
  5
16F52
  8
0
 10
4317.264295985553872
 20
444.6129483594473868
 30
0.0
 40
0.1968503922389667
 50
79.9999999702045557
 51
87.3758650245800652
  0
LINE
  5
16F53
  8
0
 10
4317.298478697540304
 20
444.8068081518900954
 30
0.0
 11
4317.3944846074409725
 21
444.7898797196900773
 31
0.0
  0
ARC
  5
16F54
  8
0
 10
4316.8332923553425644
 20
435.2089276057074017
 30
0.0
 40
9.6107428106827992
 50
87.375865016233746
 51
92.6241349873134965
  0
LINE
  5
16F55
  8
0
 10
4316.3694637080188841
 20
442.6326409825902033
 30
0.0
 11
4316.3731229927179811
 21
443.0519534794901801
 31
0.0
  0
LINE
  5
16F56
  8
0
 10
4316.25861116141823
 20
443.0717597261901233
 30
0.0
 11
4316.2683073327398233
 21
444.6464659099901269
 31
0.0
  0
LINE
  5
16F57
  8
0
 10
4316.2623404915184437
 20
444.7783512012902065
 30
0.0
 11
4316.2616365848180067
 21
444.6976914836901074
 31
0.0
  0
LINE
  5
16F58
  8
0
 10
4316.3548742813181889
 20
442.6137984768901106
 30
0.0
 11
4316.256303629618742
 21
442.5873865503900788
 31
0.0
  0
ARC
  5
16F59
  8
0
 10
4316.349779418408616
 20
442.6328127646344797
 30
0.0
 40
0.0196850391539141
 50
284.9999996161498075
 51
359.5000004323769076
  0
ARC
  5
16F5A
  8
0
 10
4316.2782958275911369
 20
443.0716385188227946
 30
0.0
 40
0.0196850393326678
 50
179.6472085039179092
 51
270.0000000815525141
  0
ARC
  5
16F5B
  8
0
 10
4316.2722442658696309
 20
444.6464416686064851
 30
0.0
 40
0.003937007783561
 50
89.999999979677014
 51
179.6472098048446924
  0
ARC
  5
16F5C
  8
0
 10
4316.2762399487119183
 20
444.6543156842055282
 30
0.0
 40
0.003937007915272
 50
270.0000000914013185
 51
359.5000003501079959
  0
LINE
  5
16F5D
  8
0
 10
4316.2804863263190782
 20
444.6897487550900792
 30
0.0
 11
4316.280176806718373
 21
444.6542813277901018
 31
0.0
  0
ARC
  5
16F5E
  8
0
 10
4316.269510324184921
 20
444.6976227804560722
 30
0.0
 40
0.0078740391007015
 50
179.50007165928821
 51
270.1070164091256061
  0
ARC
  5
16F5F
  8
0
 10
4316.2741510656260289
 20
444.7782481318697023
 30
0.0
 40
0.0118110238369931
 50
100.0000007035512937
 51
179.4999995066006022
  0
ARC
  5
16F60
  8
0
 10
4316.4022887246046594
 20
444.6129483594473868
 30
0.0
 40
0.1968503922389667
 50
92.6241349754199064
 51
100.0000000297954017
  0
LINE
  5
16F61
  8
0
 10
4316.3681060126191369
 20
444.8068081518900954
 30
0.0
 11
4316.2721001027175589
 21
444.7898797196900773
 31
0.0
  0
LINE
  5
16F62
  8
0
 10
4316.9435285154404482
 20
444.32360711744019
 30
0.0
 11
4316.9435285154404482
 21
443.6549640013889757
 31
0.0
  0
LINE
  5
16F63
  8
0
 10
4316.7230562637396361
 20
444.32360711744019
 30
0.0
 11
4316.7230562637396361
 21
443.6549619904383235
 31
0.0
  0
ARC
  5
16F64
  8
0
 10
4316.8332923895895874
 20
444.32360711744019
 30
0.0
 40
0.1102361258499993
 50
0.0
 51
180.0
  0
ARC
  5
16F65
  8
0
 10
4316.8332923895895874
 20
444.32360711744019
 30
0.0
 40
0.1139952194500005
 50
345.2450888358018233
 51
194.7549111641982051
  0
ARC
  5
16F66
  8
0
 10
4316.7928015316447272
 20
443.6512017753316854
 30
0.0
 40
0.038251591682227
 50
140.2578946078182867
 51
219.7421053921815997
  0
ARC
  5
16F67
  8
0
 10
4316.8332923541838682
 20
443.5997643114790208
 30
0.0
 40
0.1060447007111876
 50
68.2493991687830146
 51
111.7506008312169996
  0
ARC
  5
16F68
  8
0
 10
4316.8332923550260602
 20
443.7206406817895186
 30
0.0
 40
0.1209328850993504
 50
251.0376820308862023
 51
288.9623179691138262
  0
ARC
  5
16F69
  8
0
 10
4316.8737831779308181
 20
443.6512017749922734
 30
0.0
 40
0.0382515922817446
 50
320.2578946933111865
 51
39.7421053066887211
  0
ARC
  5
16F6A
  8
0
 10
4316.8215025639083251
 20
443.6289856539141283
 30
0.0
 40
0.0745349427258867
 50
111.6568537732570974
 51
141.2318037407646898
  0
ARC
  5
16F6B
  8
0
 10
4316.8173026901931735
 20
443.6742229507318029
 30
0.0
 40
0.0718383577097265
 50
221.3671791985258892
 51
251.0685305520536019
  0
ARC
  5
16F6C
  8
0
 10
4316.8450821642054507
 20
443.6289856762662112
 30
0.0
 40
0.0745349146637909
 50
38.7681915461206898
 51
68.3431539944007085
  0
ARC
  5
16F6D
  8
0
 10
4316.849282013420634
 20
443.6742229619865157
 30
0.0
 40
0.0718383704441293
 50
288.9314713920779241
 51
318.6328170632243086
  0
ARC
  5
16F6E
  8
0
 10
4316.8332912989126271
 20
443.7436774177846814
 30
0.0
 40
0.1622869205977102
 50
243.8593973508990871
 51
296.1406026491009129
  0
ARC
  5
16F6F
  8
0
 10
4316.779332523325138
 20
443.6549619904383235
 30
0.0
 40
0.0562762595843825
 50
180.0
 51
218.4087074339041123
  0
ARC
  5
16F70
  8
0
 10
4316.7995344945547913
 20
443.6705582841959199
 30
0.0
 40
0.081796629682084
 50
218.1778509691093006
 51
242.5210450269242131
  0
ARC
  5
16F71
  8
0
 10
4316.8872596183728092
 20
443.6549640013889757
 30
0.0
 40
0.0562688970681665
 50
321.5879618154322088
 51
0.0
  0
ARC
  5
16F72
  8
0
 10
4316.8661263653930291
 20
443.6716661967340087
 30
0.0
 40
0.0832054234353751
 50
297.6900350959941761
 51
321.6176624302066216
  0
ENDSEC
  0
EOF
