  0
SECTION
  2
HEADER
  9
$ACADVER
  1
AC1009
  9
$INSBASE
 10
3414.6746791822201885
 20
211.8430178042862053
 30
0.0
  9
$EXTMIN
 10
3406.7277555116188523
 20
184.6692343843182016
 30
-0.0015258207003583
  9
$EXTMAX
 10
3422.6560694491649883
 20
211.8549969339391907
 30
0.0000000349246037
  9
$LIMMIN
 10
0.0
 20
0.0
  9
$LIMMAX
 10
11.6929133858000007
 20
8.2677165353999982
  9
$ORTHOMODE
 70
     0
  9
$REGENMODE
 70
     1
  9
$FILLMODE
 70
     1
  9
$QTEXTMODE
 70
     0
  9
$MIRRTEXT
 70
     0
  9
$DRAGMODE
 70
     2
  9
$LTSCALE
 40
0.6431102362
  9
$OSMODE
 70
  2039
  9
$ATTMODE
 70
     1
  9
$TEXTSIZE
 40
0.2
  9
$TRACEWID
 40
0.05
  9
$TEXTSTYLE
  7
STANDARD
  9
$CLAYER
  8
0
  9
$CELTYPE
  6
BYLAYER
  9
$CECOLOR
 62
   256
  9
$DIMSCALE
 40
1.0
  9
$DIMASZ
 40
0.1875
  9
$DIMEXO
 40
0.0625
  9
$DIMDLI
 40
0.4443307087
  9
$DIMRND
 40
0.0
  9
$DIMDLE
 40
0.0
  9
$DIMEXE
 40
0.125
  9
$DIMTP
 40
0.01
  9
$DIMTM
 40
0.01
  9
$DIMTXT
 40
2.0
  9
$DIMCEN
 40
0.1052362205
  9
$DIMTSZ
 40
0.0
  9
$DIMTOL
 70
     1
  9
$DIMLIM
 70
     0
  9
$DIMTIH
 70
     1
  9
$DIMTOH
 70
     1
  9
$DIMSE1
 70
     0
  9
$DIMSE2
 70
     0
  9
$DIMTAD
 70
     0
  9
$DIMZIN
 70
     0
  9
$DIMBLK
  1

  9
$DIMASO
 70
     1
  9
$DIMSHO
 70
     1
  9
$DIMPOST
  1
\X
  9
$DIMAPOST
  1

  9
$DIMALT
 70
     1
  9
$DIMALTD
 70
     2
  9
$DIMALTF
 40
25.3999999999999986
  9
$DIMLFAC
 40
1.0
  9
$DIMTOFL
 70
     0
  9
$DIMTVP
 40
0.0
  9
$DIMTIX
 70
     0
  9
$DIMSOXD
 70
     0
  9
$DIMSAH
 70
     0
  9
$DIMBLK1
  1

  9
$DIMBLK2
  1

  9
$DIMSTYLE
  2
STANDARD
  9
$DIMCLRD
 70
     0
  9
$DIMCLRE
 70
     0
  9
$DIMCLRT
 70
     0
  9
$DIMTFAC
 40
1.0
  9
$DIMGAP
 40
0.09
  9
$LUNITS
 70
     2
  9
$LUPREC
 70
     4
  9
$SKETCHINC
 40
0.1
  9
$FILLETRAD
 40
0.0
  9
$AUNITS
 70
     0
  9
$AUPREC
 70
     0
  9
$MENU
  1
.
  9
$ELEVATION
 40
0.0
  9
$PELEVATION
 40
0.0
  9
$THICKNESS
 40
0.0
  9
$LIMCHECK
 70
     0
  9
$BLIPMODE
 70
     0
  9
$CHAMFERA
 40
0.0
  9
$CHAMFERB
 40
0.0
  9
$SKPOLY
 70
     0
  9
$TDCREATE
 40
2458060.468368056230247
  9
$TDUPDATE
 40
2459159.4146180548705161
  9
$TDINDWG
 40
0.571847338
  9
$TDUSRTIMER
 40
0.571847338
  9
$USRTIMER
 70
     1
  9
$ANGBASE
 50
0.0
  9
$ANGDIR
 70
     0
  9
$PDMODE
 70
     0
  9
$PDSIZE
 40
0.3125
  9
$PLINEWID
 40
0.0
  9
$COORDS
 70
     1
  9
$SPLFRAME
 70
     0
  9
$SPLINETYPE
 70
     6
  9
$SPLINESEGS
 70
     8
  9
$ATTDIA
 70
     1
  9
$ATTREQ
 70
     1
  9
$HANDLING
 70
     1
  9
$HANDSEED
  5
15D1B
  9
$SURFTAB1
 70
     6
  9
$SURFTAB2
 70
     6
  9
$SURFTYPE
 70
     6
  9
$SURFU
 70
     6
  9
$SURFV
 70
     6
  9
$UCSNAME
  2

  9
$UCSORG
 10
0.0
 20
0.0
 30
0.0
  9
$UCSXDIR
 10
1.0
 20
0.0
 30
0.0
  9
$UCSYDIR
 10
0.0
 20
1.0
 30
0.0
  9
$PUCSNAME
  2

  9
$PUCSORG
 10
0.0
 20
0.0
 30
0.0
  9
$PUCSXDIR
 10
1.0
 20
0.0
 30
0.0
  9
$PUCSYDIR
 10
0.0
 20
1.0
 30
0.0
  9
$USERI1
 70
     0
  9
$USERI2
 70
     0
  9
$USERI3
 70
     0
  9
$USERI4
 70
     0
  9
$USERI5
 70
     0
  9
$USERR1
 40
0.0
  9
$USERR2
 40
0.0
  9
$USERR3
 40
0.0
  9
$USERR4
 40
0.0
  9
$USERR5
 40
0.0
  9
$WORLDVIEW
 70
     1
  9
$SHADEDGE
 70
     3
  9
$SHADEDIF
 70
    70
  9
$TILEMODE
 70
     1
  9
$MAXACTVP
 70
    64
  9
$PLIMCHECK
 70
     0
  9
$PEXTMIN
 10
1.0000000000000000E+20
 20
1.0000000000000000E+20
 30
1.0000000000000000E+20
  9
$PEXTMAX
 10
-1.0000000000000000E+20
 20
-1.0000000000000000E+20
 30
-1.0000000000000000E+20
  9
$PLIMMIN
 10
0.0
 20
0.0
  9
$PLIMMAX
 10
12.0
 20
9.0
  9
$UNITMODE
 70
     0
  9
$VISRETAIN
 70
     1
  9
$PLINEGEN
 70
     0
  9
$PSLTSCALE
 70
     1
  0
ENDSEC
  0
SECTION
  2
TABLES
  0
TABLE
  2
VPORT
 70
     1
  0
VPORT
  2
*ACTIVE
 70
     0
 10
0.0
 20
0.0
 11
1.0
 21
1.0
 12
110.998797246016693
 22
3.0006040832409449
 13
0.0
 23
0.0
 14
1.0
 24
1.0
 15
0.0
 25
0.0
 16
0.0
 26
0.0
 36
96.5995694866707311
 17
3303.693115234375
 27
195.2615115758877096
 37
0.0
 40
27.41199635724616
 41
2.6486111111111108
 42
50.0
 43
0.0
 44
0.0
 50
0.0
 51
0.0
 71
     0
 72
   100
 73
     1
 74
     1
 75
     0
 76
     0
 77
     0
 78
     0
  0
ENDTAB
  0
TABLE
  2
LTYPE
 70
     2
  0
LTYPE
  2
CONTINUOUS
 70
     0
  3
Solid line
 72
    65
 73
     0
 40
0.0
  0
LTYPE
  2
PHANTOM2
 70
     0
  3
___ _ _ ___ _ _ ___ _ _ ___ _ _
 72
    65
 73
     6
 40
1.25
 49
0.625
 49
-0.125
 49
0.125
 49
-0.125
 49
0.125
 49
-0.125
  0
ENDTAB
  0
TABLE
  2
LAYER
 70
     2
  0
LAYER
  2
0
 70
     0
 62
   255
  6
CONTINUOUS
  0
LAYER
  2
DEFPOINTS
 70
     0
 62
     7
  6
CONTINUOUS
  0
ENDTAB
  0
TABLE
  2
STYLE
 70
     1
  0
STYLE
  2
STANDARD
 70
     0
 40
0.0
 41
0.8
 50
0.0
 71
     0
 42
0.2
  3
txt
  4

  0
ENDTAB
  0
TABLE
  2
VIEW
 70
     0
  0
ENDTAB
  0
TABLE
  2
UCS
 70
     0
  0
ENDTAB
  0
TABLE
  2
APPID
 70
     9
  0
APPID
  2
ACAD
 70
     0
  0
APPID
  2
ACAD_MLEADERVER
 70
     0
  0
APPID
  2
ACAD_EXEMPT_FROM_CAD_STANDARDS
 70
     0
  0
APPID
  2
ACAD_NAV_VCDISPLAY
 70
     0
  0
APPID
  2
ACAECLAYERSTANDARD
 70
     0
  0
APPID
  2
ACCMTRANSPARENCY
 70
     0
  0
APPID
  2
ACAD_DSTYLE_DIMJAG
 70
     0
  0
APPID
  2
ACAD_DSTYLE_DIMTALN
 70
     0
  0
APPID
  2
ACDBATTR
 70
     0
  0
ENDTAB
  0
TABLE
  2
DIMSTYLE
 70
     1
  0
DIMSTYLE
  2
STANDARD
 70
     0
  3

  4

  5

  6

  7

 40
1.0
 41
0.1875
 42
0.0625
 43
0.38
 44
0.125
 45
0.0
 46
0.0
 47
0.01
 48
0.01
140
0.15625
141
0.09
142
0.0
143
25.3999999999999986
144
1.0
145
0.0
146
1.0
147
0.09
 71
     1
 72
     0
 73
     1
 74
     1
 75
     0
 76
     0
 77
     0
 78
     4
170
     0
171
     2
172
     0
173
     0
174
     0
175
     0
176
     0
177
     0
178
     0
  0
ENDTAB
  0
ENDSEC
  0
SECTION
  2
BLOCKS
  0
BLOCK
  8
0
  2
$MODEL_SPACE
 70
     0
 10
0.0
 20
0.0
 30
0.0
  3
$MODEL_SPACE
  1

  0
ENDBLK
  5
21
  8
0
  0
BLOCK
 67
     1
  8
0
  2
$PAPER_SPACE
 70
     0
 10
0.0
 20
0.0
 30
0.0
  3
$PAPER_SPACE
  1

  0
ENDBLK
  5
1D
 67
     1
  8
0
  0
BLOCK
  8
0
  2
_FILLED
 70
     0
 10
0.0
 20
0.0
 30
0.0
  3
_FILLED
  1

  0
SOLID
  5
9E2C
  8
0
  6
BYBLOCK
 62
     0
 10
0.0
 20
0.0
 30
0.0
 11
-1.0
 21
0.1666666667
 31
0.0
 12
-1.0
 22
-0.1666666667
 32
0.0
 13
-1.0
 23
-0.1666666667
 33
0.0
  0
ENDBLK
  5
9E2D
  8
0
  6
BYBLOCK
 62
     0
  0
BLOCK
  8
0
  2
A$C6B0F1CD5
 70
     2
 10
0.0
 20
0.0
 30
0.0
  3
A$C6B0F1CD5
  1

  0
ATTDEF
  5
B779
  8
DEFPOINTS
 10
0.0005209962714616
 20
0.000347009907216
 30
0.0
 40
0.001
  1
BATH FAUCET
  3

  2
PRODUCT
 70
     0
1001
ACDBATTR
1070
     0
1070
     1
  0
ATTDEF
  5
B77A
  8
DEFPOINTS
 10
0.0005209962714616
 20
0.0020136765738812
 30
0.0
 40
0.001
  1
SINGULIER
  3

  2
TRADENAME
 70
     0
1001
ACDBATTR
1070
     0
1070
     1
  0
ATTDEF
  5
B77B
  8
DEFPOINTS
 10
0.0005209962714616
 20
0.0036803432405463
 30
0.0
 40
0.001
  1
K-10873W
  3

  2
MODELNUMBER
 70
     0
1001
ACDBATTR
1070
     0
1070
     1
  0
ENDBLK
  5
B77F
  8
0
  0
ENDSEC
  0
SECTION
  2
ENTITIES
  0
ATTDEF
  5
1549A
  8
DEFPOINTS
 10
3414.674935756060222
 20
211.846677277131306
 30
0.0
 40
0.001
  1
K-3588T-S2
  3

  2
MODELNUMBER
 70
     0
1001
ACDBATTR
1070
     0
1070
     1
  0
ATTDEF
  5
1549B
  8
DEFPOINTS
 10
3414.674935756060222
 20
211.8450106104646125
 30
0.0
 40
0.001
  1
ESCALE
  3

  2
TRADENAME
 70
     0
1001
ACDBATTR
1070
     0
1070
     1
  0
ATTDEF
  5
1549C
  8
DEFPOINTS
 10
3414.674935756060222
 20
211.8433439437978905
 30
0.0
 40
0.001
  1
TOILET 
  3

  2
PRODUCT
 70
     0
1001
ACDBATTR
1070
     0
1070
     1
  0
LINE
  5
15A67
  8
0
 10
3407.2012540518198875
 20
211.8430178042862053
 30
0.0
 11
3422.1481043126191253
 21
211.8430178042862053
 31
0.0
  0
ARC
  5
15A68
  8
0
 10
3407.2008888715818102
 20
211.7187556604141889
 30
0.0
 40
0.1242626804647012
 50
89.8316202705437803
 51
179.3201731139002959
  0
LINE
  5
15A69
  8
0
 10
3407.0766349380742213
 20
211.7202300295508053
 30
0.0
 11
3407.0762885414660559
 21
210.4650680998163921
 31
0.0
  0
ARC
  5
15A6A
  8
0
 10
3406.9221720417422148
 20
210.3400273416116022
 30
0.0
 40
0.1250929044052364
 50
91.654427403515129
 51
179.9827310951548043
  0
LINE
  5
15A6B
  8
0
 10
3406.797079143018891
 20
210.3400650445184112
 30
0.0
 11
3406.797079143018891
 21
206.2409227661163982
 31
0.0
  0
ARC
  5
15A6C
  8
0
 10
3406.9149800216819131
 20
206.2408595258648916
 30
0.0
 40
0.1179008956220619
 50
179.9692674117279978
 51
240.638230787595603
  0
ARC
  5
15A6D
  8
0
 10
3413.9840500333370983
 20
222.9278606211730107
 30
0.0
 40
18.2397460717387006
 50
246.9998536467832935
 51
249.5243321571028048
  0
ARC
  5
15A6E
  8
0
 10
3414.674679248018947
 20
224.7170335485168948
 30
0.0
 40
20.1574803150005302
 50
249.4642833637969943
 51
269.9999998129765117
  0
ARC
  5
15A6F
  8
0
 10
3410.6475765514578598
 20
203.3399605918282873
 30
0.0
 40
0.4468262551934514
 50
256.7501433180490267
 51
270.8143390914926272
  0
ARC
  5
15A70
  8
0
 10
3414.5436722747908789
 20
424.9148348018629235
 30
0.0
 40
222.0557262395468001
 50
268.9962997641443962
 51
270.0337951507221987
  0
LINE
  5
15A71
  8
0
 10
3410.5502613388380269
 20
202.9038603146867956
 30
0.0
 11
3410.5522940751188798
 21
202.9487955608163929
 31
0.0
  0
ARC
  5
15A72
  8
0
 10
3410.6010592116240332
 20
202.8874039364403927
 30
0.0
 40
0.0784026152743068
 50
116.6543254499453042
 51
128.4611284880336939
  0
ARC
  5
15A73
  8
0
 10
3410.5731941622848353
 20
202.9372814845204118
 30
0.0
 40
0.0214745092132662
 50
90.5705784197826489
 51
109.8926347678906978
  0
LINE
  5
15A74
  8
0
 10
3410.5729803125191211
 20
202.9587549289163917
 30
0.0
 11
3410.9647672564201457
 21
202.9587407195164133
 31
0.0
  0
ARC
  5
15A75
  8
0
 10
3410.9647120698500657
 20
202.9190818119728874
 30
0.0
 40
0.0396589459403625
 50
3.1881039351009002
 51
89.9202712407827391
  0
ARC
  5
15A76
  8
0
 10
3409.1133801335981843
 20
202.815961868276986
 30
0.0
 40
1.8938605695437669
 50
2.1584959033611422
 51
3.1881039351009002
  0
LINE
  5
15A77
  8
0
 10
3411.025043842391824
 20
202.886987877817802
 30
0.0
 11
3411.0250532637201104
 21
203.014277633116393
 31
0.0
  0
ARC
  5
15A78
  8
0
 10
3411.0644262665059614
 20
203.0142747189310057
 30
0.0
 40
0.0393730028940296
 50
90.004254998478018
 51
179.9957592635761898
  0
LINE
  5
15A79
  8
0
 10
3411.0644233425191487
 20
203.053647721716402
 30
0.0
 11
3412.3360768823131366
 21
203.0537421594559078
 31
0.0
  0
ARC
  5
15A7A
  8
0
 10
3412.336079805873851
 20
203.0143748808170869
 30
0.0
 40
0.0393672787473
 50
359.8584712435073243
 51
90.004254998478018
  0
LINE
  5
15A7B
  8
0
 10
3412.3754469645191421
 20
203.0142776381163969
 30
0.0
 11
3412.3754469645191421
 21
202.8696944479781052
 31
0.0
  0
ARC
  5
15A7C
  8
0
 10
3407.6382611977492161
 20
182.001819969083698
 30
0.0
 40
21.0448224190174393
 50
85.6808799386525095
 51
88.9571171065781243
  0
ARC
  5
15A7D
  8
0
 10
3413.5098456844530119
 20
371.5649461784234973
 30
0.0
 40
168.6325625883652037
 50
268.5433749409153847
 51
268.988099376914704
  0
LINE
  5
15A7E
  8
0
 10
3410.5317812261191648
 20
202.9586820682164046
 30
0.0
 11
3410.5352124650198675
 21
202.957060303516414
 31
0.0
  0
LINE
  5
15A7F
  8
0
 10
3410.5352124650198675
 20
202.957060303516414
 30
0.0
 11
3410.5418408319419541
 21
202.9049224212022864
 31
0.0
  0
LINE
  5
15A80
  8
0
 10
3410.5418408319419541
 20
202.9049224212022864
 30
0.0
 11
3410.5451648870189274
 21
202.9050289267163976
 31
0.0
  0
ARC
  5
15A81
  8
0
 10
3408.0019829259540529
 20
202.3293551402545916
 30
0.0
 40
0.7140623634907972
 50
88.4504317217257068
 51
178.2612953652470082
  0
ARC
  5
15A82
  8
0
 10
3721.8375888332147952
 20
198.3917251727582993
 30
0.0
 40
314.5742567482444088
 50
179.278844608811994
 51
182.158853390660795
  0
ARC
  5
15A83
  8
0
 10
3408.4741117242438122
 20
186.5964568312647884
 30
0.0
 40
0.9890226966755653
 50
183.1764026342250133
 51
253.46571228273001
  0
ARC
  5
15A84
  8
0
 10
3411.7625880367240825
 20
197.6738195208839102
 30
0.0
 40
12.5441964562993604
 50
253.46571228273001
 51
254.3378446030899056
  0
ARC
  5
15A85
  8
0
 10
3409.003521290117078
 20
186.7365950246461921
 30
0.0
 40
1.302311840194033
 50
241.1986106714531104
 51
254.6359225623697
  0
ARC
  5
15A86
  8
0
 10
3414.6745084878198213
 20
207.4628077825163075
 30
0.0
 40
22.7903541082998906
 50
254.6940662380877995
 51
270.0004291319393133
  0
ARC
  5
15A87
  8
0
 10
3729.631151995304208
 20
199.5442595414953075
 30
0.0
 40
322.2860827044667076
 50
178.8673771737853997
 51
179.4492946493033969
  0
LINE
  5
15A88
  8
0
 10
3406.9185604603558204
 20
210.4650680998163921
 30
0.0
 11
3422.4307979040831924
 21
210.4650680998163921
 31
0.0
  0
CIRCLE
  5
15A89
  8
0
 10
3414.674679248018947
 20
207.9060099264164023
 30
0.0
 40
0.9448818898000013
  0
CIRCLE
  5
15A8A
  8
0
 10
3414.674679248018947
 20
207.9060099264164023
 30
0.0
 40
0.9055118109999966
  0
ARC
  5
15A8B
  8
0
 10
3414.7026232586968035
 20
208.5550152189829873
 30
0.0
 40
0.0196847364875565
 50
9.8457154781695113
 51
87.5251354139861348
  0
ARC
  5
15A8C
  8
0
 10
3410.9986747259108597
 20
207.9060100980235006
 30
0.0
 40
3.780062667972941
 50
350.0620466830283135
 51
9.9379814498684222
  0
ARC
  5
15A8D
  8
0
 10
3414.7026222677868645
 20
207.2570058046958934
 30
0.0
 40
0.0196859489153473
 50
272.4692277452164717
 51
350.2614568280932872
  0
ARC
  5
15A8E
  8
0
 10
3414.6746353574822024
 20
207.9060099263830068
 30
0.0
 40
0.669293228058108
 50
87.5305260374113203
 51
272.4692277452164717
  0
ARC
  5
15A8F
  8
0
 10
3414.7602489762430196
 20
207.2647555230668104
 30
0.0
 40
0.0223853165445194
 50
183.9938757042972099
 51
274.463059868913092
  0
ARC
  5
15A90
  8
0
 10
3414.6746791202908753
 20
207.9060100230342982
 30
0.0
 40
0.6692914663282415
 50
277.4958323708124226
 51
82.5041323339192019
  0
ARC
  5
15A91
  8
0
 10
3414.7597851603750314
 20
208.5478011745574065
 30
0.0
 40
0.0218919839220988
 50
84.2173167420878457
 51
177.3118579823731977
  0
ARC
  5
15A92
  8
0
 10
3410.9640829711329388
 20
207.9060127712930921
 30
0.0
 40
3.8281897262867508
 50
350.3332945450720217
 51
9.6666854673294651
  0
CIRCLE
  5
15A93
  8
0
 10
3414.674679248018947
 20
207.9060099264164023
 30
0.0
 40
0.6888738460999999
  0
ARC
  5
15A94
  8
0
 10
3414.0543516774050659
 20
208.0954078178228031
 30
0.0
 40
0.033399729059441
 50
110.2559106183030053
 51
215.7849559023318022
  0
ARC
  5
15A95
  8
0
 10
3414.6188149341201097
 20
208.5503077652018078
 30
0.0
 40
0.0352838409113138
 50
43.5530593159001498
 51
146.3501505372406939
  0
ARC
  5
15A96
  8
0
 10
3414.8426568842191955
 20
208.5329109991164103
 30
0.0
 40
0.0333271254999994
 50
21.3143203211296601
 51
128.6860800988798985
  0
ARC
  5
15A97
  8
0
 10
3415.1336026845201559
 20
208.3649333630164051
 30
0.0
 40
0.0333271254999991
 50
351.3141385443029776
 51
98.6858334589623496
  0
ARC
  5
15A98
  8
0
 10
3415.3015803207199497
 20
208.0739875626163951
 30
0.0
 40
0.0333271255000064
 50
321.3139735139109234
 51
68.6860041775503163
  0
ARC
  5
15A99
  8
0
 10
3415.0585397671220562
 20
207.9060103149166991
 30
0.0
 40
0.296962051137974
 50
338.7034011933470197
 51
21.2967147832816686
  0
ARC
  5
15A9A
  8
0
 10
3415.3015803207199497
 20
207.7380322903163972
 30
0.0
 40
0.0333271254999941
 50
291.3138694589412125
 51
38.6860800504950291
  0
ARC
  5
15A9B
  8
0
 10
3415.1336026845201559
 20
207.4470864899163871
 30
0.0
 40
0.0333271254999877
 50
261.3139200298547848
 51
8.6860799701617033
  0
ARC
  5
15A9C
  8
0
 10
3414.8426568842191955
 20
207.2791088537163944
 30
0.0
 40
0.0333271255000001
 50
231.3139199011220057
 51
338.6860801049647876
  0
ARC
  5
15A9D
  8
0
 10
3414.6186073453909557
 20
207.2606163933737946
 30
0.0
 40
0.0341730425978167
 50
212.7838191782267074
 51
317.2767970675834022
  0
ARC
  5
15A9E
  8
0
 10
3414.2677287900442025
 20
207.4028462116233129
 30
0.0
 40
0.0348637573984028
 50
179.3799746554593071
 51
282.6953547277101961
  0
ARC
  5
15A9F
  8
0
 10
3414.0548505762658351
 20
207.7165744343789129
 30
0.0
 40
0.033865078320008
 50
144.6041730475685938
 51
249.3870797398157038
  0
ARC
  5
15AA0
  8
0
 10
3414.2796606454639914
 20
207.9059444644680923
 30
0.0
 40
0.2858039625409087
 50
158.6508404336694866
 51
201.3681516247987133
  0
ARC
  5
15AA1
  8
0
 10
3414.267850867478046
 20
208.4090117780278888
 30
0.0
 40
0.0350662131055828
 50
77.4572601189130268
 51
180.4686254160855015
  0
LINE
  5
15AA2
  8
0
 10
3414.7258708334338735
 20
208.5357847807100029
 30
0.0
 11
3414.7404716177238697
 21
208.5336475140748007
 31
0.0
  0
LINE
  5
15AA3
  8
0
 10
3414.7359525499859956
 20
208.4731328708633953
 30
0.0
 11
3414.7500597189191467
 21
208.4729390603164063
 31
0.0
  0
LINE
  5
15AA4
  8
0
 10
3414.7372027368619456
 20
208.4648321494246943
 30
0.0
 11
3414.7513059316788713
 21
208.4645630431029133
 31
0.0
  0
LINE
  5
15AA5
  8
0
 10
3414.7427862191170789
 20
208.4261090311495082
 30
0.0
 11
3414.7568227903198022
 21
208.4256949658164046
 31
0.0
  0
ARC
  5
15AA6
  8
0
 10
3414.8016938828468483
 20
208.3028013790564046
 30
0.0
 40
0.0357834816429576
 50
152.6668362667282963
 51
219.1393790484289923
  0
LINE
  5
15AA7
  8
0
 10
3414.7828983595700265
 20
208.1737527886440091
 30
0.0
 11
3414.7692433052588967
 21
208.1737531880027063
 31
0.0
  0
ARC
  5
15AA8
  8
0
 10
3415.0605189768812124
 20
207.90489177463391
 30
0.0
 40
0.281201462037566
 50
163.1249307876545913
 51
196.8437564812286098
  0
LINE
  5
15AA9
  8
0
 10
3414.7854116820089985
 20
207.6769200741453858
 30
0.0
 11
3414.7717951873960374
 21
207.6770215460747977
 31
0.0
  0
LINE
  5
15AAA
  8
0
 10
3414.7844889540078839
 20
207.6620115038521988
 30
0.0
 11
3414.7708320152241868
 21
207.6616678002583001
 31
0.0
  0
ARC
  5
15AAB
  8
0
 10
3414.8016961143061963
 20
207.5092262480310978
 30
0.0
 40
0.0357809429301884
 50
140.87099223223899
 51
207.3215953350984933
  0
LINE
  5
15AAC
  8
0
 10
3414.7404013367508924
 20
207.277869213416011
 30
0.0
 11
3414.7259021552799823
 21
207.2762089678570021
 31
0.0
  0
LINE
  5
15AAD
  8
0
 10
3414.7368817208671317
 20
207.3459624809707975
 30
0.0
 11
3414.7510726330910984
 21
207.3458825358339084
 31
0.0
  0
ARC
  5
15AAE
  8
0
 10
3422.1484694928572026
 20
211.7187556604141889
 30
0.0
 40
0.1242626804647012
 50
0.6798268860996438
 51
90.1683797294562055
  0
LINE
  5
15AAF
  8
0
 10
3422.2727234263647915
 20
211.7202300295508053
 30
0.0
 11
3422.2730698229729569
 21
210.4650680998163921
 31
0.0
  0
ARC
  5
15AB0
  8
0
 10
3422.4271863226958885
 20
210.3400273416116022
 30
0.0
 40
0.1250929044052364
 50
0.0172689048451833
 51
88.3455725964848426
  0
LINE
  5
15AB1
  8
0
 10
3422.5522792214192123
 20
210.3400650445184112
 30
0.0
 11
3422.5522792214192123
 21
206.2409227661163982
 31
0.0
  0
ARC
  5
15AB2
  8
0
 10
3422.4343783427580092
 20
206.2408595258648916
 30
0.0
 40
0.1179008956220457
 50
299.3617692124028054
 51
0.0307325882719565
  0
ARC
  5
15AB3
  8
0
 10
3415.365308331102824
 20
222.9278606211730107
 30
0.0
 40
18.2397460717387006
 50
290.4756678428972236
 51
293.0001463532167918
  0
ARC
  5
15AB4
  8
0
 10
3414.6746791164191563
 20
224.7170335485170938
 30
0.0
 40
20.1574803150007398
 50
270.0000001870236019
 51
290.535716636202892
  0
ARC
  5
15AB5
  8
0
 10
3418.7017818129811531
 20
203.3399605918282873
 30
0.0
 40
0.4468262551934514
 50
269.1856609085073728
 51
283.2498566819509733
  0
ARC
  5
15AB6
  8
0
 10
3414.8056860896481339
 20
424.9148348018629235
 30
0.0
 40
222.0557262395468001
 50
269.9662048492776876
 51
271.0037002358554901
  0
LINE
  5
15AB7
  8
0
 10
3418.7990970256000764
 20
202.9038603146867956
 30
0.0
 11
3418.7970642893192235
 21
202.9487955608163929
 31
0.0
  0
ARC
  5
15AB8
  8
0
 10
3418.7482991528149796
 20
202.8874039364405064
 30
0.0
 40
0.0784026152742613
 50
51.5388715119417924
 51
63.3456745500306866
  0
ARC
  5
15AB9
  8
0
 10
3418.7761642021528132
 20
202.9372814845204118
 30
0.0
 40
0.0214745092132662
 50
70.1073652321093164
 51
89.4294215802173653
  0
LINE
  5
15ABA
  8
0
 10
3418.7763780519198917
 20
202.9587549289163917
 30
0.0
 11
3418.3845911080188671
 21
202.9587407195164133
 31
0.0
  0
ARC
  5
15ABB
  8
0
 10
3418.3846462945889471
 20
202.9190818119728874
 30
0.0
 40
0.0396589459403625
 50
90.0797287592172466
 51
176.8118960648990878
  0
ARC
  5
15ABC
  8
0
 10
3420.2359782308408285
 20
202.815961868276986
 30
0.0
 40
1.8938605695437669
 50
176.8118960648990878
 51
177.8415040966388005
  0
LINE
  5
15ABD
  8
0
 10
3418.3243145220471888
 20
202.886987877817802
 30
0.0
 11
3418.3243051007198119
 21
203.014277633116393
 31
0.0
  0
ARC
  5
15ABE
  8
0
 10
3418.2849320979330514
 20
203.0142747189310057
 30
0.0
 40
0.0393730028940296
 50
0.0042407364237743
 51
89.9957450015219962
  0
LINE
  5
15ABF
  8
0
 10
3418.2849350219189546
 20
203.053647721716402
 30
0.0
 11
3417.0132814821258762
 21
203.0537421594559078
 31
0.0
  0
ARC
  5
15AC0
  8
0
 10
3417.0132785585651618
 20
203.0143748808170869
 30
0.0
 40
0.0393672787473
 50
89.9957450015219962
 51
180.1415287564927041
  0
LINE
  5
15AC1
  8
0
 10
3416.9739113999198707
 20
203.0142776381163969
 30
0.0
 11
3416.9739113999198707
 21
202.8696944479781052
 31
0.0
  0
ARC
  5
15AC2
  8
0
 10
3421.711097166691161
 20
182.0018199690871938
 30
0.0
 40
21.0448224190139399
 50
91.0424828985139669
 51
94.3191200613475047
  0
ARC
  5
15AC3
  8
0
 10
3415.8395126799860009
 20
371.5649461784234973
 30
0.0
 40
168.6325625883652037
 50
271.0119006230851824
 51
271.4566250590846153
  0
LINE
  5
15AC4
  8
0
 10
3418.817577138319848
 20
202.9586820682164046
 30
0.0
 11
3418.8141458994200548
 21
202.957060303516414
 31
0.0
  0
LINE
  5
15AC5
  8
0
 10
3418.8141458994200548
 20
202.957060303516414
 30
0.0
 11
3418.8075175324970587
 21
202.9049224212022864
 31
0.0
  0
LINE
  5
15AC6
  8
0
 10
3418.8075175324970587
 20
202.9049224212022864
 30
0.0
 11
3418.8041934774191759
 21
202.9050289267163976
 31
0.0
  0
ARC
  5
15AC7
  8
0
 10
3421.3473776163950788
 20
202.3293561210923031
 30
0.0
 40
0.7140601568233244
 50
1.738631271435447
 51
91.5379568848703968
  0
ARC
  5
15AC8
  8
0
 10
3107.5117695312242176
 20
198.3917251727582993
 30
0.0
 40
314.5742567482444088
 50
357.8411466093390914
 51
0.7211553911879403
  0
ARC
  5
15AC9
  8
0
 10
3420.8752466401938364
 20
186.5964568312647884
 30
0.0
 40
0.9890226966755653
 50
286.5342877172698763
 51
356.8235973657734235
  0
ARC
  5
15ACA
  8
0
 10
3417.5867703277158398
 20
197.6738195208839102
 30
0.0
 40
12.5441964562993604
 50
285.6621553969101797
 51
286.5342877172698763
  0
ARC
  5
15ACB
  8
0
 10
3420.3458370743219348
 20
186.7365950246461921
 30
0.0
 40
1.302311840194033
 50
285.3640774376303284
 51
298.801389328546918
  0
ARC
  5
15ACC
  8
0
 10
3414.6748498766191915
 20
207.4628077825163075
 30
0.0
 40
22.7903541082998906
 50
269.9995708680606867
 51
285.305933761912172
  0
ARC
  5
15ACD
  8
0
 10
3099.7182063691361691
 20
199.5442595414953075
 30
0.0
 40
322.2860827044667076
 50
0.5507053506965565
 51
1.132622826214652
  0
ENDSEC
  0
EOF
