  0
SECTION
  2
HEADER
  9
$ACADVER
  1
AC1009
  9
$INSBASE
 10
5881.1394963307220678
 20
449.7194023918252128
 30
0.0
  9
$EXTMIN
 10
5872.0299472652150143
 20
443.2900782455741933
 30
-0.0000000349181948
  9
$EXTMAX
 10
5890.0056339581533393
 20
451.6991691036610064
 30
0.0000000814935746
  9
$LIMMIN
 10
0.0
 20
0.0
  9
$LIMMAX
 10
11.6929133858000007
 20
8.2677165353999982
  9
$ORTHOMODE
 70
     0
  9
$REGENMODE
 70
     1
  9
$FILLMODE
 70
     1
  9
$QTEXTMODE
 70
     0
  9
$MIRRTEXT
 70
     0
  9
$DRAGMODE
 70
     2
  9
$LTSCALE
 40
0.6431102362
  9
$OSMODE
 70
  4095
  9
$ATTMODE
 70
     1
  9
$TEXTSIZE
 40
0.2
  9
$TRACEWID
 40
0.05
  9
$TEXTSTYLE
  7
STANDARD
  9
$CLAYER
  8
0
  9
$CELTYPE
  6
BYLAYER
  9
$CECOLOR
 62
   256
  9
$DIMSCALE
 40
1.0
  9
$DIMASZ
 40
0.1875
  9
$DIMEXO
 40
0.0625
  9
$DIMDLI
 40
0.4443307087
  9
$DIMRND
 40
0.0
  9
$DIMDLE
 40
0.0
  9
$DIMEXE
 40
0.125
  9
$DIMTP
 40
0.01
  9
$DIMTM
 40
0.01
  9
$DIMTXT
 40
2.0
  9
$DIMCEN
 40
0.1052362205
  9
$DIMTSZ
 40
0.0
  9
$DIMTOL
 70
     1
  9
$DIMLIM
 70
     0
  9
$DIMTIH
 70
     1
  9
$DIMTOH
 70
     1
  9
$DIMSE1
 70
     0
  9
$DIMSE2
 70
     0
  9
$DIMTAD
 70
     0
  9
$DIMZIN
 70
     0
  9
$DIMBLK
  1

  9
$DIMASO
 70
     1
  9
$DIMSHO
 70
     1
  9
$DIMPOST
  1
\X
  9
$DIMAPOST
  1

  9
$DIMALT
 70
     1
  9
$DIMALTD
 70
     2
  9
$DIMALTF
 40
25.3999999999999986
  9
$DIMLFAC
 40
1.0
  9
$DIMTOFL
 70
     0
  9
$DIMTVP
 40
0.0
  9
$DIMTIX
 70
     0
  9
$DIMSOXD
 70
     0
  9
$DIMSAH
 70
     0
  9
$DIMBLK1
  1

  9
$DIMBLK2
  1

  9
$DIMSTYLE
  2
STANDARD
  9
$DIMCLRD
 70
     0
  9
$DIMCLRE
 70
     0
  9
$DIMCLRT
 70
     0
  9
$DIMTFAC
 40
1.0
  9
$DIMGAP
 40
0.09
  9
$LUNITS
 70
     2
  9
$LUPREC
 70
     4
  9
$SKETCHINC
 40
0.1
  9
$FILLETRAD
 40
0.0
  9
$AUNITS
 70
     0
  9
$AUPREC
 70
     0
  9
$MENU
  1
.
  9
$ELEVATION
 40
0.0
  9
$PELEVATION
 40
0.0
  9
$THICKNESS
 40
0.0
  9
$LIMCHECK
 70
     0
  9
$BLIPMODE
 70
     0
  9
$CHAMFERA
 40
0.0
  9
$CHAMFERB
 40
0.0
  9
$SKPOLY
 70
     0
  9
$TDCREATE
 40
2458060.468368056230247
  9
$TDUPDATE
 40
2460622.5019212961196899
  9
$TDINDWG
 40
0.6766737269
  9
$TDUSRTIMER
 40
0.6766737269
  9
$USRTIMER
 70
     1
  9
$ANGBASE
 50
0.0
  9
$ANGDIR
 70
     0
  9
$PDMODE
 70
     0
  9
$PDSIZE
 40
0.3125
  9
$PLINEWID
 40
0.0
  9
$COORDS
 70
     1
  9
$SPLFRAME
 70
     0
  9
$SPLINETYPE
 70
     6
  9
$SPLINESEGS
 70
     8
  9
$ATTDIA
 70
     1
  9
$ATTREQ
 70
     1
  9
$HANDLING
 70
     1
  9
$HANDSEED
  5
2C93A
  9
$SURFTAB1
 70
     6
  9
$SURFTAB2
 70
     6
  9
$SURFTYPE
 70
     6
  9
$SURFU
 70
     6
  9
$SURFV
 70
     6
  9
$UCSNAME
  2

  9
$UCSORG
 10
0.0
 20
0.0
 30
0.0
  9
$UCSXDIR
 10
1.0
 20
0.0
 30
0.0
  9
$UCSYDIR
 10
0.0
 20
1.0
 30
0.0
  9
$PUCSNAME
  2

  9
$PUCSORG
 10
0.0
 20
0.0
 30
0.0
  9
$PUCSXDIR
 10
1.0
 20
0.0
 30
0.0
  9
$PUCSYDIR
 10
0.0
 20
1.0
 30
0.0
  9
$USERI1
 70
     0
  9
$USERI2
 70
     0
  9
$USERI3
 70
     0
  9
$USERI4
 70
     0
  9
$USERI5
 70
     0
  9
$USERR1
 40
0.0
  9
$USERR2
 40
0.0
  9
$USERR3
 40
0.0
  9
$USERR4
 40
0.0
  9
$USERR5
 40
0.0
  9
$WORLDVIEW
 70
     1
  9
$SHADEDGE
 70
     3
  9
$SHADEDIF
 70
    70
  9
$TILEMODE
 70
     1
  9
$MAXACTVP
 70
    64
  9
$PLIMCHECK
 70
     0
  9
$PEXTMIN
 10
1.0000000000000000E+20
 20
1.0000000000000000E+20
 30
1.0000000000000000E+20
  9
$PEXTMAX
 10
-1.0000000000000000E+20
 20
-1.0000000000000000E+20
 30
-1.0000000000000000E+20
  9
$PLIMMIN
 10
0.0
 20
0.0
  9
$PLIMMAX
 10
12.0
 20
9.0
  9
$UNITMODE
 70
     0
  9
$VISRETAIN
 70
     1
  9
$PLINEGEN
 70
     0
  9
$PSLTSCALE
 70
     1
  0
ENDSEC
  0
SECTION
  2
TABLES
  0
TABLE
  2
VPORT
 70
     1
  0
VPORT
  2
*ACTIVE
 70
     0
 10
0.0
 20
0.0
 11
1.0
 21
1.0
 12
1969.6524341663719042
 22
314.9150185720785089
 13
0.0
 23
0.0
 14
1.0
 24
1.0
 15
0.0
 25
0.0
 16
0.0
 26
0.0
 36
60.4960186965801583
 17
3911.3653564453120453
 27
132.5796051025390057
 37
0.0
 40
9.8355717933319102
 41
1.8344827586206891
 42
50.0
 43
0.0
 44
0.0
 50
0.0
 51
0.0
 71
     0
 72
   100
 73
     1
 74
     1
 75
     0
 76
     0
 77
     0
 78
     1
  0
ENDTAB
  0
TABLE
  2
LTYPE
 70
     2
  0
LTYPE
  2
CONTINUOUS
 70
     0
  3
Solid line
 72
    65
 73
     0
 40
0.0
  0
LTYPE
  2
PHANTOM2
 70
     0
  3
___ _ _ ___ _ _ ___ _ _ ___ _ _
 72
    65
 73
     6
 40
1.25
 49
0.625
 49
-0.125
 49
0.125
 49
-0.125
 49
0.125
 49
-0.125
  0
ENDTAB
  0
TABLE
  2
LAYER
 70
     2
  0
LAYER
  2
0
 70
     0
 62
   255
  6
CONTINUOUS
  0
LAYER
  2
DEFPOINTS
 70
     0
 62
     7
  6
CONTINUOUS
  0
ENDTAB
  0
TABLE
  2
STYLE
 70
     1
  0
STYLE
  2
STANDARD
 70
     0
 40
0.0
 41
0.8
 50
0.0
 71
     0
 42
0.2
  3
txt
  4

  0
ENDTAB
  0
TABLE
  2
VIEW
 70
     0
  0
ENDTAB
  0
TABLE
  2
UCS
 70
     0
  0
ENDTAB
  0
TABLE
  2
APPID
 70
    11
  0
APPID
  2
ACAD
 70
     0
  0
APPID
  2
ACAD_MLEADERVER
 70
     0
  0
APPID
  2
ACAD_EXEMPT_FROM_CAD_STANDARDS
 70
     0
  0
APPID
  2
ACAD_NAV_VCDISPLAY
 70
     0
  0
APPID
  2
ACAECLAYERSTANDARD
 70
     0
  0
APPID
  2
ACCMTRANSPARENCY
 70
     0
  0
APPID
  2
ACAD_DSTYLE_DIMJAG
 70
     0
  0
APPID
  2
ACAD_DSTYLE_DIMTALN
 70
     0
  0
APPID
  2
ACDBATTR
 70
     0
  0
APPID
  2
ACADANNOTATIVE
 70
     0
  0
APPID
  2
DCO15
 70
     0
  0
ENDTAB
  0
TABLE
  2
DIMSTYLE
 70
     1
  0
DIMSTYLE
  2
STANDARD
 70
     0
  3

  4

  5

  6

  7

 40
1.0
 41
0.1875
 42
0.0625
 43
0.38
 44
0.125
 45
0.0
 46
0.0
 47
0.01
 48
0.01
140
0.15625
141
0.09
142
0.0
143
25.3999999999999986
144
1.0
145
0.0
146
1.0
147
0.09
 71
     1
 72
     0
 73
     1
 74
     1
 75
     0
 76
     0
 77
     0
 78
     4
170
     0
171
     2
172
     0
173
     0
174
     0
175
     0
176
     0
177
     0
178
     0
  0
ENDTAB
  0
ENDSEC
  0
SECTION
  2
BLOCKS
  0
BLOCK
  8
0
  2
$MODEL_SPACE
 70
     0
 10
0.0
 20
0.0
 30
0.0
  3
$MODEL_SPACE
  1

  0
ENDBLK
  5
21
  8
0
  0
BLOCK
 67
     1
  8
0
  2
$PAPER_SPACE
 70
     0
 10
0.0
 20
0.0
 30
0.0
  3
$PAPER_SPACE
  1

  0
ENDBLK
  5
1D
 67
     1
  8
0
  0
ENDSEC
  0
SECTION
  2
ENTITIES
  0
ATTDEF
  5
2B716
  8
DEFPOINTS
 10
5881.1373012958129038
 20
449.7229536970551749
 30
0.0
 40
0.001
  1
K-36399X-1
  3

  2
MODELNUMBER
 70
     0
1001
ACDBATTR
1070
     0
1070
     1
  0
ATTDEF
  5
2B717
  8
DEFPOINTS
 10
5881.1371754861556838
 20
449.721286856675988
 30
0.0
 40
0.001
  1
LADENA
  3

  2
TRADENAME
 70
     0
1001
ACDBATTR
1070
     0
1070
     1
  0
ATTDEF
  5
2B718
  8
DEFPOINTS
 10
5881.1373012958129038
 20
449.7196203637217877
 30
0.0
 40
0.001
  1
BATHROOM SINK
  3

  2
PRODUCT
 70
     0
1001
ACDBATTR
1070
     0
1070
     1
  0
LINE
  5
2C673
  8
0
 10
5879.9441397054106346
 20
443.3084272721133061
 30
0.0
 11
5882.7000452172123914
 21
443.3084272721133061
 31
0.0
  0
ARC
  5
2C674
  8
0
 10
5879.7368652736486183
 20
443.409200230045883
 30
0.0
 40
0.1987698605763119
 50
0.6542749787496241
 51
82.325665426674405
  0
LINE
  5
2C675
  8
0
 10
5882.8401590354123982
 20
444.9119893113817739
 30
0.0
 11
5882.7000452172123914
 21
443.3084272721133061
 31
0.0
  0
LINE
  5
2C676
  8
0
 10
5879.9356221746384108
 20
443.411469983961922
 30
0.0
 11
5879.9441397054106346
 21
443.3084272721133061
 31
0.0
  0
LINE
  5
2C678
  8
0
 10
5872.4814987318168278
 20
451.6879063090132718
 30
0.0
 11
5889.79737652861877
 21
451.6879063090132718
 31
0.0
  0
LINE
  5
2C679
  8
0
 10
5872.3464618863117721
 20
449.7194024070132059
 30
0.0
 11
5889.9325307751551009
 21
449.7194023720132918
 31
0.0
  0
LINE
  5
2C67A
  8
0
 10
5889.9941565824592544
 20
451.4841345981101881
 30
0.0
 11
5889.9325307751551009
 21
449.7194023720132918
 31
0.0
  0
LINE
  5
2C67B
  8
0
 10
5872.2848360789939761
 20
451.4841346331086243
 30
0.0
 11
5872.3464618863117721
 21
449.7194024070132059
 31
0.0
  0
ARC
  5
2C67C
  8
0
 10
5872.4816161328335511
 20
451.4910063440132717
 30
0.0
 40
0.1969
 50
90.0
 51
182.0000000011580141
  0
ARC
  5
2C67D
  8
0
 10
5889.79737652861877
 20
451.4910063090133008
 30
0.0
 40
0.1969
 50
357.9999999992929816
 51
90.0
  0
ARC
  5
2C67E
  8
0
 10
5882.5417009003458588
 20
449.1748358383222239
 30
0.0
 40
4.207581747234121
 50
275.0367111114281897
 51
282.8248885093796048
  0
ARC
  5
2C67F
  8
0
 10
5783.3827571622241521
 20
467.4215123583931017
 30
0.0
 40
103.2963750669154024
 50
348.2910563975833043
 51
349.1615245004516055
  0
ARC
  5
2C680
  8
0
 10
5623.8740844505337009
 20
498.2135321949500053
 30
0.0
 40
265.7498796117632196
 50
349.1079321802150162
 51
349.4856592472527836
  0
ARC
  5
2C681
  8
0
 10
5882.2291339365692693
 20
452.1142254609620181
 30
0.0
 40
9.5947565154762842
 50
194.8078573215937013
 51
217.286561334052891
  0
ARC
  5
2C682
  8
0
 10
5872.8772449885045717
 20
449.6406621241923744
 30
0.0
 40
0.078740247820833
 50
15.7334334040427706
 51
89.999977074322473
  0
ARC
  5
2C683
  8
0
 10
5879.7731863959570546
 20
450.357572735946178
 30
0.0
 40
6.577201456485863
 50
218.0723177714824033
 51
243.0298185862430103
  0
ARC
  5
2C684
  8
0
 10
5880.6444432720245459
 20
452.1270084369091933
 30
0.0
 40
8.5493758350718032
 50
243.2039643494098016
 51
257.1922115012009726
  0
ARC
  5
2C685
  8
0
 10
5881.1423477058779099
 20
454.0851248856395728
 30
0.0
 40
10.5692739888824097
 50
256.9133615123117806
 51
262.5034382924840202
  0
ARC
  5
2C686
  8
0
 10
5906.5583329967648751
 20
465.9676871341142146
 30
0.0
 40
36.6186998529028287
 50
206.4145518870109868
 51
210.0016065316787888
  0
ARC
  5
2C687
  8
0
 10
5883.3724882275801065
 20
452.5109086551386781
 30
0.0
 40
9.8109632636348678
 50
209.6498161634690121
 51
219.6621718731815918
  0
ARC
  5
2C688
  8
0
 10
5878.0302035252670976
 20
448.1221126585299999
 30
0.0
 40
2.8973358078420399
 50
220.2787232158908921
 51
244.9063852649661897
  0
ARC
  5
2C689
  8
0
 10
5878.5061329062345976
 20
449.692183036185213
 30
0.0
 40
4.5271536029914827
 50
247.8800538719480926
 51
263.0610096385140082
  0
ARC
  5
2C68A
  8
0
 10
5881.3678850270962357
 20
467.5057290528652061
 30
0.0
 40
22.5664682688948517
 50
261.3121595479814232
 51
262.483159402058277
  0
ARC
  5
2C68B
  8
0
 10
5881.3666145128336211
 20
466.8586299036550145
 30
0.0
 40
21.9249223842464005
 50
262.2652319837661139
 51
267.5550709323541128
  0
ARC
  5
2C68C
  8
0
 10
5881.2697790660586179
 20
478.3341543748136928
 30
0.0
 40
33.3910170130955493
 50
268.5611279583649207
 51
272.8174869214041109
  0
ARC
  5
2C68D
  8
0
 10
5881.1293052331839135
 20
444.8936902656294023
 30
0.0
 40
0.8109281209727001
 50
175.4049827814120022
 51
191.2129514354118101
  0
ARC
  5
2C68E
  8
0
 10
5879.5282978611166982
 20
444.5815843354473031
 30
0.0
 40
0.8202252191989062
 50
330.0755912458254784
 51
10.8512871619444393
  0
ARC
  5
2C68F
  8
0
 10
5878.5877356980481636
 20
445.0770370100419768
 30
0.0
 40
1.8829764966473941
 50
308.6359510595477218
 51
331.2868789884277021
  0
ARC
  5
2C691
  8
0
 10
5882.9188216209740858
 20
444.9050949732927052
 30
0.0
 40
0.0787852294457921
 50
95.623477664531265
 51
174.9728175551223046
  0
ARC
  5
2C692
  8
0
 10
5883.2743367989751277
 20
446.2306089484346785
 30
0.0
 40
1.1757539656432161
 50
279.8596073090486129
 51
325.3545391879002864
  0
ARC
  5
2C693
  8
0
 10
5883.3109632892819718
 20
446.2052991107042885
 30
0.0
 40
1.131233322361995
 50
325.3545391879002864
 51
345.3683189622998952
  0
ARC
  5
2C694
  8
0
 10
5875.0750779035188316
 20
448.3523754416302722
 30
0.0
 40
9.64238740508749
 50
345.3859968266186229
 51
348.6729987424337764
  0
ARC
  5
2C695
  8
0
 10
5873.6928173754031377
 20
449.6403319270345946
 30
0.0
 40
0.0790754852625203
 50
27.9148051609952503
 51
87.3409784123346782
  0
ENDSEC
  0
EOF
