  0
SECTION
  2
HEADER
  9
$ACADVER
  1
AC1009
  9
$INSBASE
 10
5879.879203123600746
 20
440.9456743785676736
 30
0.0
  9
$EXTMIN
 10
5868.9695079953226013
 20
434.4893892069181902
 30
-0.0000000000000058
  9
$EXTMAX
 10
5890.9917320979329816
 20
442.9374930843238758
 30
0.0000000000000104
  9
$LIMMIN
 10
0.0
 20
0.0
  9
$LIMMAX
 10
11.6929133858000007
 20
8.2677165353999982
  9
$ORTHOMODE
 70
     0
  9
$REGENMODE
 70
     1
  9
$FILLMODE
 70
     1
  9
$QTEXTMODE
 70
     0
  9
$MIRRTEXT
 70
     0
  9
$DRAGMODE
 70
     2
  9
$LTSCALE
 40
0.6431102362
  9
$OSMODE
 70
  4095
  9
$ATTMODE
 70
     1
  9
$TEXTSIZE
 40
0.2
  9
$TRACEWID
 40
0.05
  9
$TEXTSTYLE
  7
STANDARD
  9
$CLAYER
  8
0
  9
$CELTYPE
  6
BYLAYER
  9
$CECOLOR
 62
   256
  9
$DIMSCALE
 40
1.0
  9
$DIMASZ
 40
0.1875
  9
$DIMEXO
 40
0.0625
  9
$DIMDLI
 40
0.4443307087
  9
$DIMRND
 40
0.0
  9
$DIMDLE
 40
0.0
  9
$DIMEXE
 40
0.125
  9
$DIMTP
 40
0.01
  9
$DIMTM
 40
0.01
  9
$DIMTXT
 40
2.0
  9
$DIMCEN
 40
0.1052362205
  9
$DIMTSZ
 40
0.0
  9
$DIMTOL
 70
     1
  9
$DIMLIM
 70
     0
  9
$DIMTIH
 70
     1
  9
$DIMTOH
 70
     1
  9
$DIMSE1
 70
     0
  9
$DIMSE2
 70
     0
  9
$DIMTAD
 70
     0
  9
$DIMZIN
 70
     0
  9
$DIMBLK
  1

  9
$DIMASO
 70
     1
  9
$DIMSHO
 70
     1
  9
$DIMPOST
  1
\X
  9
$DIMAPOST
  1

  9
$DIMALT
 70
     1
  9
$DIMALTD
 70
     2
  9
$DIMALTF
 40
25.3999999999999986
  9
$DIMLFAC
 40
1.0
  9
$DIMTOFL
 70
     0
  9
$DIMTVP
 40
0.0
  9
$DIMTIX
 70
     0
  9
$DIMSOXD
 70
     0
  9
$DIMSAH
 70
     0
  9
$DIMBLK1
  1

  9
$DIMBLK2
  1

  9
$DIMSTYLE
  2
STANDARD
  9
$DIMCLRD
 70
     0
  9
$DIMCLRE
 70
     0
  9
$DIMCLRT
 70
     0
  9
$DIMTFAC
 40
1.0
  9
$DIMGAP
 40
0.09
  9
$LUNITS
 70
     2
  9
$LUPREC
 70
     4
  9
$SKETCHINC
 40
0.1
  9
$FILLETRAD
 40
0.0
  9
$AUNITS
 70
     0
  9
$AUPREC
 70
     0
  9
$MENU
  1
.
  9
$ELEVATION
 40
0.0
  9
$PELEVATION
 40
0.0
  9
$THICKNESS
 40
0.0
  9
$LIMCHECK
 70
     0
  9
$BLIPMODE
 70
     0
  9
$CHAMFERA
 40
0.0
  9
$CHAMFERB
 40
0.0
  9
$SKPOLY
 70
     0
  9
$TDCREATE
 40
2458060.468368056230247
  9
$TDUPDATE
 40
2460622.4971643518656492
  9
$TDINDWG
 40
0.6724144676
  9
$TDUSRTIMER
 40
0.6724144676
  9
$USRTIMER
 70
     1
  9
$ANGBASE
 50
0.0
  9
$ANGDIR
 70
     0
  9
$PDMODE
 70
     0
  9
$PDSIZE
 40
0.3125
  9
$PLINEWID
 40
0.0
  9
$COORDS
 70
     1
  9
$SPLFRAME
 70
     0
  9
$SPLINETYPE
 70
     6
  9
$SPLINESEGS
 70
     8
  9
$ATTDIA
 70
     1
  9
$ATTREQ
 70
     1
  9
$HANDLING
 70
     1
  9
$HANDSEED
  5
2C8C6
  9
$SURFTAB1
 70
     6
  9
$SURFTAB2
 70
     6
  9
$SURFTYPE
 70
     6
  9
$SURFU
 70
     6
  9
$SURFV
 70
     6
  9
$UCSNAME
  2

  9
$UCSORG
 10
0.0
 20
0.0
 30
0.0
  9
$UCSXDIR
 10
1.0
 20
0.0
 30
0.0
  9
$UCSYDIR
 10
0.0
 20
1.0
 30
0.0
  9
$PUCSNAME
  2

  9
$PUCSORG
 10
0.0
 20
0.0
 30
0.0
  9
$PUCSXDIR
 10
1.0
 20
0.0
 30
0.0
  9
$PUCSYDIR
 10
0.0
 20
1.0
 30
0.0
  9
$USERI1
 70
     0
  9
$USERI2
 70
     0
  9
$USERI3
 70
     0
  9
$USERI4
 70
     0
  9
$USERI5
 70
     0
  9
$USERR1
 40
0.0
  9
$USERR2
 40
0.0
  9
$USERR3
 40
0.0
  9
$USERR4
 40
0.0
  9
$USERR5
 40
0.0
  9
$WORLDVIEW
 70
     1
  9
$SHADEDGE
 70
     3
  9
$SHADEDIF
 70
    70
  9
$TILEMODE
 70
     1
  9
$MAXACTVP
 70
    64
  9
$PLIMCHECK
 70
     0
  9
$PEXTMIN
 10
1.0000000000000000E+20
 20
1.0000000000000000E+20
 30
1.0000000000000000E+20
  9
$PEXTMAX
 10
-1.0000000000000000E+20
 20
-1.0000000000000000E+20
 30
-1.0000000000000000E+20
  9
$PLIMMIN
 10
0.0
 20
0.0
  9
$PLIMMAX
 10
12.0
 20
9.0
  9
$UNITMODE
 70
     0
  9
$VISRETAIN
 70
     1
  9
$PLINEGEN
 70
     0
  9
$PSLTSCALE
 70
     1
  0
ENDSEC
  0
SECTION
  2
TABLES
  0
TABLE
  2
VPORT
 70
     1
  0
VPORT
  2
*ACTIVE
 70
     0
 10
0.0
 20
0.0
 11
1.0
 21
1.0
 12
1968.6152636013159736
 22
306.1338360430819989
 13
0.0
 23
0.0
 14
1.0
 24
1.0
 15
0.0
 25
0.0
 16
0.0
 26
0.0
 36
60.4960186965801583
 17
3911.3653564453120453
 27
132.5796051025390057
 37
0.0
 40
12.0496740909012701
 41
1.8344827586206891
 42
50.0
 43
0.0
 44
0.0
 50
0.0
 51
0.0
 71
     0
 72
   100
 73
     1
 74
     1
 75
     0
 76
     0
 77
     0
 78
     1
  0
ENDTAB
  0
TABLE
  2
LTYPE
 70
     2
  0
LTYPE
  2
CONTINUOUS
 70
     0
  3
Solid line
 72
    65
 73
     0
 40
0.0
  0
LTYPE
  2
PHANTOM2
 70
     0
  3
___ _ _ ___ _ _ ___ _ _ ___ _ _
 72
    65
 73
     6
 40
1.25
 49
0.625
 49
-0.125
 49
0.125
 49
-0.125
 49
0.125
 49
-0.125
  0
ENDTAB
  0
TABLE
  2
LAYER
 70
     2
  0
LAYER
  2
0
 70
     0
 62
   255
  6
CONTINUOUS
  0
LAYER
  2
DEFPOINTS
 70
     0
 62
     7
  6
CONTINUOUS
  0
ENDTAB
  0
TABLE
  2
STYLE
 70
     1
  0
STYLE
  2
STANDARD
 70
     0
 40
0.0
 41
0.8
 50
0.0
 71
     0
 42
0.2
  3
txt
  4

  0
ENDTAB
  0
TABLE
  2
VIEW
 70
     0
  0
ENDTAB
  0
TABLE
  2
UCS
 70
     0
  0
ENDTAB
  0
TABLE
  2
APPID
 70
    11
  0
APPID
  2
ACAD
 70
     0
  0
APPID
  2
ACAD_MLEADERVER
 70
     0
  0
APPID
  2
ACAD_EXEMPT_FROM_CAD_STANDARDS
 70
     0
  0
APPID
  2
ACAD_NAV_VCDISPLAY
 70
     0
  0
APPID
  2
ACAECLAYERSTANDARD
 70
     0
  0
APPID
  2
ACCMTRANSPARENCY
 70
     0
  0
APPID
  2
ACAD_DSTYLE_DIMJAG
 70
     0
  0
APPID
  2
ACAD_DSTYLE_DIMTALN
 70
     0
  0
APPID
  2
ACDBATTR
 70
     0
  0
APPID
  2
ACADANNOTATIVE
 70
     0
  0
APPID
  2
DCO15
 70
     0
  0
ENDTAB
  0
TABLE
  2
DIMSTYLE
 70
     1
  0
DIMSTYLE
  2
STANDARD
 70
     0
  3

  4

  5

  6

  7

 40
1.0
 41
0.1875
 42
0.0625
 43
0.38
 44
0.125
 45
0.0
 46
0.0
 47
0.01
 48
0.01
140
0.15625
141
0.09
142
0.0
143
25.3999999999999986
144
1.0
145
0.0
146
1.0
147
0.09
 71
     1
 72
     0
 73
     1
 74
     1
 75
     0
 76
     0
 77
     0
 78
     4
170
     0
171
     2
172
     0
173
     0
174
     0
175
     0
176
     0
177
     0
178
     0
  0
ENDTAB
  0
ENDSEC
  0
SECTION
  2
BLOCKS
  0
BLOCK
  8
0
  2
$MODEL_SPACE
 70
     0
 10
0.0
 20
0.0
 30
0.0
  3
$MODEL_SPACE
  1

  0
ENDBLK
  5
21
  8
0
  0
BLOCK
 67
     1
  8
0
  2
$PAPER_SPACE
 70
     0
 10
0.0
 20
0.0
 30
0.0
  3
$PAPER_SPACE
  1

  0
ENDBLK
  5
1D
 67
     1
  8
0
  0
ENDSEC
  0
SECTION
  2
ENTITIES
  0
ATTDEF
  5
2B716
  8
DEFPOINTS
 10
5879.8759083980239666
 20
440.9493741294481879
 30
0.0
 40
0.001
  1
K-36400X
  3

  2
MODELNUMBER
 70
     0
1001
ACDBATTR
1070
     0
1070
     1
  0
ATTDEF
  5
2B717
  8
DEFPOINTS
 10
5879.8757825883667465
 20
440.9477072890691147
 30
0.0
 40
0.001
  1
LADENA
  3

  2
TRADENAME
 70
     0
1001
ACDBATTR
1070
     0
1070
     1
  0
ATTDEF
  5
2B718
  8
DEFPOINTS
 10
5879.8759083980239666
 20
440.9460407961149144
 30
0.0
 40
0.001
  1
BATHROOM SINK
  3

  2
PRODUCT
 70
     0
1001
ACDBATTR
1070
     0
1070
     1
  0
LINE
  5
2C63E
  8
0
 10
5881.2571558795507372
 20
434.4905965556677074
 30
0.0
 11
5878.5012503676507549
 21
434.4905965556677074
 31
0.0
  0
LINE
  5
2C63F
  8
0
 10
5881.3997525562499504
 20
436.1204840279676773
 30
0.0
 11
5881.2571558795507372
 21
434.4905965556677074
 31
0.0
  0
ARC
  5
2C640
  8
0
 10
5795.6947352759825662
 20
441.5888509196370819
 30
0.0
 40
85.6417309676944143
 50
357.8835468761931793
 51
359.523759907054
  0
ARC
  5
2C641
  8
0
 10
4474.6104149909660919
 20
503.2077394847497089
 30
0.0
 40
1408.1585445640789658
 50
357.2896604113494732
 51
357.3632029823659764
  0
ARC
  5
2C642
  8
0
 10
5876.0165420476869258
 20
436.8186581790936884
 30
0.0
 40
5.1809808026772011
 50
348.6225570883275964
 51
357.8086745037495007
  0
ARC
  5
2C643
  8
0
 10
5879.7103406861469921
 20
436.0388087750944237
 30
0.0
 40
1.4063841704308999
 50
321.1202672610671129
 51
350.0829796461176784
  0
ARC
  5
2C644
  8
0
 10
5879.9862361747573232
 20
435.870526338321497
 30
0.0
 40
1.0867989163320391
 50
287.3220322739970811
 51
318.8962957583266871
  0
ARC
  5
2C645
  8
0
 10
5879.7270423006139026
 20
437.3791734562685178
 30
0.0
 40
2.6119994620551861
 50
273.3393830175394896
 51
282.8921320935600079
  0
ARC
  5
2C646
  8
0
 10
5585.4804656409660311
 20
447.3607476928913229
 30
0.0
 40
294.7881065768007147
 50
357.9961809081042929
 51
358.7530513113105144
  0
ARC
  5
2C647
  8
0
 10
5846.1635325121060305
 20
438.053739251621721
 30
0.0
 40
33.9395288952833667
 50
355.1676830550857744
 51
358.3105943933591107
  0
ARC
  5
2C648
  8
0
 10
5877.4581445752455693
 20
435.3999184935718176
 30
0.0
 40
2.5326089197230042
 50
345.6853572700749737
 51
355.3516806962248893
  0
LINE
  5
2C649
  8
0
 10
5881.1520720363432702
 20
436.1338999638599034
 30
0.0
 11
5881.3997525562499504
 21
436.1204840279676773
 31
0.0
  0
LINE
  5
2C64A
  8
0
 10
5869.2563694219861645
 20
442.9141783155677103
 30
0.0
 11
5890.5020368252144181
 21
442.9141783155677103
 31
0.0
  0
LINE
  5
2C64B
  8
0
 10
5869.1212151754498336
 20
440.9456743785676736
 30
0.0
 11
5890.637191071750749
 21
440.9456743785676736
 31
0.0
  0
LINE
  5
2C64C
  8
0
 10
5890.698816879053993
 20
442.7104066046646267
 30
0.0
 11
5890.637191071750749
 21
440.9456743785676736
 31
0.0
  0
ARC
  5
2C64D
  8
0
 10
5890.5020368252144181
 20
442.7172783155676825
 30
0.0
 40
0.1969
 50
357.999999999292811
 51
90.0
  0
ARC
  5
2C64E
  8
0
 10
5881.4021561793670116
 20
440.8770825609061035
 30
0.0
 40
0.068648393777769
 50
87.6729514168892621
 51
87.6736833080904745
  0
LINE
  5
2C64F
  8
0
 10
5881.3997525562499504
 20
436.1204840279676773
 30
0.0
 11
5881.4572583803510497
 21
436.1204778238677022
 31
0.0
  0
LINE
  5
2C650
  8
0
 10
5881.4572583803510497
 20
436.1204778238677022
 30
0.0
 11
5882.3552649114508313
 21
436.1938739568677192
 31
0.0
  0
ARC
  5
2C651
  8
0
 10
5878.7258139538053001
 20
472.4592047450710197
 30
0.0
 40
36.4464968334647565
 50
275.7151574293525869
 51
279.9518083552864027
  0
ARC
  5
2C652
  8
0
 10
5883.4571107999872766
 20
445.4940802315463202
 30
0.0
 40
9.0694423922619478
 50
279.9518083552864027
 51
283.8710630234393761
  0
ARC
  5
2C653
  8
0
 10
5884.6760073853120048
 20
440.5580586459672077
 30
0.0
 40
3.9851510966122961
 50
283.8710630234393761
 51
305.5311501964072818
  0
ARC
  5
2C654
  8
0
 10
5884.6528281191722272
 20
440.5905174364849017
 30
0.0
 40
4.0250365759336049
 50
305.5311501964072818
 51
326.5849584455708055
  0
ARC
  5
2C655
  8
0
 10
5861.9108110484467034
 20
455.5946823729605057
 30
0.0
 40
31.2706656911886007
 50
326.5849584455708055
 51
332.0657215050583204
  0
LINE
  5
2C657
  8
0
 10
5878.3586536909506322
 20
436.1204840279676773
 30
0.0
 11
5878.5012503676507549
 21
434.4905965556677074
 31
0.0
  0
ARC
  5
2C658
  8
0
 10
5964.0636709712171069
 20
441.5888509196370819
 30
0.0
 40
85.6417309676944143
 50
180.4762400929427031
 51
182.1164531238067923
  0
ARC
  5
2C659
  8
0
 10
7285.1479912562335812
 20
503.2077394847497089
 30
0.0
 40
1408.1585445640789658
 50
182.6367970176335973
 51
182.7103395886504984
  0
ARC
  5
2C65A
  8
0
 10
5883.7418641995136568
 20
436.8186581790936884
 30
0.0
 40
5.1809808026772011
 50
182.1913254962472024
 51
191.3774429116724036
  0
ARC
  5
2C65B
  8
0
 10
5880.048065561052681
 20
436.0388087750944237
 30
0.0
 40
1.4063841704308999
 50
189.9170203538822932
 51
218.8797327389328871
  0
ARC
  5
2C65C
  8
0
 10
5879.7721700724432594
 20
435.870526338321497
 30
0.0
 40
1.0867989163320391
 50
221.1037042416731992
 51
252.6779677260028905
  0
ARC
  5
2C65D
  8
0
 10
5879.8806070682603604
 20
436.3219842764693226
 30
0.0
 40
1.550375787988808
 50
253.8199486256025921
 51
269.947700505344983
  0
ARC
  5
2C65E
  8
0
 10
6174.277940606233642
 20
447.3607476928913229
 30
0.0
 40
294.7881065768007147
 50
181.246948688689514
 51
182.0038190918922965
  0
ARC
  5
2C65F
  8
0
 10
5913.5948737350936426
 20
438.053739251621721
 30
0.0
 40
33.9395288952833667
 50
181.6894056066408893
 51
184.8323169449141972
  0
ARC
  5
2C660
  8
0
 10
5882.3002616719541038
 20
435.3999184935718176
 30
0.0
 40
2.5326089197230042
 50
184.648319303774997
 51
194.3557590220698046
  0
LINE
  5
2C661
  8
0
 10
5878.6063342108582219
 20
436.1338999638599034
 30
0.0
 11
5878.3586536909506322
 21
436.1204840279676773
 31
0.0
  0
LINE
  5
2C662
  8
0
 10
5869.0595893681465895
 20
442.7104066046646267
 30
0.0
 11
5869.1212151754498336
 21
440.9456743785676736
 31
0.0
  0
ARC
  5
2C663
  8
0
 10
5869.2563694219861645
 20
442.7172783155676825
 30
0.0
 40
0.1969
 50
90.0
 51
182.0000000007071037
  0
ARC
  5
2C664
  8
0
 10
5878.3562500678335709
 20
440.8770825609061035
 30
0.0
 40
0.068648393777769
 50
359.9383331480776747
 51
87.6736833080904745
  0
LINE
  5
2C665
  8
0
 10
5878.3586536909506322
 20
436.1204840279676773
 30
0.0
 11
5878.3011478668504424
 21
436.1204778238677022
 31
0.0
  0
LINE
  5
2C666
  8
0
 10
5878.3011478668504424
 20
436.1204778238677022
 30
0.0
 11
5877.4031413357506608
 21
436.1938739568677192
 31
0.0
  0
ARC
  5
2C667
  8
0
 10
5881.0325922933952825
 20
472.4592047450710197
 30
0.0
 40
36.4464968334647565
 50
260.0481916447135973
 51
264.2848425706472995
  0
ARC
  5
2C668
  8
0
 10
5876.301295447213306
 20
445.4940802315463202
 30
0.0
 40
9.0694423922619478
 50
256.1289369765606239
 51
260.0481916447135973
  0
ARC
  5
2C669
  8
0
 10
5875.0823988618903968
 20
440.5580586459672077
 30
0.0
 40
3.9851510966122961
 50
234.4688498035926898
 51
256.1289369765606239
  0
ARC
  5
2C66A
  8
0
 10
5875.1055781280301744
 20
440.5905174364849017
 30
0.0
 40
4.0250365759336049
 50
213.4150415544291945
 51
234.4688498035926898
  0
ARC
  5
2C66B
  8
0
 10
5897.8475951987529697
 20
455.5946823729605057
 30
0.0
 40
31.2706656911886007
 50
207.934278494941708
 51
213.4150415544291945
  0
ARC
  5
2C6F2
  8
0
 10
5878.3562500678335709
 20
440.8770825609061035
 30
0.0
 40
0.068648393777769
 50
92.3263166919095539
 51
92.3270485831107521
  0
ARC
  5
2C6F3
  8
0
 10
5881.4021561793670116
 20
440.8770825609061035
 30
0.0
 40
0.068648393777769
 50
92.3263166919095539
 51
180.061666851919
  0
ENDSEC
  0
EOF
