  0
SECTION
  2
HEADER
  9
$ACADVER
  1
AC1009
  9
$INSBASE
 10
5036.5246197085161839
 20
247.1065950444223915
 30
0.0
  9
$EXTMIN
 10
5023.6821572788130652
 20
239.1693136262142048
 30
-0.0000000000112498
  9
$EXTMAX
 10
5049.4928275773181667
 20
255.0469988571855993
 30
0.0000000000002956
  9
$LIMMIN
 10
0.0
 20
0.0
  9
$LIMMAX
 10
11.6929133858000007
 20
8.2677165353999982
  9
$ORTHOMODE
 70
     0
  9
$REGENMODE
 70
     1
  9
$FILLMODE
 70
     1
  9
$QTEXTMODE
 70
     0
  9
$MIRRTEXT
 70
     0
  9
$DRAGMODE
 70
     2
  9
$LTSCALE
 40
0.6431102362
  9
$OSMODE
 70
  4095
  9
$ATTMODE
 70
     1
  9
$TEXTSIZE
 40
0.2
  9
$TRACEWID
 40
0.05
  9
$TEXTSTYLE
  7
STANDARD
  9
$CLAYER
  8
0
  9
$CELTYPE
  6
BYLAYER
  9
$CECOLOR
 62
   256
  9
$DIMSCALE
 40
1.0
  9
$DIMASZ
 40
0.1875
  9
$DIMEXO
 40
0.0625
  9
$DIMDLI
 40
0.4443307087
  9
$DIMRND
 40
0.0
  9
$DIMDLE
 40
0.0
  9
$DIMEXE
 40
0.125
  9
$DIMTP
 40
0.01
  9
$DIMTM
 40
0.01
  9
$DIMTXT
 40
2.0
  9
$DIMCEN
 40
0.1052362205
  9
$DIMTSZ
 40
0.0
  9
$DIMTOL
 70
     1
  9
$DIMLIM
 70
     0
  9
$DIMTIH
 70
     1
  9
$DIMTOH
 70
     1
  9
$DIMSE1
 70
     0
  9
$DIMSE2
 70
     0
  9
$DIMTAD
 70
     0
  9
$DIMZIN
 70
     0
  9
$DIMBLK
  1

  9
$DIMASO
 70
     1
  9
$DIMSHO
 70
     1
  9
$DIMPOST
  1
\X
  9
$DIMAPOST
  1

  9
$DIMALT
 70
     1
  9
$DIMALTD
 70
     2
  9
$DIMALTF
 40
25.3999999999999986
  9
$DIMLFAC
 40
1.0
  9
$DIMTOFL
 70
     0
  9
$DIMTVP
 40
0.0
  9
$DIMTIX
 70
     0
  9
$DIMSOXD
 70
     0
  9
$DIMSAH
 70
     0
  9
$DIMBLK1
  1

  9
$DIMBLK2
  1

  9
$DIMSTYLE
  2
STANDARD
  9
$DIMCLRD
 70
     0
  9
$DIMCLRE
 70
     0
  9
$DIMCLRT
 70
     0
  9
$DIMTFAC
 40
1.0
  9
$DIMGAP
 40
0.09
  9
$LUNITS
 70
     2
  9
$LUPREC
 70
     4
  9
$SKETCHINC
 40
0.1
  9
$FILLETRAD
 40
0.0
  9
$AUNITS
 70
     0
  9
$AUPREC
 70
     0
  9
$MENU
  1
.
  9
$ELEVATION
 40
0.0
  9
$PELEVATION
 40
0.0
  9
$THICKNESS
 40
0.0
  9
$LIMCHECK
 70
     0
  9
$BLIPMODE
 70
     0
  9
$CHAMFERA
 40
0.0
  9
$CHAMFERB
 40
0.0
  9
$SKPOLY
 70
     0
  9
$TDCREATE
 40
2458060.468368056230247
  9
$TDUPDATE
 40
2460621.6591203701682389
  9
$TDINDWG
 40
0.381222338
  9
$TDUSRTIMER
 40
0.381222338
  9
$USRTIMER
 70
     1
  9
$ANGBASE
 50
0.0
  9
$ANGDIR
 70
     0
  9
$PDMODE
 70
     0
  9
$PDSIZE
 40
0.3125
  9
$PLINEWID
 40
0.0
  9
$COORDS
 70
     1
  9
$SPLFRAME
 70
     0
  9
$SPLINETYPE
 70
     6
  9
$SPLINESEGS
 70
     8
  9
$ATTDIA
 70
     1
  9
$ATTREQ
 70
     1
  9
$HANDLING
 70
     1
  9
$HANDSEED
  5
DB54
  9
$SURFTAB1
 70
     6
  9
$SURFTAB2
 70
     6
  9
$SURFTYPE
 70
     6
  9
$SURFU
 70
     6
  9
$SURFV
 70
     6
  9
$UCSNAME
  2

  9
$UCSORG
 10
0.0
 20
0.0
 30
0.0
  9
$UCSXDIR
 10
1.0
 20
0.0
 30
0.0
  9
$UCSYDIR
 10
0.0
 20
1.0
 30
0.0
  9
$PUCSNAME
  2

  9
$PUCSORG
 10
0.0
 20
0.0
 30
0.0
  9
$PUCSXDIR
 10
1.0
 20
0.0
 30
0.0
  9
$PUCSYDIR
 10
0.0
 20
1.0
 30
0.0
  9
$USERI1
 70
     0
  9
$USERI2
 70
     0
  9
$USERI3
 70
     0
  9
$USERI4
 70
     0
  9
$USERI5
 70
     0
  9
$USERR1
 40
0.0
  9
$USERR2
 40
0.0
  9
$USERR3
 40
0.0
  9
$USERR4
 40
0.0
  9
$USERR5
 40
0.0
  9
$WORLDVIEW
 70
     1
  9
$SHADEDGE
 70
     3
  9
$SHADEDIF
 70
    70
  9
$TILEMODE
 70
     1
  9
$MAXACTVP
 70
    64
  9
$PLIMCHECK
 70
     0
  9
$PEXTMIN
 10
1.0000000000000000E+20
 20
1.0000000000000000E+20
 30
1.0000000000000000E+20
  9
$PEXTMAX
 10
-1.0000000000000000E+20
 20
-1.0000000000000000E+20
 30
-1.0000000000000000E+20
  9
$PLIMMIN
 10
0.0
 20
0.0
  9
$PLIMMAX
 10
12.0
 20
9.0
  9
$UNITMODE
 70
     0
  9
$VISRETAIN
 70
     1
  9
$PLINEGEN
 70
     0
  9
$PSLTSCALE
 70
     1
  0
ENDSEC
  0
SECTION
  2
TABLES
  0
TABLE
  2
VPORT
 70
     1
  0
VPORT
  2
*ACTIVE
 70
     0
 10
0.0
 20
0.0
 11
1.0
 21
1.0
 12
435.9986252405652181
 22
8.7403583901373736
 13
0.0
 23
0.0
 14
1.0
 24
1.0
 15
0.0
 25
0.0
 16
0.0
 26
0.0
 36
114.8828007288452966
 17
4600.5888671874990905
 27
238.3677978515625
 37
0.0
 40
15.9870607893937606
 41
2.1827586206896541
 42
50.0
 43
0.0
 44
0.0
 50
0.0
 51
0.0
 71
     0
 72
   100
 73
     1
 74
     1
 75
     0
 76
     0
 77
     0
 78
     0
  0
ENDTAB
  0
TABLE
  2
LTYPE
 70
     2
  0
LTYPE
  2
CONTINUOUS
 70
     0
  3
Solid line
 72
    65
 73
     0
 40
0.0
  0
LTYPE
  2
PHANTOM2
 70
     0
  3
___ _ _ ___ _ _ ___ _ _ ___ _ _
 72
    65
 73
     6
 40
1.25
 49
0.625
 49
-0.125
 49
0.125
 49
-0.125
 49
0.125
 49
-0.125
  0
ENDTAB
  0
TABLE
  2
LAYER
 70
     2
  0
LAYER
  2
0
 70
     0
 62
   255
  6
CONTINUOUS
  0
LAYER
  2
DEFPOINTS
 70
     0
 62
     7
  6
CONTINUOUS
  0
ENDTAB
  0
TABLE
  2
STYLE
 70
     1
  0
STYLE
  2
STANDARD
 70
     0
 40
0.0
 41
0.8
 50
0.0
 71
     0
 42
0.2
  3
txt
  4

  0
ENDTAB
  0
TABLE
  2
VIEW
 70
     0
  0
ENDTAB
  0
TABLE
  2
UCS
 70
     0
  0
ENDTAB
  0
TABLE
  2
APPID
 70
     9
  0
APPID
  2
ACAD
 70
     0
  0
APPID
  2
ACAD_MLEADERVER
 70
     0
  0
APPID
  2
ACAD_EXEMPT_FROM_CAD_STANDARDS
 70
     0
  0
APPID
  2
ACAD_NAV_VCDISPLAY
 70
     0
  0
APPID
  2
ACAECLAYERSTANDARD
 70
     0
  0
APPID
  2
ACCMTRANSPARENCY
 70
     0
  0
APPID
  2
ACAD_DSTYLE_DIMJAG
 70
     0
  0
APPID
  2
ACAD_DSTYLE_DIMTALN
 70
     0
  0
APPID
  2
ACDBATTR
 70
     0
  0
ENDTAB
  0
TABLE
  2
DIMSTYLE
 70
     1
  0
DIMSTYLE
  2
STANDARD
 70
     0
  3

  4

  5

  6

  7

 40
1.0
 41
0.1875
 42
0.0625
 43
0.38
 44
0.125
 45
0.0
 46
0.0
 47
0.01
 48
0.01
140
0.15625
141
0.09
142
0.0
143
25.3999999999999986
144
1.0
145
0.0
146
1.0
147
0.09
 71
     1
 72
     0
 73
     1
 74
     1
 75
     0
 76
     0
 77
     0
 78
     4
170
     0
171
     2
172
     0
173
     0
174
     0
175
     0
176
     0
177
     0
178
     0
  0
ENDTAB
  0
ENDSEC
  0
SECTION
  2
BLOCKS
  0
BLOCK
  8
0
  2
$MODEL_SPACE
 70
     0
 10
0.0
 20
0.0
 30
0.0
  3
$MODEL_SPACE
  1

  0
ENDBLK
  5
21
  8
0
  0
BLOCK
 67
     1
  8
0
  2
$PAPER_SPACE
 70
     0
 10
0.0
 20
0.0
 30
0.0
  3
$PAPER_SPACE
  1

  0
ENDBLK
  5
1D
 67
     1
  8
0
  0
BLOCK
  8
0
  2
_FILLED
 70
     0
 10
0.0
 20
0.0
 30
0.0
  3
_FILLED
  1

  0
SOLID
  5
C14B
  8
0
  6
BYBLOCK
 62
     0
 10
0.0
 20
0.0
 30
0.0
 11
-1.0
 21
0.1666666667
 31
0.0
 12
-1.0
 22
-0.1666666667
 32
0.0
 13
-1.0
 23
-0.1666666667
 33
0.0
  0
ENDBLK
  5
C14C
  8
0
  6
BYBLOCK
 62
     0
  0
ENDSEC
  0
SECTION
  2
ENTITIES
  0
ATTDEF
  5
3930
  8
DEFPOINTS
 10
5036.5201867128471349
 20
247.1051636270645133
 30
0.0
 40
0.001
  1
K-36403PH
  3

  2
MODELNUMBER
 70
     0
1001
ACDBATTR
1070
     0
1070
     1
  0
ATTDEF
  5
3931
  8
DEFPOINTS
 10
5036.5201867128471349
 20
247.1034969603977913
 30
0.0
 40
0.001
  1
LADENA
  3

  2
TRADENAME
 70
     0
1001
ACDBATTR
1070
     0
1070
     1
  0
ATTDEF
  5
3932
  8
DEFPOINTS
 10
5036.5201867128471349
 20
247.1018302937312114
 30
0.0
 40
0.001
  1
BATHROOM SINK
  3

  2
PRODUCT
 70
     0
1001
ACDBATTR
1070
     0
1070
     1
  0
ARC
  5
DA0E
  8
0
 10
5036.5786027567191923
 20
238.5944258087511969
 30
0.0
 40
2.6256757958639869
 50
91.1780657379225659
 51
98.8248498803100546
  0
ARC
  5
DA0F
  8
0
 10
5036.2666630278063167
 20
240.7104943172836045
 30
0.0
 40
0.4870771710886158
 50
100.7530200724418989
 51
115.4304743057687972
  0
ARC
  5
DA10
  8
0
 10
5036.0955127537108638
 20
241.0665674606088942
 30
0.0
 40
0.0920254670168818
 50
114.394600683965507
 51
149.027143276983395
  0
ARC
  5
DA11
  8
0
 10
5036.0592929746771915
 20
241.0974537775751116
 30
0.0
 40
0.0457522847301041
 50
158.8969778192210924
 51
227.791553151933698
  0
ARC
  5
DA12
  8
0
 10
5036.2809063708373287
 20
241.3470809810565072
 30
0.0
 40
0.3795556896857922
 50
228.3284649727110036
 51
253.8858940595725926
  0
ARC
  5
DA13
  8
0
 10
5036.5508548652323952
 20
242.2665629319799052
 30
0.0
 40
1.3378429050192311
 50
253.7086267245879014
 51
268.8763553402391153
  0
ARC
  5
DA14
  8
0
 10
5039.3768542723300925
 20
186.7177373299529961
 30
0.0
 40
68.2754436922773493
 50
86.1152309460751866
 51
89.6584020919671616
  0
ARC
  5
DA15
  8
0
 10
5043.7337011349118256
 20
248.3543113453123112
 30
0.0
 40
6.4875666438334179
 50
57.8036089969959193
 51
87.6252062844625357
  0
ARC
  5
DA16
  8
0
 10
5044.7046306222382555
 20
250.4057300882687116
 30
0.0
 40
4.2429577153600784
 50
11.51374993994256
 51
54.1359673932734182
  0
ARC
  5
DA17
  8
0
 10
5033.5913695840836226
 20
247.9795944690976057
 30
0.0
 40
15.6176590393544004
 50
0.4222931857445538
 51
12.0973430550043801
  0
ARC
  5
DA18
  8
0
 10
5036.5477213914691674
 20
127.1975077617104972
 30
0.0
 40
127.8354288977134985
 50
88.549386532017877
 51
90.01035416355721
  0
LINE
  5
DA19
  8
0
 10
5049.2086044271572973
 20
248.0947019226277064
 30
0.0
 11
5049.2086044271572973
 21
246.1183043790896932
 31
0.0
  0
ARC
  5
DA1A
  8
0
 10
5036.2573361237737117
 20
79.1820391086516224
 30
0.0
 40
174.8079834507005046
 50
88.2936187066583784
 51
89.9123940051245683
  0
ARC
  5
DA1B
  8
0
 10
5041.0810481866083137
 20
222.1819842508398892
 30
0.0
 40
31.7328147522412216
 50
84.0372953894310939
 51
89.3108974403554754
  0
ARC
  5
DA1C
  8
0
 10
5043.9623805228911806
 20
248.901576394741511
 30
0.0
 40
4.8593021040982931
 50
56.9391576629686327
 51
85.0995256023045954
  0
ARC
  5
DA1D
  8
0
 10
5044.5073544521510485
 20
250.2751600158921974
 30
0.0
 40
3.4233405570263069
 50
10.9792171111230292
 51
52.0361212293616973
  0
ARC
  5
DA1E
  8
0
 10
5036.1480741730047157
 20
248.3653311427555934
 30
0.0
 40
11.9966820636156903
 50
1.048155900891562
 51
12.3300945721217001
  0
ARC
  5
DA1F
  8
0
 10
5004.2199160885238598
 20
247.1785877841456056
 30
0.0
 40
43.9453367981724909
 50
359.908188962495899
 51
1.8337061255620899
  0
ARC
  5
DA20
  8
0
 10
5038.7342926326127781
 20
332.8748014766392203
 30
0.0
 40
93.6588544057913168
 50
270.6421278837177056
 51
272.9518497703007824
  0
ARC
  5
DA21
  8
0
 10
5043.4513085975504509
 20
246.6787599685156067
 30
0.0
 40
7.3393100285310489
 50
270.8283730703478795
 51
300.1052503266852227
  0
ARC
  5
DA22
  8
0
 10
5044.7148316816710576
 20
243.8029353734484062
 30
0.0
 40
4.2320960693347294
 50
304.8410118247978744
 51
348.5162690857736152
  0
ARC
  5
DA23
  8
0
 10
5033.5914027281978633
 20
246.2334081970010971
 30
0.0
 40
15.6176258693448808
 50
347.9026445036922155
 51
359.577719255553518
  0
ARC
  5
DA24
  8
0
 10
5036.4975856924593245
 20
369.0842771508661144
 30
0.0
 40
129.9040242471355953
 50
270.0119236878223887
 51
271.4496368548267924
  0
ARC
  5
DA25
  8
0
 10
5034.9675334517196461
 20
497.7623133775206838
 30
0.0
 40
257.5434781522690741
 50
270.3464075853083273
 51
271.4690830610442731
  0
ARC
  5
DA26
  8
0
 10
5041.3319528094270936
 20
268.0860778889460789
 30
0.0
 40
27.7836117730240417
 50
270.4915525543988792
 51
276.2931926779926926
  0
ARC
  5
DA27
  8
0
 10
5043.7721576812464264
 20
245.9326435051117983
 30
0.0
 40
5.4961890189945821
 50
276.3231689513478955
 51
299.7318232035091796
  0
ARC
  5
DA28
  8
0
 10
5044.5737449806911172
 20
243.9058351215300888
 30
0.0
 40
3.3529367066156142
 50
305.0215510865485271
 51
349.340586174389216
  0
ARC
  5
DA29
  8
0
 10
5036.1088989565023439
 20
245.8512316748366118
 30
0.0
 40
12.0365313057884293
 50
347.6929642843509214
 51
358.9383990892160909
  0
ARC
  5
DA2A
  8
0
 10
5004.9085016648987221
 20
247.0061629691620055
 30
0.0
 40
43.2568150768475732
 50
358.1745464071980223
 51
0.135112914579715
  0
ARC
  5
DA2B
  8
0
 10
5036.4706366629925469
 20
238.5944258087511969
 30
0.0
 40
2.6256757958639869
 50
81.1751501196899454
 51
88.8219342620774341
  0
ARC
  5
DA2C
  8
0
 10
5036.7825763919072415
 20
240.7104943172836045
 30
0.0
 40
0.4870771710886158
 50
64.569525694231217
 51
79.2469799275580584
  0
ARC
  5
DA2D
  8
0
 10
5036.9537266660017849
 20
241.0665674606088942
 30
0.0
 40
0.0920254670168818
 50
30.9728567230166014
 51
65.6053993160344504
  0
ARC
  5
DA2E
  8
0
 10
5036.9899464450363666
 20
241.0974537775751116
 30
0.0
 40
0.0457522847301041
 50
312.2084468480651935
 51
21.1030221807788898
  0
ARC
  5
DA2F
  8
0
 10
5036.7683330488753199
 20
241.3470809810565072
 30
0.0
 40
0.3795556896857922
 50
286.1141059404274074
 51
311.6715350272889964
  0
ARC
  5
DA30
  8
0
 10
5036.4983845544802534
 20
242.2665629319799052
 30
0.0
 40
1.3378429050192311
 50
271.1236446597608847
 51
286.291373275412127
  0
CIRCLE
  5
DA31
  8
0
 10
5036.5246197098567791
 20
249.4622227437224069
 30
0.0
 40
0.8858267716999996
  0
CIRCLE
  5
DA32
  8
0
 10
5036.5246197098567791
 20
249.4622227437224069
 30
0.0
 40
1.289503412599998
  0
ARC
  5
DA34
  8
0
 10
5033.6723851447031848
 20
186.7177373299529961
 30
0.0
 40
68.2754436922773493
 50
90.3415979080328384
 51
93.8847690539248561
  0
ARC
  5
DA35
  8
0
 10
5029.3155382821196326
 20
248.3543113453123112
 30
0.0
 40
6.4875666438334179
 50
92.3747937155374785
 51
122.196391003004095
  0
ARC
  5
DA36
  8
0
 10
5028.3446087947950218
 20
250.4057300882687116
 30
0.0
 40
4.2429577153600784
 50
125.864032606726596
 51
168.4862500600573867
  0
ARC
  5
DA37
  8
0
 10
5039.4578698329478357
 20
247.9795944690976057
 30
0.0
 40
15.6176590393544004
 50
167.9026569449939927
 51
179.5777068142554072
  0
ARC
  5
DA38
  8
0
 10
5036.7447093322161891
 20
107.8494615823285017
 30
0.0
 40
147.1836375442271105
 50
90.0856767196732449
 51
91.3545825847250939
  0
LINE
  5
DA39
  8
0
 10
5023.84063498987598
 20
248.0947019226277064
 30
0.0
 11
5023.84063498987598
 21
246.1183043790896932
 31
0.0
  0
ARC
  5
DA3A
  8
0
 10
5036.791903293258656
 20
79.1820391086516224
 30
0.0
 40
174.8079834507005046
 50
90.0876059948754175
 51
91.7063812933416358
  0
ARC
  5
DA3B
  8
0
 10
5031.9681912304240541
 20
222.1819842508398892
 30
0.0
 40
31.7328147522412216
 50
90.6891025596445246
 51
95.9627046105688919
  0
ARC
  5
DA3C
  8
0
 10
5029.0868588941411872
 20
248.901576394741511
 30
0.0
 40
4.8593021040982931
 50
94.9004743976954188
 51
123.0608423370314028
  0
ARC
  5
DA3D
  8
0
 10
5028.5418849648813193
 20
250.2751600158921974
 30
0.0
 40
3.4233405570263069
 50
127.9638787706383027
 51
169.0207828888769086
  0
ARC
  5
DA3E
  8
0
 10
5036.9011652440276521
 20
248.3653311427555934
 30
0.0
 40
11.9966820636156903
 50
167.669905427878291
 51
178.9518440991083992
  0
ARC
  5
DA3F
  8
0
 10
5068.829323328506689
 20
247.1785877841456056
 30
0.0
 40
43.9453367981724909
 50
178.1662938744379119
 51
180.091811037504101
  0
ARC
  5
DA40
  8
0
 10
5034.3149467844186802
 20
332.8748014766392203
 30
0.0
 40
93.6588544057913168
 50
267.0481502296992176
 51
269.3578721162821807
  0
ARC
  5
DA41
  8
0
 10
5029.5979308194800979
 20
246.6787599685156067
 30
0.0
 40
7.3393100285310489
 50
239.8947496733148057
 51
269.1716269296521205
  0
ARC
  5
DA42
  8
0
 10
5028.3344077353613102
 20
243.8029353734484062
 30
0.0
 40
4.2320960693347294
 50
191.4837309142262995
 51
235.1589881752022109
  0
ARC
  5
DA43
  8
0
 10
5039.457836688833595
 20
246.2334081970010971
 30
0.0
 40
15.6176258693448808
 50
180.4222807444465104
 51
192.0973554963078129
  0
ARC
  5
DA44
  8
0
 10
5036.5691839418459494
 20
370.4586341738410056
 30
0.0
 40
131.2783860210859928
 50
268.5578892891857095
 51
269.9805501681213968
  0
ARC
  5
DA45
  8
0
 10
5038.0817059653118122
 20
497.7623133775251176
 30
0.0
 40
257.5434781522736216
 50
268.5309169389557269
 51
269.6535924146917864
  0
ARC
  5
DA46
  8
0
 10
5031.7172866076043647
 20
268.0860778889460789
 30
0.0
 40
27.7836117730240417
 50
263.7068073220071938
 51
269.5084474456011208
  0
ARC
  5
DA47
  8
0
 10
5029.2770817357868509
 20
245.9326435051117983
 30
0.0
 40
5.4961890189945821
 50
240.2681767964907067
 51
263.6768310486519908
  0
ARC
  5
DA48
  8
0
 10
5028.47549443634216
 20
243.9058351215300888
 30
0.0
 40
3.3529367066156142
 50
190.6594138256106987
 51
234.9784489134513876
  0
ARC
  5
DA49
  8
0
 10
5036.9403404605309333
 20
245.8512316748366118
 30
0.0
 40
12.0365313057884293
 50
181.0616009107839091
 51
192.307035715649107
  0
ARC
  5
DA4A
  8
0
 10
5068.1407377521327362
 20
247.0061629691620055
 30
0.0
 40
43.2568150768475732
 50
179.8648870854202926
 51
181.8254535928018925
  0
ENDSEC
  0
EOF
